  0
SECTION
  2
HEADER
  9
$ACADVER
  1
AC1009
  9
$INSBASE
 10
0
 20
0
 30
0
  9
$EXTMIN
 10
0
 20
0
  9
$EXTMAX
 10
2970
 20
2100
  9
$LIMMIN
 10
0
 20
0
  9
$LIMMAX
 10
2970
 20
2100
  9
$LTSCALE
 40
10
  0
ENDSEC
  0
SECTION
  2
TABLES
  0
TABLE
  2
LTYPE
 70
     9
  0
LTYPE
  2
CONTINUOUS
 70
    64
  3
実線
 72
    65
 73
     0
 40
0.0
  0
LTYPE
  2
DASHED1
 70
    64
  3
--  --  --  --  --  --  --  --  
 72
    65
 73
     2
 40
2.5
 49
1.25
 49
-1.25
  0
LTYPE
  2
DASHED2
 70
    64
  3
----    ----    ----    ----    
 72
    65
 73
     2
 40
5.0
 49
2.5
 49
-2.5
  0
LTYPE
  2
DASHED3
 70
    64
  3
------  ------  ------  ------  
 72
    65
 73
     2
 40
5.0
 49
3.75
 49
-1.25
  0
LTYPE
  2
CENTER1
 70
    64
  3
----- - ----- - ----- - ----- - 
 72
    65
 73
     4
 40
10.0
 49
6.25
 49
-1.25
 49
1.25
 49
-1.25
  0
LTYPE
  2
CENTER2
 70
    64
  3
----------  --  ----------  --  
 72
    65
 73
     4
 40
20.0
 49
12.5
 49
-2.5
 49
2.5
 49
-2.5
  0
LTYPE
  2
PHANTOM1
 70
    64
  3
--- - - --- - - --- - - --- - - 
 72
    65
 73
     6
 40
10.0
 49
3.25
 49
-1.25
 49
1.25
 49
-1.25
 49
1.25
 49
-1.25
  0
LTYPE
  2
PHANTOM2
 70
    64
  3
--------  -  -  --------  -  -  
 72
    65
 73
     6
 40
20.0
 49
10.0
 49
-2.5
 49
1.25
 49
-2.5
 49
1.25
 49
-2.5
  0
LTYPE
  2
DOT
 70
    64
  3
-   -   -   -   -   -   -   -   
 72
    65
 73
     2
 40
2.5
 49
0.625
 49
-1.875
  0
LTYPE
  2
DUMMY
 70
    64
  3
ダミー
 72
    65
 73
     0
 40
0.0
  0
LTYPE
  2
RAND1
 70
    64
  3
ランダム線1
 72
    65
 73
     4
 40
10.0
 49
1.0
 49
-2.0
 49
3.0
 49
-4.0
  0
LTYPE
  2
RAND2
 70
    64
  3
ランダム線2
 72
    65
 73
     4
 40
14.0
 49
2.0
 49
-3.0
 49
4.0
 49
-5.0
  0
LTYPE
  2
RAND3
 70
    64
  3
ランダム線3
 72
    65
 73
     4
 40
18.0
 49
3.0
 49
-4.0
 49
5.0
 49
-6.0
  0
LTYPE
  2
RAND4
 70
    64
  3
ランダム線4
 72
    65
 73
     4
 40
22.0
 49
4.0
 49
-5.0
 49
6.0
 49
-7.0
  0
LTYPE
  2
RAND5
 70
    64
  3
ランダム線5
 72
    65
 73
     4
 40
26.0
 49
5.0
 49
-6.0
 49
7.0
 49
-8.0
  0
LTYPE
  2
LONG1
 70
    64
  3
----------  --  ----------  --  
 72
    65
 73
     4
 40
40.0
 49
32.5
 49
-2.5
 49
2.5
 49
-2.5
  0
LTYPE
  2
LONG2
 70
    64
  3
--------  -  -  --------  -  -  
 72
    65
 73
     6
 40
40.0
 49
30.0
 49
-2.5
 49
1.25
 49
-2.5
 49
1.25
 49
-2.5
  0
LTYPE
  2
LONG3
 70
    64
  3
+++++++++++++++..+++++++++++++++
 72
    65
 73
     2
 40
40.0
 49
37.5
 49
-2.5
  0
LTYPE
  2
LONG4
 70
    64
  3
+++++++++++++++..+++++++++++++++
 72
    65
 73
     2
 40
80.0
 49
75.0
 49
-5.0
  0
LTYPE
  2
LONG5
 70
    64
  3
----------  --  ----------  --  
 72
    65
 73
     4
 40
60.0
 49
37.5
 49
-7.5
 49
7.5
 49
-7.5
  0
LTYPE
  2
dashed
 70
   64
  3
-------   -------------   ------
 72
   65
 73
    2
 40
7.5
 49
6
 49
-1.5
  0
LTYPE
  2
dashed_spaced
 70
   64
  3
----        --------        ----
 72
   65
 73
    2
 40
12
 49
6
 49
-6
  0
LTYPE
  2
long_dashed_dotted
 70
   64
  3
------------- --- --------------
 72
   65
 73
    4
 40
15.25
 49
12
 49
-1.5
 49
0.25
 49
-1.5
  0
LTYPE
  2
long_dashed_double-dotted
 70
   64
  3
----------- --- --- ------------
 72
   65
 73
    6
 40
17
 49
12
 49
-1.5
 49
0.25
 49
-1.5
 49
0.25
 49
-1.5
  0
LTYPE
  2
long_dashed_triplicate-dotted
 70
   64
  3
--------- --- --- --- ----------
 72
   65
 73
    8
 40
18.75
 49
12
 49
-1.5
 49
0.25
 49
-1.5
 49
0.25
 49
-1.5
 49
0.25
 49
-1.5
  0
LTYPE
  2
dotted
 70
   64
  3
   -       -       -       -    
 72
   65
 73
    2
 40
1.75
 49
0.25
 49
-1.5
  0
LTYPE
  2
chain
 70
   64
  3
-------------- -- --------------
 72
   65
 73
    4
 40
18.5
 49
12
 49
-1.5
 49
3.5
 49
-1.5
  0
LTYPE
  2
chain_double_dash
 70
   64
  3
------------ -- -- -------------
 72
   65
 73
    6
 40
23.5
 49
12
 49
-1.5
 49
3.5
 49
-1.5
 49
3.5
 49
-1.5
  0
LTYPE
  2
dashed_dotted
 70
   64
  3
-----------     -     ----------
 72
   65
 73
    4
 40
9.25
 49
6
 49
-1.5
 49
0.25
 49
-1.5
  0
LTYPE
  2
double-dashed_dotted
 70
   64
  3
------   -----------   -   -----
 72
   65
 73
    6
 40
16.75
 49
6
 49
-1.5
 49
6
 49
-1.5
 49
0.25
 49
-1.5
  0
LTYPE
  2
dashed_double-dotted
 70
   64
  3
---------    -    -    ---------
 72
   65
 73
    6
 40
11
 49
6
 49
-1.5
 49
0.25
 49
-1.5
 49
0.25
 49
-1.5
  0
LTYPE
  2
double-dashed_double-dotted
 70
   64
  3
-----   ---------   -   -   ----
 72
   65
 73
    8
 40
18.5
 49
6
 49
-1.5
 49
6
 49
-1.5
 49
0.25
 49
-1.5
 49
0.25
 49
-1.5
  0
LTYPE
  2
dashed_triplicate-dotted
 70
   64
  3
-------    -    -    -    ------
 72
   65
 73
    8
 40
12.75
 49
6
 49
-1.5
 49
0.25
 49
-1.5
 49
0.25
 49
-1.5
 49
0.25
 49
-1.5
  0
LTYPE
  2
double-dashed_triplicate-dotted
 70
   64
  3
-----  ---------  -  -  -  -----
 72
   65
 73
   10
 40
20.25
 49
6
 49
-1.5
 49
6
 49
-1.5
 49
0.25
 49
-1.5
 49
0.25
 49
-1.5
 49
0.25
 49
-1.5
  0
LTYPE
  2
undefined
 70
   64
  3
--------------------------------
 72
   65
 73
    0
 40
0
  0
ENDTAB
  0
TABLE
  2
STYLE
  5
3
100
AcDbSymbolTable
 70
     1
  0
STYLE
  5
10
100
AcDbSymbolTableRecord
100
AcDbTextStyleTableRecord
  2
STANDARD
 70
     0
 40
0.0
 41
1.0
 50
0.0
 71
     0
 42
0.2
  3
txt
  4
bigfont.shx
  0
STYLE
  5
26
100
AcDbSymbolTableRecord
100
AcDbTextStyleTableRecord
  2
TATEGAKI
 70
    68
 40
0.0
 41
1.0
 50
0.0
 71
     0
 42
1.0
  3
txt
  4
bigfont.shx
  0
ENDTAB
  0
TABLE
  2
LAYER
 70
    6
  0
LAYER
  2
_0-0_LAYER001
 70
   64
 62
    7
  6
CONTINUOUS
  0
LAYER
  2
_0-1_LAYER003
 70
   64
 62
    7
  6
CONTINUOUS
  0
LAYER
  2
_0-2_LAYER004
 70
   64
 62
    7
  6
CONTINUOUS
  0
LAYER
  2
_0-3_LAYER005
 70
   64
 62
    7
  6
CONTINUOUS
  0
LAYER
  2
_0-4_LAYER006
 70
   64
 62
    7
  6
CONTINUOUS
  0
LAYER
  2
ADD_LINE
 70
   64
 62
    7
  6
CONTINUOUS
  0
ENDTAB
  0
ENDSEC
  0
SECTION
  2
BLOCKS
  0
ENDSEC
  0
SECTION
  2
ENTITIES
  0
LINE
  8
_0-3_LAYER005
  6
CONTINUOUS
 62
    2
 10
1275.5165
 20
1095.0608999999999
 11
1255.1005
 21
1103.2689
  0
LINE
  8
_0-0_LAYER001
  6
CONTINUOUS
 62
    2
 10
1446.2543999999998
 20
937.23119999999994
 11
591.40959999999995
 21
1321.9119000000001
  0
LINE
  8
_0-0_LAYER001
  6
CONTINUOUS
 62
    2
 10
1446.2543999999998
 20
937.23119999999994
 11
2317.0459999999998
 21
1329.0879
  0
ARC
  8
_0-0_LAYER001
  6
CONTINUOUS
 62
    2
 10
1451.2424999999998
 20
979.32680000000005
 40
100
 50
245.77226999999999
 51
294.22773000000001
  0
LINE
  8
_0-0_LAYER001
  6
CONTINUOUS
 62
    1
 10
2296.3085999999998
 20
1319.7561000000001
 11
2313.5063
 21
1336.9538
  0
LINE
  8
_0-0_LAYER001
  6
CONTINUOUS
 62
    1
 10
2270.5956000000001
 20
1308.1851999999999
 11
2309.1174000000001
 21
1346.7070000000001
  0
LINE
  8
_0-0_LAYER001
  6
CONTINUOUS
 62
    1
 10
2244.8825999999999
 20
1296.6143999999999
 11
2304.7284
 21
1356.4602
  0
LINE
  8
_0-0_LAYER001
  6
CONTINUOUS
 62
    1
 10
2219.1696000000002
 20
1285.0434999999998
 11
2298.9212000000002
 21
1364.7951
  0
LINE
  8
_0-0_LAYER001
  6
CONTINUOUS
 62
    1
 10
2193.4566
 20
1273.4726000000001
 11
2273.2082
 21
1353.2242000000001
  0
LINE
  8
_0-0_LAYER001
  6
CONTINUOUS
 62
    1
 10
2167.7435999999998
 20
1261.9018000000001
 11
2247.4951999999998
 21
1341.6533999999999
  0
LINE
  8
_0-0_LAYER001
  6
CONTINUOUS
 62
    1
 10
2142.0306
 20
1250.3308999999999
 11
2221.7822999999999
 21
1330.0826000000002
  0
LINE
  8
_0-0_LAYER001
  6
CONTINUOUS
 62
    1
 10
2116.3175999999999
 20
1238.76
 11
2196.0693000000001
 21
1318.5118
  0
LINE
  8
_0-0_LAYER001
  6
CONTINUOUS
 62
    1
 10
2090.6046000000001
 20
1227.1891000000001
 11
2170.3564000000001
 21
1306.9409999999998
  0
LINE
  8
_0-0_LAYER001
  6
CONTINUOUS
 62
    1
 10
2064.8915999999999
 20
1215.6183000000001
 11
2144.6433999999999
 21
1295.3701000000001
  0
LINE
  8
_0-0_LAYER001
  6
CONTINUOUS
 62
    1
 10
2039.1785
 20
1204.0473999999999
 11
2118.9304000000002
 21
1283.7993000000001
  0
LINE
  8
_0-0_LAYER001
  6
CONTINUOUS
 62
    1
 10
2013.4654999999998
 20
1192.4765
 11
2093.2175000000002
 21
1272.2284999999999
  0
LINE
  8
_0-0_LAYER001
  6
CONTINUOUS
 62
    1
 10
1987.7525000000001
 20
1180.9057
 11
2067.5045
 21
1260.6577
  0
LINE
  8
_0-0_LAYER001
  6
CONTINUOUS
 62
    1
 10
1962.0394999999999
 20
1169.3348000000001
 11
2041.7916
 21
1249.0868
  0
LINE
  8
_0-0_LAYER001
  6
CONTINUOUS
 62
    1
 10
1936.3265000000001
 20
1157.7638999999999
 11
2016.0785999999998
 21
1237.5160000000001
  0
LINE
  8
_0-0_LAYER001
  6
CONTINUOUS
 62
    1
 10
1910.6134999999999
 20
1146.1931
 11
1990.3656999999998
 21
1225.9452000000001
  0
LINE
  8
_0-0_LAYER001
  6
CONTINUOUS
 62
    1
 10
1884.9005000000002
 20
1134.6222
 11
1964.6527000000001
 21
1214.3743999999999
  0
LINE
  8
_0-0_LAYER001
  6
CONTINUOUS
 62
    1
 10
1859.1875
 20
1123.0513000000001
 11
1938.9396999999999
 21
1202.8035
  0
LINE
  8
_0-0_LAYER001
  6
CONTINUOUS
 62
    1
 10
1833.4744999999998
 20
1111.4804999999999
 11
1913.2267999999999
 21
1191.2327
  0
LINE
  8
_0-0_LAYER001
  6
CONTINUOUS
 62
    1
 10
1807.7615000000001
 20
1099.9096
 11
1887.5138000000002
 21
1179.6619000000001
  0
LINE
  8
_0-0_LAYER001
  6
CONTINUOUS
 62
    1
 10
1782.0484999999999
 20
1088.3387
 11
1861.8009000000002
 21
1168.0911000000001
  0
LINE
  8
_0-0_LAYER001
  6
CONTINUOUS
 62
    1
 10
1756.3355000000001
 20
1076.7679000000001
 11
1836.0879
 21
1156.5202999999999
  0
LINE
  8
_0-0_LAYER001
  6
CONTINUOUS
 62
    1
 10
1730.6224999999999
 20
1065.1969999999999
 11
1810.3748999999998
 21
1144.9494
  0
LINE
  8
_0-0_LAYER001
  6
CONTINUOUS
 62
    1
 10
1704.9095000000002
 20
1053.6261
 11
1784.6619999999998
 21
1133.3786
  0
LINE
  8
_0-0_LAYER001
  6
CONTINUOUS
 62
    1
 10
1679.1965
 20
1042.0553
 11
1758.9490000000001
 21
1121.8078
  0
LINE
  8
_0-0_LAYER001
  6
CONTINUOUS
 62
    1
 10
1653.4834999999998
 20
1030.4844000000001
 11
1733.2361000000001
 21
1110.2370000000001
  0
LINE
  8
_0-0_LAYER001
  6
CONTINUOUS
 62
    1
 10
1627.7705000000001
 20
1018.9135000000001
 11
1707.5230999999999
 21
1098.6660999999999
  0
LINE
  8
_0-0_LAYER001
  6
CONTINUOUS
 62
    1
 10
1602.0574999999999
 20
1007.3426999999999
 11
1681.8101000000001
 21
1087.0953
  0
LINE
  8
_0-0_LAYER001
  6
CONTINUOUS
 62
    1
 10
1576.3445000000002
 20
995.77179999999998
 11
1656.0972000000002
 21
1075.5245
  0
LINE
  8
_0-0_LAYER001
  6
CONTINUOUS
 62
    1
 10
1550.6315
 20
984.20090000000005
 11
1630.3842
 21
1063.9537
  0
LINE
  8
_0-0_LAYER001
  6
CONTINUOUS
 62
    1
 10
1524.9185000000002
 20
972.63010000000008
 11
1604.6713
 21
1052.3829000000001
  0
LINE
  8
_0-0_LAYER001
  6
CONTINUOUS
 62
    1
 10
1499.2055
 20
961.05919999999992
 11
1578.9582999999998
 21
1040.8119999999999
  0
LINE
  8
_0-0_LAYER001
  6
CONTINUOUS
 62
    1
 10
1473.4924999999998
 20
949.48829999999998
 11
1553.2453999999998
 21
1029.2411999999999
  0
LINE
  8
_0-0_LAYER001
  6
CONTINUOUS
 62
    1
 10
1447.7795000000001
 20
937.91740000000004
 11
1527.5324000000001
 21
1017.6704
  0
LINE
  8
_0-0_LAYER001
  6
CONTINUOUS
 62
    1
 10
1437.0796999999998
 20
941.35979999999995
 11
1501.8193999999999
 21
1006.0996
  0
LINE
  8
_0-0_LAYER001
  6
CONTINUOUS
 62
    1
 10
1427.3264999999997
 20
945.7487000000001
 11
1476.1064999999999
 21
994.52870000000007
  0
LINE
  8
_0-0_LAYER001
  6
CONTINUOUS
 62
    1
 10
1417.5733
 20
950.1377
 11
1450.3935000000001
 21
982.95790000000011
  0
LINE
  8
_0-0_LAYER001
  6
CONTINUOUS
 62
    1
 10
1407.8200999999999
 20
954.52659999999992
 11
1438.0711999999999
 21
984.7777000000001
  0
LINE
  8
_0-0_LAYER001
  6
CONTINUOUS
 62
    1
 10
1398.0669
 20
958.91560000000004
 11
1428.3179999999998
 21
989.16669999999999
  0
LINE
  8
_0-0_LAYER001
  6
CONTINUOUS
 62
    1
 10
1388.3136999999999
 20
963.30449999999996
 11
1418.5648000000001
 21
993.55559999999991
  0
LINE
  8
_0-0_LAYER001
  6
CONTINUOUS
 62
    1
 10
1378.5605
 20
967.69340000000011
 11
1408.8116
 21
997.94450000000006
  0
LINE
  8
_0-0_LAYER001
  6
CONTINUOUS
 62
    1
 10
1368.8072999999999
 20
972.08240000000001
 11
1399.0583999999999
 21
1002.3335
  0
LINE
  8
_0-0_LAYER001
  6
CONTINUOUS
 62
    1
 10
1359.0541000000003
 20
976.47129999999993
 11
1389.3052
 21
1006.7224000000001
  0
LINE
  8
_0-0_LAYER001
  6
CONTINUOUS
 62
    1
 10
1349.3009000000002
 20
980.86030000000005
 11
1379.5519999999999
 21
1011.1113
  0
LINE
  8
_0-0_LAYER001
  6
CONTINUOUS
 62
    1
 10
1339.5477000000001
 20
985.24919999999997
 11
1369.7988
 21
1015.5002999999999
  0
LINE
  8
_0-0_LAYER001
  6
CONTINUOUS
 62
    1
 10
1329.7945
 20
989.6382000000001
 11
1360.0455999999999
 21
1019.8892000000001
  0
LINE
  8
_0-0_LAYER001
  6
CONTINUOUS
 62
    1
 10
1320.0414000000001
 20
994.02710000000002
 11
1350.2924000000003
 21
1024.2782
  0
LINE
  8
_0-0_LAYER001
  6
CONTINUOUS
 62
    1
 10
1310.2882
 20
998.41599999999994
 11
1340.5392000000002
 21
1028.6670999999999
  0
LINE
  8
_0-0_LAYER001
  6
CONTINUOUS
 62
    1
 10
1300.5350000000001
 20
1002.8050000000001
 11
1330.7860000000001
 21
1033.056
  0
LINE
  8
_0-0_LAYER001
  6
CONTINUOUS
 62
    1
 10
1290.7818
 20
1007.1939
 11
1321.0328
 21
1037.4449999999999
  0
LINE
  8
_0-0_LAYER001
  6
CONTINUOUS
 62
    1
 10
1281.0286000000001
 20
1011.5829000000001
 11
1311.2796000000001
 21
1041.8339000000001
  0
LINE
  8
_0-0_LAYER001
  6
CONTINUOUS
 62
    1
 10
1271.2754
 20
1015.9718
 11
1301.5264
 21
1046.2228
  0
LINE
  8
_0-0_LAYER001
  6
CONTINUOUS
 62
    1
 10
1261.5222000000001
 20
1020.3607999999999
 11
1291.7732000000001
 21
1050.6117999999999
  0
LINE
  8
_0-0_LAYER001
  6
CONTINUOUS
 62
    1
 10
1251.769
 20
1024.7497000000001
 11
1282.02
 21
1055.0007000000001
  0
LINE
  8
_0-0_LAYER001
  6
CONTINUOUS
 62
    1
 10
1242.0157999999999
 20
1029.1386
 11
1272.2668000000001
 21
1059.3896999999999
  0
LINE
  8
_0-0_LAYER001
  6
CONTINUOUS
 62
    1
 10
1232.2626
 20
1033.5275999999999
 11
1262.5136
 21
1063.7786000000001
  0
LINE
  8
_0-0_LAYER001
  6
CONTINUOUS
 62
    1
 10
1222.5093999999999
 20
1037.9165
 11
1252.7603999999999
 21
1068.1675
  0
LINE
  8
_0-0_LAYER001
  6
CONTINUOUS
 62
    1
 10
1212.7562
 20
1042.3054999999999
 11
1243.0072
 21
1072.5564999999999
  0
LINE
  8
_0-0_LAYER001
  6
CONTINUOUS
 62
    1
 10
1203.0029999999999
 20
1046.6944000000001
 11
1233.2539999999999
 21
1076.9454000000001
  0
LINE
  8
_0-0_LAYER001
  6
CONTINUOUS
 62
    1
 10
1193.2499
 20
1051.0834
 11
1223.5008
 21
1081.3343
  0
LINE
  8
_0-0_LAYER001
  6
CONTINUOUS
 62
    1
 10
1183.4966999999999
 20
1055.4722999999999
 11
1213.7475999999999
 21
1085.7233000000001
  0
LINE
  8
_0-0_LAYER001
  6
CONTINUOUS
 62
    1
 10
1173.7435
 20
1059.8612000000001
 11
1203.9944
 21
1090.1122
  0
LINE
  8
_0-0_LAYER001
  6
CONTINUOUS
 62
    1
 10
1163.9902999999999
 20
1064.2501999999999
 11
1194.2411999999999
 21
1094.5011
  0
LINE
  8
_0-0_LAYER001
  6
CONTINUOUS
 62
    1
 10
1154.2371000000001
 20
1068.6391000000001
 11
1184.4880000000001
 21
1098.8901000000001
  0
LINE
  8
_0-0_LAYER001
  6
CONTINUOUS
 62
    1
 10
1144.4838999999999
 20
1073.0281
 11
1174.7348
 21
1103.279
  0
LINE
  8
_0-0_LAYER001
  6
CONTINUOUS
 62
    1
 10
1134.7307000000001
 20
1077.4169999999999
 11
1164.9816000000001
 21
1107.6679999999999
  0
LINE
  8
_0-0_LAYER001
  6
CONTINUOUS
 62
    1
 10
1124.9775
 20
1081.806
 11
1155.2284
 21
1112.0569
  0
LINE
  8
_0-0_LAYER001
  6
CONTINUOUS
 62
    1
 10
1115.2243000000001
 20
1086.1949
 11
1145.4752000000001
 21
1116.4458
  0
LINE
  8
_0-0_LAYER001
  6
CONTINUOUS
 62
    1
 10
1105.4711
 20
1090.5838000000001
 11
1135.722
 21
1120.8348000000001
  0
LINE
  8
_0-0_LAYER001
  6
CONTINUOUS
 62
    1
 10
1095.7179000000001
 20
1094.9728
 11
1125.9688000000001
 21
1125.2237
  0
LINE
  8
_0-0_LAYER001
  6
CONTINUOUS
 62
    1
 10
1085.9647
 20
1099.3616999999999
 11
1116.2156
 21
1129.6125999999999
  0
LINE
  8
_0-0_LAYER001
  6
CONTINUOUS
 62
    1
 10
1076.2114999999999
 20
1103.7507000000001
 11
1106.4623999999999
 21
1134.0016000000001
  0
LINE
  8
_0-0_LAYER001
  6
CONTINUOUS
 62
    1
 10
1066.4583
 20
1108.1396
 11
1096.7092
 21
1138.3905
  0
LINE
  8
_0-0_LAYER001
  6
CONTINUOUS
 62
    1
 10
1056.7052000000001
 20
1112.5286000000001
 11
1086.9559999999999
 21
1142.7793999999999
  0
LINE
  8
_0-0_LAYER001
  6
CONTINUOUS
 62
    1
 10
1046.952
 20
1116.9175
 11
1077.2028
 21
1147.1684
  0
LINE
  8
_0-0_LAYER001
  6
CONTINUOUS
 62
    1
 10
1037.1987999999999
 20
1121.3063999999999
 11
1067.4495999999999
 21
1151.5572999999999
  0
LINE
  8
_0-0_LAYER001
  6
CONTINUOUS
 62
    1
 10
1027.4456
 20
1125.6954000000001
 11
1057.6964
 21
1155.9463000000001
  0
LINE
  8
_0-0_LAYER001
  6
CONTINUOUS
 62
    1
 10
1017.6923999999999
 20
1130.0843
 11
1047.9431999999999
 21
1160.3352
  0
LINE
  8
_0-0_LAYER001
  6
CONTINUOUS
 62
    1
 10
1007.9392
 20
1134.4733000000001
 11
1038.1900000000001
 21
1164.7240999999999
  0
LINE
  8
_0-0_LAYER001
  6
CONTINUOUS
 62
    1
 10
998.18599999999992
 20
1138.8622
 11
1028.4367999999999
 21
1169.1131
  0
LINE
  8
_0-0_LAYER001
  6
CONTINUOUS
 62
    1
 10
988.43280000000004
 20
1143.2511999999999
 11
1018.6836000000001
 21
1173.502
  0
LINE
  8
_0-0_LAYER001
  6
CONTINUOUS
 62
    1
 10
978.67959999999994
 20
1147.6401000000001
 11
1008.9304
 21
1177.8909000000001
  0
LINE
  8
_0-0_LAYER001
  6
CONTINUOUS
 62
    1
 10
968.92640000000006
 20
1152.029
 11
999.17720000000008
 21
1182.2799
  0
LINE
  8
_0-0_LAYER001
  6
CONTINUOUS
 62
    1
 10
959.17319999999995
 20
1156.4179999999999
 11
989.42399999999998
 21
1186.6687999999999
  0
LINE
  8
_0-0_LAYER001
  6
CONTINUOUS
 62
    1
 10
949.42000000000007
 20
1160.8069
 11
979.6708000000001
 21
1191.0577000000001
  0
LINE
  8
_0-0_LAYER001
  6
CONTINUOUS
 62
    1
 10
939.66679999999997
 20
1165.1958999999999
 11
969.91759999999999
 21
1195.4467
  0
LINE
  8
_0-0_LAYER001
  6
CONTINUOUS
 62
    1
 10
929.91360000000009
 20
1169.5848000000001
 11
960.16439999999989
 21
1199.8356000000001
  0
LINE
  8
_0-0_LAYER001
  6
CONTINUOUS
 62
    1
 10
920.16049999999996
 20
1173.9738
 11
950.41120000000001
 21
1204.2246
  0
LINE
  8
_0-0_LAYER001
  6
CONTINUOUS
 62
    1
 10
910.40730000000008
 20
1178.3626999999999
 11
940.6579999999999
 21
1208.6134999999999
  0
LINE
  8
_0-0_LAYER001
  6
CONTINUOUS
 62
    1
 10
900.65409999999997
 20
1182.7516000000001
 11
930.90480000000002
 21
1213.0024000000001
  0
LINE
  8
_0-0_LAYER001
  6
CONTINUOUS
 62
    1
 10
890.90090000000009
 20
1187.1405999999999
 11
921.15159999999992
 21
1217.3914
  0
LINE
  8
_0-0_LAYER001
  6
CONTINUOUS
 62
    1
 10
881.14769999999999
 20
1191.5295000000001
 11
911.39840000000004
 21
1221.7802999999999
  0
LINE
  8
_0-0_LAYER001
  6
CONTINUOUS
 62
    1
 10
871.39450000000011
 20
1195.9185
 11
901.64519999999993
 21
1226.1692
  0
LINE
  8
_0-0_LAYER001
  6
CONTINUOUS
 62
    1
 10
861.6413
 20
1200.3073999999999
 11
891.89200000000005
 21
1230.5581999999999
  0
LINE
  8
_0-0_LAYER001
  6
CONTINUOUS
 62
    1
 10
851.88809999999989
 20
1204.6964
 11
882.13889999999992
 21
1234.9471000000001
  0
LINE
  8
_0-0_LAYER001
  6
CONTINUOUS
 62
    1
 10
842.13490000000002
 20
1209.0853
 11
872.38570000000004
 21
1239.336
  0
LINE
  8
_0-0_LAYER001
  6
CONTINUOUS
 62
    1
 10
832.38169999999991
 20
1213.4743000000001
 11
862.63249999999994
 21
1243.7249999999999
  0
LINE
  8
_0-0_LAYER001
  6
CONTINUOUS
 62
    1
 10
822.62850000000003
 20
1217.8632
 11
852.87930000000006
 21
1248.1139000000001
  0
LINE
  8
_0-0_LAYER001
  6
CONTINUOUS
 62
    1
 10
812.87529999999992
 20
1222.2520999999999
 11
843.12609999999995
 21
1252.5029
  0
LINE
  8
_0-0_LAYER001
  6
CONTINUOUS
 62
    1
 10
803.12210000000005
 20
1226.6411000000001
 11
833.37290000000007
 21
1256.8918000000001
  0
LINE
  8
_0-0_LAYER001
  6
CONTINUOUS
 62
    1
 10
793.36899999999991
 20
1231.03
 11
823.61969999999997
 21
1261.2807
  0
LINE
  8
_0-0_LAYER001
  6
CONTINUOUS
 62
    1
 10
783.61580000000004
 20
1235.4190000000001
 11
813.86650000000009
 21
1265.6696999999999
  0
LINE
  8
_0-0_LAYER001
  6
CONTINUOUS
 62
    1
 10
773.86259999999993
 20
1239.8079
 11
804.11329999999998
 21
1270.0586000000001
  0
LINE
  8
_0-0_LAYER001
  6
CONTINUOUS
 62
    1
 10
764.10940000000005
 20
1244.1968999999999
 11
794.3601000000001
 21
1274.4475
  0
LINE
  8
_0-0_LAYER001
  6
CONTINUOUS
 62
    1
 10
754.35619999999994
 20
1248.5858000000001
 11
784.6069
 21
1278.8364999999999
  0
LINE
  8
_0-0_LAYER001
  6
CONTINUOUS
 62
    1
 10
744.60300000000007
 20
1252.9747
 11
774.85369999999989
 21
1283.2254
  0
LINE
  8
_0-0_LAYER001
  6
CONTINUOUS
 62
    1
 10
734.84979999999996
 20
1257.3637000000001
 11
765.10050000000001
 21
1287.6143
  0
LINE
  8
_0-0_LAYER001
  6
CONTINUOUS
 62
    1
 10
725.09660000000008
 20
1261.7526
 11
755.3472999999999
 21
1292.0033000000001
  0
LINE
  8
_0-0_LAYER001
  6
CONTINUOUS
 62
    1
 10
715.34339999999997
 20
1266.1415999999999
 11
745.59410000000003
 21
1296.3922
  0
LINE
  8
_0-0_LAYER001
  6
CONTINUOUS
 62
    1
 10
705.5902000000001
 20
1270.5305000000001
 11
735.84089999999992
 21
1300.7811999999999
  0
LINE
  8
_0-0_LAYER001
  6
CONTINUOUS
 62
    1
 10
695.83699999999999
 20
1274.9195
 11
726.08770000000004
 21
1305.1701
  0
LINE
  8
_0-0_LAYER001
  6
CONTINUOUS
 62
    1
 10
686.08380000000011
 20
1279.3083999999999
 11
716.33449999999993
 21
1309.5589999999997
  0
LINE
  8
_0-0_LAYER001
  6
CONTINUOUS
 62
    1
 10
676.3306
 20
1283.6973
 11
706.58130000000006
 21
1313.9480000000001
  0
LINE
  8
_0-0_LAYER001
  6
CONTINUOUS
 62
    1
 10
666.5773999999999
 20
1288.0862999999999
 11
696.82809999999995
 21
1318.3368999999998
  0
LINE
  8
_0-0_LAYER001
  6
CONTINUOUS
 62
    1
 10
656.82429999999999
 20
1292.4752000000001
 11
687.07490000000007
 21
1322.7258000000002
  0
LINE
  8
_0-0_LAYER001
  6
CONTINUOUS
 62
    1
 10
647.07109999999989
 20
1296.8642
 11
677.32169999999996
 21
1327.1147999999998
  0
LINE
  8
_0-0_LAYER001
  6
CONTINUOUS
 62
    1
 10
637.31790000000001
 20
1301.2530999999999
 11
667.56850000000009
 21
1331.5037000000002
  0
LINE
  8
_0-0_LAYER001
  6
CONTINUOUS
 62
    1
 10
627.5646999999999
 20
1305.6421
 11
657.81529999999998
 21
1335.8925999999999
  0
LINE
  8
_0-0_LAYER001
  6
CONTINUOUS
 62
    1
 10
617.81150000000002
 20
1310.0309999999999
 11
648.0621000000001
 21
1340.2816000000003
  0
LINE
  8
_0-0_LAYER001
  6
CONTINUOUS
 62
    1
 10
608.05829999999992
 20
1314.4199000000001
 11
638.30889999999999
 21
1344.6704999999999
  0
LINE
  8
_0-0_LAYER001
  6
CONTINUOUS
 62
    1
 10
598.30510000000004
 20
1318.8089
 11
628.55569999999989
 21
1349.0595000000003
  0
LINE
  8
_0-0_LAYER001
  6
CONTINUOUS
 62
    1
 10
594.79989999999998
 20
1329.4458
 11
618.80250000000001
 21
1353.4484
  0
LINE
  8
_0-0_LAYER001
  6
CONTINUOUS
 62
    1
 10
606.37069999999994
 20
1355.1587
 11
609.0492999999999
 21
1357.8372999999999
  0
LINE
  8
_0-0_LAYER001
  6
CONTINUOUS
 62
    1
 10
595.17939999999999
 20
1330.2892999999999
 11
613.49549999999999
 21
1311.9731999999999
  0
LINE
  8
_0-0_LAYER001
  6
CONTINUOUS
 62
    1
 10
599.56840000000011
 20
1340.0425
 11
639.20849999999996
 21
1300.4023000000002
  0
LINE
  8
_0-0_LAYER001
  6
CONTINUOUS
 62
    1
 10
603.95730000000003
 20
1349.7956999999999
 11
664.92149999999992
 21
1288.8315
  0
LINE
  8
_0-0_LAYER001
  6
CONTINUOUS
 62
    1
 10
610.88290000000006
 20
1357.0121999999997
 11
690.63449999999989
 21
1277.2606000000001
  0
LINE
  8
_0-0_LAYER001
  6
CONTINUOUS
 62
    1
 10
636.59590000000003
 20
1345.4413999999999
 11
716.34750000000008
 21
1265.6896999999999
  0
LINE
  8
_0-0_LAYER001
  6
CONTINUOUS
 62
    1
 10
662.30880000000002
 20
1333.8705
 11
742.06050000000005
 21
1254.1188
  0
LINE
  8
_0-0_LAYER001
  6
CONTINUOUS
 62
    1
 10
688.02179999999998
 20
1322.2997
 11
767.77350000000001
 21
1242.548
  0
LINE
  8
_0-0_LAYER001
  6
CONTINUOUS
 62
    1
 10
713.73469999999998
 20
1310.7289000000001
 11
793.48649999999998
 21
1230.9771000000001
  0
LINE
  8
_0-0_LAYER001
  6
CONTINUOUS
 62
    1
 10
739.44769999999994
 20
1299.1581000000001
 11
819.19949999999994
 21
1219.4061999999999
  0
LINE
  8
_0-0_LAYER001
  6
CONTINUOUS
 62
    1
 10
765.16069999999991
 20
1287.5872999999999
 11
844.91249999999991
 21
1207.8353999999999
  0
LINE
  8
_0-0_LAYER001
  6
CONTINUOUS
 62
    1
 10
790.8735999999999
 20
1276.0164
 11
870.6255000000001
 21
1196.2645
  0
LINE
  8
_0-0_LAYER001
  6
CONTINUOUS
 62
    1
 10
816.58660000000009
 20
1264.4456
 11
896.33850000000007
 21
1184.6936000000001
  0
LINE
  8
_0-0_LAYER001
  6
CONTINUOUS
 62
    1
 10
842.29950000000008
 20
1252.8748000000001
 11
922.05160000000001
 21
1173.1228000000001
  0
LINE
  8
_0-0_LAYER001
  6
CONTINUOUS
 62
    1
 10
868.01250000000005
 20
1241.3040000000001
 11
947.76459999999997
 21
1161.5518999999999
  0
LINE
  8
_0-0_LAYER001
  6
CONTINUOUS
 62
    1
 10
893.72550000000001
 20
1229.7330999999999
 11
973.47759999999994
 21
1149.981
  0
LINE
  8
_0-0_LAYER001
  6
CONTINUOUS
 62
    1
 10
919.4384
 20
1218.1623
 11
999.1905999999999
 21
1138.4102
  0
LINE
  8
_0-0_LAYER001
  6
CONTINUOUS
 62
    1
 10
945.15139999999997
 20
1206.5915
 11
1024.9036000000001
 21
1126.8393000000001
  0
LINE
  8
_0-0_LAYER001
  6
CONTINUOUS
 62
    1
 10
970.86429999999996
 20
1195.0207
 11
1050.6166000000001
 21
1115.2683999999999
  0
LINE
  8
_0-0_LAYER001
  6
CONTINUOUS
 62
    1
 10
996.57729999999992
 20
1183.4498000000001
 11
1076.3296
 21
1103.6976
  0
LINE
  8
_0-0_LAYER001
  6
CONTINUOUS
 62
    1
 10
1022.2901999999999
 20
1171.8789999999999
 11
1102.0426
 21
1092.1267
  0
LINE
  8
_0-0_LAYER001
  6
CONTINUOUS
 62
    1
 10
1048.0032000000001
 20
1160.3081999999999
 11
1127.7556
 21
1080.5558000000001
  0
LINE
  8
_0-0_LAYER001
  6
CONTINUOUS
 62
    1
 10
1073.7162000000001
 20
1148.7374
 11
1153.4685999999999
 21
1068.9849999999999
  0
LINE
  8
_0-0_LAYER001
  6
CONTINUOUS
 62
    1
 10
1099.4291000000001
 20
1137.1666
 11
1179.1815999999999
 21
1057.4141
  0
LINE
  8
_0-0_LAYER001
  6
CONTINUOUS
 62
    1
 10
1125.1421
 20
1125.5957000000001
 11
1204.8946000000001
 21
1045.8432
  0
LINE
  8
_0-0_LAYER001
  6
CONTINUOUS
 62
    1
 10
1150.855
 20
1114.0248999999999
 11
1230.6076
 21
1034.2724000000001
  0
LINE
  8
_0-0_LAYER001
  6
CONTINUOUS
 62
    1
 10
1176.568
 20
1102.4540999999999
 11
1256.3206
 21
1022.7014999999999
  0
LINE
  8
_0-0_LAYER001
  6
CONTINUOUS
 62
    1
 10
1202.2809999999999
 20
1090.8833
 11
1282.0336
 21
1011.1306
  0
LINE
  8
_0-0_LAYER001
  6
CONTINUOUS
 62
    1
 10
1227.9938999999999
 20
1079.3124
 11
1307.7465999999999
 21
999.55970000000002
  0
LINE
  8
_0-0_LAYER001
  6
CONTINUOUS
 62
    1
 10
1253.7068999999999
 20
1067.7416000000001
 11
1333.4595999999999
 21
987.98890000000006
  0
LINE
  8
_0-0_LAYER001
  6
CONTINUOUS
 62
    1
 10
1279.4197999999999
 20
1056.1708000000001
 11
1359.1725999999999
 21
976.41799999999989
  0
LINE
  8
_0-0_LAYER001
  6
CONTINUOUS
 62
    1
 10
1305.1328000000001
 20
1044.5999999999999
 11
1384.8856000000001
 21
964.84709999999995
  0
LINE
  8
_0-0_LAYER001
  6
CONTINUOUS
 62
    1
 10
1330.8457000000001
 20
1033.0291999999999
 11
1410.5986000000003
 21
953.27629999999999
  0
LINE
  8
_0-0_LAYER001
  6
CONTINUOUS
 62
    1
 10
1356.5587
 20
1021.4583
 11
1436.3116
 21
941.70540000000005
  0
LINE
  8
_0-0_LAYER001
  6
CONTINUOUS
 62
    1
 10
1382.2717
 20
1009.8875
 11
1452.2361999999998
 21
939.923
  0
LINE
  8
_0-0_LAYER001
  6
CONTINUOUS
 62
    1
 10
1407.9846
 20
998.31670000000008
 11
1461.9893999999999
 21
944.31189999999992
  0
LINE
  8
_0-0_LAYER001
  6
CONTINUOUS
 62
    1
 10
1433.6976
 20
986.74589999999989
 11
1471.7426
 21
948.70090000000005
  0
LINE
  8
_0-0_LAYER001
  6
CONTINUOUS
 62
    1
 10
1451.2447000000002
 20
983.34089999999992
 11
1481.4958000000001
 21
953.08979999999997
  0
LINE
  8
_0-0_LAYER001
  6
CONTINUOUS
 62
    1
 10
1460.9978999999998
 20
987.72990000000004
 11
1491.2489999999998
 21
957.47869999999989
  0
LINE
  8
_0-0_LAYER001
  6
CONTINUOUS
 62
    1
 10
1470.7511
 20
992.11879999999996
 11
1501.0021999999999
 21
961.86770000000001
  0
LINE
  8
_0-0_LAYER001
  6
CONTINUOUS
 62
    1
 10
1480.5043000000001
 20
996.50770000000011
 11
1510.7552999999998
 21
966.25659999999993
  0
LINE
  8
_0-0_LAYER001
  6
CONTINUOUS
 62
    1
 10
1490.2575000000002
 20
1000.8967
 11
1520.5084999999999
 21
970.64560000000006
  0
LINE
  8
_0-0_LAYER001
  6
CONTINUOUS
 62
    1
 10
1500.0106000000001
 20
1005.2855999999999
 11
1530.2617
 21
975.03449999999998
  0
LINE
  8
_0-0_LAYER001
  6
CONTINUOUS
 62
    1
 10
1509.7638000000002
 20
1009.6745000000001
 11
1540.0149000000001
 21
979.4235000000001
  0
LINE
  8
_0-0_LAYER001
  6
CONTINUOUS
 62
    1
 10
1519.5169999999998
 20
1014.0635
 11
1549.7680999999998
 21
983.81240000000003
  0
LINE
  8
_0-0_LAYER001
  6
CONTINUOUS
 62
    1
 10
1529.2701999999999
 20
1018.4523999999999
 11
1559.5212999999999
 21
988.20139999999992
  0
LINE
  8
_0-0_LAYER001
  6
CONTINUOUS
 62
    1
 10
1539.0234
 20
1022.8414
 11
1569.2745
 21
992.59030000000007
  0
LINE
  8
_0-0_LAYER001
  6
CONTINUOUS
 62
    1
 10
1548.7766000000001
 20
1027.2302999999999
 11
1579.0277000000001
 21
996.97919999999999
  0
LINE
  8
_0-0_LAYER001
  6
CONTINUOUS
 62
    1
 10
1558.5297999999998
 20
1031.6192000000001
 11
1588.7809000000002
 21
1001.3681999999999
  0
LINE
  8
_0-0_LAYER001
  6
CONTINUOUS
 62
    1
 10
1568.2829999999999
 20
1036.0082
 11
1598.5340999999999
 21
1005.7571
  0
LINE
  8
_0-0_LAYER001
  6
CONTINUOUS
 62
    1
 10
1578.0362
 20
1040.3970999999999
 11
1608.2873
 21
1010.1460999999999
  0
LINE
  8
_0-0_LAYER001
  6
CONTINUOUS
 62
    1
 10
1587.7894000000001
 20
1044.7860000000001
 11
1618.0405000000001
 21
1014.5350000000001
  0
LINE
  8
_0-0_LAYER001
  6
CONTINUOUS
 62
    1
 10
1597.5426000000002
 20
1049.175
 11
1627.7937000000002
 21
1018.924
  0
LINE
  8
_0-0_LAYER001
  6
CONTINUOUS
 62
    1
 10
1607.2957999999999
 20
1053.5639000000001
 11
1637.5468999999998
 21
1023.3128999999999
  0
LINE
  8
_0-0_LAYER001
  6
CONTINUOUS
 62
    1
 10
1617.049
 20
1057.9528
 11
1647.3000000000002
 21
1027.7018
  0
LINE
  8
_0-0_LAYER001
  6
CONTINUOUS
 62
    1
 10
1626.8022000000001
 20
1062.3417999999999
 11
1657.0531999999998
 21
1032.0907999999999
  0
LINE
  8
_0-0_LAYER001
  6
CONTINUOUS
 62
    1
 10
1636.5554000000002
 20
1066.7307000000001
 11
1666.8063999999999
 21
1036.4797000000001
  0
LINE
  8
_0-0_LAYER001
  6
CONTINUOUS
 62
    1
 10
1646.3085999999998
 20
1071.1197
 11
1676.5596
 21
1040.8687
  0
LINE
  8
_0-0_LAYER001
  6
CONTINUOUS
 62
    1
 10
1656.0617999999999
 20
1075.5085999999999
 11
1686.3128000000002
 21
1045.2575999999999
  0
LINE
  8
_0-0_LAYER001
  6
CONTINUOUS
 62
    1
 10
1665.8150000000001
 20
1079.8975
 11
1696.0659999999998
 21
1049.6466
  0
LINE
  8
_0-0_LAYER001
  6
CONTINUOUS
 62
    1
 10
1675.5682000000002
 20
1084.2864999999999
 11
1705.8191999999999
 21
1054.0355
  0
LINE
  8
_0-0_LAYER001
  6
CONTINUOUS
 62
    1
 10
1685.3213999999998
 20
1088.6754000000001
 11
1715.5724
 21
1058.4244000000001
  0
LINE
  8
_0-0_LAYER001
  6
CONTINUOUS
 62
    1
 10
1695.0745999999999
 20
1093.0643
 11
1725.3256000000001
 21
1062.8134
  0
LINE
  8
_0-0_LAYER001
  6
CONTINUOUS
 62
    1
 10
1704.8278
 20
1097.4532999999999
 11
1735.0787999999998
 21
1067.2022999999999
  0
LINE
  8
_0-0_LAYER001
  6
CONTINUOUS
 62
    1
 10
1714.5810000000001
 20
1101.8422
 11
1744.8319999999999
 21
1071.5913
  0
LINE
  8
_0-0_LAYER001
  6
CONTINUOUS
 62
    1
 10
1724.3341999999998
 20
1106.2311
 11
1754.5852
 21
1075.9802
  0
LINE
  8
_0-0_LAYER001
  6
CONTINUOUS
 62
    1
 10
1734.0873999999999
 20
1110.6201000000001
 11
1764.3384000000001
 21
1080.3692000000001
  0
LINE
  8
_0-0_LAYER001
  6
CONTINUOUS
 62
    1
 10
1743.8406
 20
1115.009
 11
1774.0916000000002
 21
1084.7581
  0
LINE
  8
_0-0_LAYER001
  6
CONTINUOUS
 62
    1
 10
1753.5938000000001
 20
1119.3979999999999
 11
1783.8447000000001
 21
1089.1469999999999
  0
LINE
  8
_0-0_LAYER001
  6
CONTINUOUS
 62
    1
 10
1763.3470000000002
 20
1123.7869000000001
 11
1793.5979000000002
 21
1093.5360000000001
  0
LINE
  8
_0-0_LAYER001
  6
CONTINUOUS
 62
    1
 10
1773.1001999999999
 20
1128.1758
 11
1803.3510999999999
 21
1097.9249
  0
LINE
  8
_0-0_LAYER001
  6
CONTINUOUS
 62
    1
 10
1782.8534
 20
1132.5648000000001
 11
1813.1043
 21
1102.3139000000001
  0
LINE
  8
_0-0_LAYER001
  6
CONTINUOUS
 62
    1
 10
1792.6066000000001
 20
1136.9537
 11
1822.8575000000001
 21
1106.7028
  0
LINE
  8
_0-0_LAYER001
  6
CONTINUOUS
 62
    1
 10
1802.3598000000002
 20
1141.3425999999999
 11
1832.6107000000002
 21
1111.0917999999999
  0
LINE
  8
_0-0_LAYER001
  6
CONTINUOUS
 62
    1
 10
1812.1129999999998
 20
1145.7316000000001
 11
1842.3638999999998
 21
1115.4807000000001
  0
LINE
  8
_0-0_LAYER001
  6
CONTINUOUS
 62
    1
 10
1821.8661999999999
 20
1150.1205
 11
1852.1170999999999
 21
1119.8696
  0
LINE
  8
_0-0_LAYER001
  6
CONTINUOUS
 62
    1
 10
1831.6194
 20
1154.5093999999999
 11
1861.8703
 21
1124.2585999999999
  0
LINE
  8
_0-0_LAYER001
  6
CONTINUOUS
 62
    1
 10
1841.3726000000001
 20
1158.8984
 11
1871.6235000000001
 21
1128.6475
  0
LINE
  8
_0-0_LAYER001
  6
CONTINUOUS
 62
    1
 10
1851.1257999999998
 20
1163.2873
 11
1881.3766999999998
 21
1133.0364999999999
  0
LINE
  8
_0-0_LAYER001
  6
CONTINUOUS
 62
    1
 10
1860.8789999999999
 20
1167.6763000000001
 11
1891.1298999999999
 21
1137.4254000000001
  0
LINE
  8
_0-0_LAYER001
  6
CONTINUOUS
 62
    1
 10
1870.6322
 20
1172.0652
 11
1900.8831
 21
1141.8144
  0
LINE
  8
_0-0_LAYER001
  6
CONTINUOUS
 62
    1
 10
1880.3854000000001
 20
1176.4540999999999
 11
1910.6361999999999
 21
1146.2032999999999
  0
LINE
  8
_0-0_LAYER001
  6
CONTINUOUS
 62
    1
 10
1890.1386000000002
 20
1180.8431
 11
1920.3894
 21
1150.5922
  0
LINE
  8
_0-0_LAYER001
  6
CONTINUOUS
 62
    1
 10
1899.8917999999999
 20
1185.232
 11
1930.1426000000001
 21
1154.9811999999999
  0
LINE
  8
_0-0_LAYER001
  6
CONTINUOUS
 62
    1
 10
1909.645
 20
1189.6208999999999
 11
1939.8957999999998
 21
1159.3701000000001
  0
LINE
  8
_0-0_LAYER001
  6
CONTINUOUS
 62
    1
 10
1919.3982000000001
 20
1194.0099
 11
1949.6489999999999
 21
1163.7591
  0
LINE
  8
_0-0_LAYER001
  6
CONTINUOUS
 62
    1
 10
1929.1514000000002
 20
1198.3987999999999
 11
1959.4022
 21
1168.1479999999999
  0
LINE
  8
_0-0_LAYER001
  6
CONTINUOUS
 62
    1
 10
1938.9045999999998
 20
1202.7877000000001
 11
1969.1554000000001
 21
1172.537
  0
LINE
  8
_0-0_LAYER001
  6
CONTINUOUS
 62
    1
 10
1948.6578
 20
1207.1767
 11
1978.9086000000002
 21
1176.9259
  0
LINE
  8
_0-0_LAYER001
  6
CONTINUOUS
 62
    1
 10
1958.4110000000001
 20
1211.5655999999999
 11
1988.6617999999999
 21
1181.3148000000001
  0
LINE
  8
_0-0_LAYER001
  6
CONTINUOUS
 62
    1
 10
1968.1642000000002
 20
1215.9546
 11
1998.415
 21
1185.7038
  0
LINE
  8
_0-0_LAYER001
  6
CONTINUOUS
 62
    1
 10
1977.9173999999998
 20
1220.3434999999999
 11
2008.1682000000001
 21
1190.0926999999999
  0
LINE
  8
_0-0_LAYER001
  6
CONTINUOUS
 62
    1
 10
1987.6705999999999
 20
1224.7324000000001
 11
2017.9214000000002
 21
1194.4817
  0
LINE
  8
_0-0_LAYER001
  6
CONTINUOUS
 62
    1
 10
1997.4238
 20
1229.1214
 11
2027.6745999999998
 21
1198.8706
  0
LINE
  8
_0-0_LAYER001
  6
CONTINUOUS
 62
    1
 10
2007.1770000000001
 20
1233.5102999999999
 11
2037.4277999999999
 21
1203.2596000000001
  0
LINE
  8
_0-0_LAYER001
  6
CONTINUOUS
 62
    1
 10
2016.9301999999998
 20
1237.8992000000001
 11
2047.1808999999998
 21
1207.6485
  0
LINE
  8
_0-0_LAYER001
  6
CONTINUOUS
 62
    1
 10
2026.6833999999999
 20
1242.2882
 11
2056.9340999999999
 21
1212.0373999999999
  0
LINE
  8
_0-0_LAYER001
  6
CONTINUOUS
 62
    1
 10
2036.4366
 20
1246.6771000000001
 11
2066.6873000000001
 21
1216.4264000000001
  0
LINE
  8
_0-0_LAYER001
  6
CONTINUOUS
 62
    1
 10
2046.1898000000001
 20
1251.066
 11
2076.4405000000002
 21
1220.8153
  0
LINE
  8
_0-0_LAYER001
  6
CONTINUOUS
 62
    1
 10
2055.9430000000002
 20
1255.4549999999999
 11
2086.1936999999998
 21
1225.2043000000001
  0
LINE
  8
_0-0_LAYER001
  6
CONTINUOUS
 62
    1
 10
2065.6961999999999
 20
1259.8439000000001
 11
2095.9468999999999
 21
1229.5932
  0
LINE
  8
_0-0_LAYER001
  6
CONTINUOUS
 62
    1
 10
2075.4494
 20
1264.2329
 11
2105.7001
 21
1233.9821999999999
  0
LINE
  8
_0-0_LAYER001
  6
CONTINUOUS
 62
    1
 10
2085.2026000000001
 20
1268.6217999999999
 11
2115.4533000000001
 21
1238.3711000000001
  0
LINE
  8
_0-0_LAYER001
  6
CONTINUOUS
 62
    1
 10
2094.9558000000002
 20
1273.0107
 11
2125.2064999999998
 21
1242.76
  0
LINE
  8
_0-0_LAYER001
  6
CONTINUOUS
 62
    1
 10
2104.7089999999998
 20
1277.3996999999999
 11
2134.9596999999999
 21
1247.1489999999999
  0
LINE
  8
_0-0_LAYER001
  6
CONTINUOUS
 62
    1
 10
2114.4621999999999
 20
1281.7886000000001
 11
2144.7129
 21
1251.5379
  0
LINE
  8
_0-0_LAYER001
  6
CONTINUOUS
 62
    1
 10
2124.2154
 20
1286.1775
 11
2154.4661000000001
 21
1255.9268999999999
  0
LINE
  8
_0-0_LAYER001
  6
CONTINUOUS
 62
    1
 10
2133.9686000000002
 20
1290.5664999999999
 11
2164.2193000000002
 21
1260.3158000000001
  0
LINE
  8
_0-0_LAYER001
  6
CONTINUOUS
 62
    1
 10
2143.7217999999998
 20
1294.9554000000001
 11
2173.9724999999999
 21
1264.7048
  0
LINE
  8
_0-0_LAYER001
  6
CONTINUOUS
 62
    1
 10
2153.4749999999999
 20
1299.3443
 11
2183.7256000000002
 21
1269.0936999999999
  0
LINE
  8
_0-0_LAYER001
  6
CONTINUOUS
 62
    1
 10
2163.2282
 20
1303.7333000000001
 11
2193.4787999999999
 21
1273.4826
  0
LINE
  8
_0-0_LAYER001
  6
CONTINUOUS
 62
    1
 10
2172.9814000000001
 20
1308.1222
 11
2203.232
 21
1277.8715999999999
  0
LINE
  8
_0-0_LAYER001
  6
CONTINUOUS
 62
    1
 10
2182.7345999999998
 20
1312.5111999999999
 11
2212.9852000000001
 21
1282.2605000000001
  0
LINE
  8
_0-0_LAYER001
  6
CONTINUOUS
 62
    1
 10
2192.4877999999999
 20
1316.9001000000001
 11
2222.7384000000002
 21
1286.6495
  0
LINE
  8
_0-0_LAYER001
  6
CONTINUOUS
 62
    1
 10
2202.241
 20
1321.2889999999998
 11
2232.4915999999998
 21
1291.0383999999999
  0
LINE
  8
_0-0_LAYER001
  6
CONTINUOUS
 62
    1
 10
2211.9942000000001
 20
1325.6780000000001
 11
2242.2447999999999
 21
1295.4274
  0
LINE
  8
_0-0_LAYER001
  6
CONTINUOUS
 62
    1
 10
2221.7474000000002
 20
1330.0668999999998
 11
2251.998
 21
1299.8163
  0
LINE
  8
_0-0_LAYER001
  6
CONTINUOUS
 62
    1
 10
2231.5005999999998
 20
1334.4558000000002
 11
2261.7512000000002
 21
1304.2052000000001
  0
LINE
  8
_0-0_LAYER001
  6
CONTINUOUS
 62
    1
 10
2241.2538
 20
1338.8447999999999
 11
2271.5043999999998
 21
1308.5942
  0
LINE
  8
_0-0_LAYER001
  6
CONTINUOUS
 62
    1
 10
2251.0070000000001
 20
1343.2337000000002
 11
2281.2575999999999
 21
1312.9830999999999
  0
LINE
  8
_0-0_LAYER001
  6
CONTINUOUS
 62
    1
 10
2260.7602000000002
 20
1347.6225999999999
 11
2291.0108
 21
1317.3721
  0
LINE
  8
_0-0_LAYER001
  6
CONTINUOUS
 62
    1
 10
2270.5133999999998
 20
1352.0116000000003
 11
2300.7640000000001
 21
1321.761
  0
LINE
  8
_0-0_LAYER001
  6
CONTINUOUS
 62
    1
 10
2280.2665999999999
 20
1356.4005
 11
2310.5171
 21
1326.1500000000001
  0
LINE
  8
_0-0_LAYER001
  6
CONTINUOUS
 62
    1
 10
2290.0198
 20
1360.7895000000003
 11
2313.2206999999999
 21
1337.5886
  0
LINE
  8
_0-0_LAYER001
  6
CONTINUOUS
 62
    1
 10
2299.7730000000001
 20
1365.1784
 11
2301.6498000000001
 21
1363.3015
  0
LINE
  8
_0-0_LAYER001
  6
CONTINUOUS
 62
    2
 10
1394.6030000000001
 20
1023.8876
 11
1390.8530000000001
 21
1017.3924
  0
LINE
  8
_0-0_LAYER001
  6
CONTINUOUS
 62
    2
 10
1390.8530000000001
 20
1017.3924
 11
1390.8530000000001
 21
1024.8924
  0
LINE
  8
_0-0_LAYER001
  6
CONTINUOUS
 62
    2
 10
1390.8530000000001
 20
1017.3924
 11
1489.268
 21
1384.6824999999999
  0
LINE
  8
_0-0_LAYER001
  6
CONTINUOUS
 62
    2
 10
1489.268
 20
1384.6824999999999
 11
1723.268
 21
1384.6824999999999
  0
LINE
  8
_0-0_LAYER001
  6
CONTINUOUS
 62
    2
 10
2204.6516000000001
 20
1329.0868
 11
2231.9987999999998
 21
1341.4208000000003
  0
LINE
  8
_0-0_LAYER001
  6
CONTINUOUS
 62
    2
 10
2225.8317999999999
 20
1355.0944999999999
 11
2198.4845
 21
1342.7604999999999
  0
LINE
  8
_0-0_LAYER001
  6
CONTINUOUS
 62
    2
 10
2231.9987999999998
 20
1341.4208000000003
 11
2225.8317999999999
 21
1355.0944999999999
  0
LINE
  8
_0-0_LAYER001
  6
CONTINUOUS
 62
    2
 10
2198.4845
 20
1342.7604999999999
 11
2204.6516000000001
 21
1329.0868
  0
LINE
  8
_0-0_LAYER001
  6
CONTINUOUS
 62
    2
 10
2225.8317999999999
 20
1355.0944999999999
 11
2204.6516000000001
 21
1329.0868
  0
LINE
  8
_0-0_LAYER001
  6
CONTINUOUS
 62
    2
 10
1998.8841000000002
 20
1236.4914000000001
 11
2026.2417
 21
1248.8023000000001
  0
LINE
  8
_0-0_LAYER001
  6
CONTINUOUS
 62
    2
 10
2020.0862000000002
 20
1262.4811
 11
1992.7285999999999
 21
1250.1702
  0
LINE
  8
_0-0_LAYER001
  6
CONTINUOUS
 62
    2
 10
2026.2417
 20
1248.8023000000001
 11
2020.0862000000002
 21
1262.4811
  0
LINE
  8
_0-0_LAYER001
  6
CONTINUOUS
 62
    2
 10
1992.7285999999999
 20
1250.1702
 11
1998.8841000000002
 21
1236.4914000000001
  0
LINE
  8
_0-0_LAYER001
  6
CONTINUOUS
 62
    2
 10
2020.0862000000002
 20
1262.4811
 11
1998.8841000000002
 21
1236.4914000000001
  0
LINE
  8
_0-0_LAYER001
  6
CONTINUOUS
 62
    2
 10
1793.1165999999998
 20
1143.8959
 11
1820.4742000000001
 21
1156.2067999999999
  0
LINE
  8
_0-0_LAYER001
  6
CONTINUOUS
 62
    2
 10
1814.3186999999998
 20
1169.8856000000001
 11
1786.9611
 21
1157.5746999999999
  0
LINE
  8
_0-0_LAYER001
  6
CONTINUOUS
 62
    2
 10
1820.4742000000001
 20
1156.2067999999999
 11
1814.3186999999998
 21
1169.8856000000001
  0
LINE
  8
_0-0_LAYER001
  6
CONTINUOUS
 62
    2
 10
1786.9611
 20
1157.5746999999999
 11
1793.1165999999998
 21
1143.8959
  0
LINE
  8
_0-0_LAYER001
  6
CONTINUOUS
 62
    2
 10
1814.3186999999998
 20
1169.8856000000001
 11
1793.1165999999998
 21
1143.8959
  0
LINE
  8
_0-0_LAYER001
  6
CONTINUOUS
 62
    4
 10
2167.4859000000001
 20
1370.8394000000001
 11
2252.7754
 21
1401.7827
  0
LINE
  8
_0-0_LAYER001
  6
CONTINUOUS
 62
    4
 10
2150.8321000000001
 20
1416.7424000000001
 11
2232.6808000000001
 21
1446.4373000000001
  0
ARC
  8
_0-0_LAYER001
  6
CONTINUOUS
 62
    4
 10
1759.4720000000002
 20
1176.0045
 40
10
 50
109.94091000000002
 51
199.94091
  0
ARC
  8
_0-0_LAYER001
  6
CONTINUOUS
 62
    4
 10
1965.1842000000001
 20
1268.7217000000001
 40
10
 50
109.94091000000002
 51
199.94091
  0
ARC
  8
_0-0_LAYER001
  6
CONTINUOUS
 62
    4
 10
2170.8964000000001
 20
1361.4389000000001
 40
10
 50
109.94091000000002
 51
199.94091
  0
ARC
  8
_0-0_LAYER001
  6
CONTINUOUS
 62
    4
 10
1553.7597000000001
 20
1083.2873
 40
10
 50
109.94091000000002
 51
199.94091
  0
LINE
  8
_0-0_LAYER001
  6
CONTINUOUS
 62
    4
 10
1531.1161000000002
 20
1116.3793000000001
 11
1546.7467000000001
 21
1073.2963999999999
  0
ARC
  8
_0-0_LAYER001
  6
CONTINUOUS
 62
    4
 10
1549.9169999999999
 20
1123.2003
 40
20
 50
109.94091000000002
 51
199.94091
  0
LINE
  8
_0-0_LAYER001
  6
CONTINUOUS
 62
    4
 10
1967.5715
 20
1262.1414
 11
2227.0239000000001
 21
1356.2715000000001
  0
LINE
  8
_0-0_LAYER001
  6
CONTINUOUS
 62
    4
 10
2227.0239000000001
 20
1356.2715000000001
 11
2231.1165000000001
 21
1344.9909
  0
LINE
  8
_0-0_LAYER001
  6
CONTINUOUS
 62
    4
 10
2231.1165000000001
 20
1344.9909
 11
2239.5769
 21
1348.0603999999998
  0
LINE
  8
_0-0_LAYER001
  6
CONTINUOUS
 62
    4
 10
2033.8647000000001
 20
1255.3432
 11
2025.4043000000001
 21
1252.2737
  0
LINE
  8
_0-0_LAYER001
  6
CONTINUOUS
 62
    4
 10
1815.5994999999998
 20
1170.837
 11
1819.6921000000002
 21
1159.5564999999999
  0
LINE
  8
_0-0_LAYER001
  6
CONTINUOUS
 62
    4
 10
1828.1525000000001
 20
1162.6259
 11
1819.6921000000002
 21
1159.5564999999999
  0
LINE
  8
_0-0_LAYER001
  6
CONTINUOUS
 62
    4
 10
1543.0958999999998
 20
1142.0011999999999
 11
1735.8051
 21
1211.9167
  0
ARC
  8
_0-0_LAYER001
  6
CONTINUOUS
 62
    4
 10
1742.8182000000002
 20
1221.9075
 40
10
 50
109.94091000000002
 51
199.94091
  0
LINE
  8
_0-0_LAYER001
  6
CONTINUOUS
 62
    4
 10
1733.4178000000002
 20
1218.4970000000001
 11
1752.4589000000001
 21
1166.0137
  0
LINE
  8
_0-0_LAYER001
  6
CONTINUOUS
 62
    4
 10
1742.6261
 20
1193.1158
 11
1752.4589000000001
 21
1166.0137
  0
LINE
  8
_0-0_LAYER001
  6
CONTINUOUS
 62
    4
 10
1818.2620000000002
 20
1189.8871999999999
 11
1828.1525000000001
 21
1162.6259
  0
LINE
  8
_0-0_LAYER001
  6
CONTINUOUS
 62
    4
 10
1550.3492000000001
 20
1092.6876999999999
 11
2021.3117000000002
 21
1263.5542
  0
LINE
  8
_0-0_LAYER001
  6
CONTINUOUS
 62
    4
 10
2021.3117000000002
 20
1263.5542
 11
2025.4043000000001
 21
1252.2737
  0
LINE
  8
_0-0_LAYER001
  6
CONTINUOUS
 62
    4
 10
1739.4077000000002
 20
1231.308
 11
1941.5173
 21
1304.6339
  0
ARC
  8
_0-0_LAYER001
  6
CONTINUOUS
 62
    4
 10
1948.5304000000001
 20
1314.6246999999998
 40
10
 50
109.94091000000002
 51
199.94091
  0
LINE
  8
_0-0_LAYER001
  6
CONTINUOUS
 62
    4
 10
1939.1300000000001
 20
1311.2141999999999
 11
1958.1711
 21
1258.7309
  0
LINE
  8
_0-0_LAYER001
  6
CONTINUOUS
 62
    4
 10
1939.1300000000001
 20
1311.2141999999999
 11
1958.1711
 21
1258.7309
  0
LINE
  8
_0-0_LAYER001
  6
CONTINUOUS
 62
    4
 10
1756.0614999999998
 20
1185.4049
 11
2023.9742000000001
 21
1282.6044999999999
  0
LINE
  8
_0-0_LAYER001
  6
CONTINUOUS
 62
    4
 10
2023.9742000000001
 20
1282.6044999999999
 11
2033.8647000000001
 21
1255.3432
  0
LINE
  8
_0-0_LAYER001
  6
CONTINUOUS
 62
    4
 10
1945.1199000000001
 20
1324.0252
 11
2147.2294999999999
 21
1397.3511000000003
  0
LINE
  8
_0-0_LAYER001
  6
CONTINUOUS
 62
    4
 10
2150.6401000000001
 20
1387.9507000000001
 11
2163.8833
 21
1351.4481000000001
  0
LINE
  8
_0-0_LAYER001
  6
CONTINUOUS
 62
    4
 10
2229.6864
 20
1375.3217
 11
2239.5769
 21
1348.0603999999998
  0
LINE
  8
_0-0_LAYER001
  6
CONTINUOUS
 62
    4
 10
1961.7737000000002
 20
1278.1222
 11
2259.7712000000001
 21
1386.2365
  0
LINE
  8
_0-0_LAYER001
  6
CONTINUOUS
 62
    4
 10
2144.8422
 20
1403.9313999999999
 11
2163.8833
 21
1351.4481000000001
  0
ARC
  8
_0-0_LAYER001
  6
CONTINUOUS
 62
    4
 10
2154.2426
 20
1407.3420000000001
 40
10
 50
109.94091000000002
 51
199.94091
  0
LINE
  8
_0-0_LAYER001
  6
CONTINUOUS
 62
    4
 10
1815.5994999999998
 20
1170.837
 11
1546.7467000000001
 21
1073.2963999999999
  0
LINE
  8
_0-3_LAYER005
  6
CONTINUOUS
 62
    2
 10
1619.3375000000001
 20
1094.8739
 11
1661.1235000000001
 21
1111.6739
  0
LINE
  8
_0-2_LAYER004
  6
CONTINUOUS
 62
    2
 10
1671.7640999999999
 20
1088.0296000000001
 11
1630.7276000000002
 21
1069.5626
  0
LINE
  8
_0-3_LAYER005
  6
CONTINUOUS
 62
    2
 10
1619.3375000000001
 20
1094.8739
 11
1630.7276000000002
 21
1069.5626
  0
LINE
  8
_0-3_LAYER005
  6
CONTINUOUS
 62
    2
 10
1661.1235000000001
 20
1111.6739
 11
1671.7640999999999
 21
1088.0296000000001
  0
LINE
  8
_0-3_LAYER005
  6
CONTINUOUS
 62
    2
 10
1619.3375000000001
 20
1094.8739
 11
1671.7645000000002
 21
1088.0289
  0
LINE
  8
_0-3_LAYER005
  6
CONTINUOUS
 62
    2
 10
1626.9765000000002
 20
1073.1647
 11
1616.9904999999999
 21
1095.3559
  0
LINE
  8
_0-3_LAYER005
  6
CONTINUOUS
 62
    2
 10
1617.1235000000001
 20
1095.0608999999999
 11
1637.5394999999999
 21
1103.2689
  0
LINE
  8
_0-3_LAYER005
  6
CONTINUOUS
 62
    2
 10
1637.5394999999999
 20
1103.2689
 11
1618.8744999999999
 21
1099.8429000000001
  0
CIRCLE
  8
_0-0_LAYER001
  6
CONTINUOUS
 62
    2
 10
1326.0362
 20
724.6869999999999
 40
1.6999999999999997
  0
LINE
  8
_0-0_LAYER001
  6
CONTINUOUS
 62
    2
 10
1326.0362
 20
724.6869999999999
 11
1143.6515999999999
 21
806.75970000000007
  0
CIRCLE
  8
_0-0_LAYER001
  6
CONTINUOUS
 62
    2
 10
1143.6515999999999
 20
806.75970000000007
 40
1.6999999999999997
  0
LINE
  8
_0-0_LAYER001
  6
CONTINUOUS
 62
    2
 10
1325.0101999999997
 20
722.4072000000001
 11
1376.1043
 21
835.95000000000005
  0
LINE
  8
_0-0_LAYER001
  6
CONTINUOUS
 62
    2
 10
1142.6257000000001
 20
804.47990000000004
 11
1193.7197000000001
 21
918.02269999999999
  0
CIRCLE
  8
_0-0_LAYER001
  6
CONTINUOUS
 62
    2
 10
1743.3168999999998
 20
819.07099999999991
 40
1.6999999999999997
  0
LINE
  8
_0-0_LAYER001
  6
CONTINUOUS
 62
    2
 10
1743.3168999999998
 20
819.07099999999991
 11
1560.9324999999999
 21
736.99829999999997
  0
CIRCLE
  8
_0-0_LAYER001
  6
CONTINUOUS
 62
    2
 10
1560.9324999999999
 20
736.99829999999997
 40
1.6999999999999997
  0
LINE
  8
_0-0_LAYER001
  6
CONTINUOUS
 62
    2
 10
1744.3427999999999
 20
816.79119999999989
 11
1695.3207000000002
 21
925.72980000000007
  0
LINE
  8
_0-0_LAYER001
  6
CONTINUOUS
 62
    2
 10
1561.9584
 20
734.71849999999995
 11
1512.9362999999998
 21
843.6570999999999
  0
CIRCLE
  8
_0-0_LAYER001
  6
CONTINUOUS
 62
    2
 10
1163.5582999999999
 20
850.99710000000005
 40
1.6999999999999997
  0
LINE
  8
_0-0_LAYER001
  6
CONTINUOUS
 62
    2
 10
1163.5582999999999
 20
850.99710000000005
 11
1231.9525000000001
 21
820.21990000000005
  0
CIRCLE
  8
_0-0_LAYER001
  6
CONTINUOUS
 62
    2
 10
1231.9525000000001
 20
820.21990000000005
 40
1.6999999999999997
  0
LINE
  8
_0-0_LAYER001
  6
CONTINUOUS
 62
    2
 10
1162.5324000000001
 20
848.71730000000002
 11
1184.0764999999999
 21
896.59320000000002
  0
LINE
  8
_0-0_LAYER001
  6
CONTINUOUS
 62
    2
 10
1230.9266
 20
817.94010000000003
 11
1252.4706000000001
 21
865.81600000000003
  0
CIRCLE
  8
_0-0_LAYER001
  6
CONTINUOUS
 62
    2
 10
1728.7337000000002
 20
851.47829999999999
 40
1.6999999999999997
  0
LINE
  8
_0-0_LAYER001
  6
CONTINUOUS
 62
    2
 10
1728.7337000000002
 20
851.47829999999999
 11
1660.3395999999998
 21
820.70100000000002
  0
CIRCLE
  8
_0-0_LAYER001
  6
CONTINUOUS
 62
    2
 10
1660.3395999999998
 20
820.70100000000002
 40
1.6999999999999997
  0
LINE
  8
_0-0_LAYER001
  6
CONTINUOUS
 62
    2
 10
1729.7595999999999
 20
849.19849999999997
 11
1708.2156
 21
897.07439999999997
  0
LINE
  8
_0-0_LAYER001
  6
CONTINUOUS
 62
    2
 10
1661.3654999999999
 20
818.4212
 11
1639.8213999999998
 21
866.2971
  0
LINE
  8
_0-0_LAYER001
  6
CONTINUOUS
 62
    2
 10
1131.8196
 20
1013.4084
 11
1146.4602
 21
1013.0592999999999
  0
LINE
  8
_0-0_LAYER001
  6
CONTINUOUS
 62
    2
 10
1131.8196
 20
1013.4084
 11
1141.7906
 21
1002.6822999999999
  0
LINE
  8
_0-0_LAYER001
  6
CONTINUOUS
 62
    2
 10
1762.3690999999999
 20
1009.6750999999999
 11
1747.7285000000002
 21
1009.326
  0
LINE
  8
_0-0_LAYER001
  6
CONTINUOUS
 62
    2
 10
1762.3690999999999
 20
1009.6750999999999
 11
1752.3980999999999
 21
998.94910000000004
  0
LINE
  8
_0-0_LAYER001
  6
CONTINUOUS
 62
    2
 10
1762.3690999999999
 20
1009.6750999999999
 11
1535.694
 21
907.67139999999995
  0
LINE
  8
_0-0_LAYER001
  6
CONTINUOUS
 62
    2
 10
1740.0423999999998
 20
1059.2900999999999
 11
1762.3690999999999
 21
1009.6750999999999
  0
LINE
  8
_0-0_LAYER001
  6
CONTINUOUS
 62
    2
 10
1131.8196
 20
1013.4084
 11
1357.3761999999999
 21
911.9079999999999
  0
LINE
  8
_0-0_LAYER001
  6
CONTINUOUS
 62
    2
 10
1153.9469999999999
 20
1062.5803000000001
 11
1131.8196
 21
1013.4084
  0
LINE
  8
_0-1_LAYER003
  6
CONTINUOUS
 62
    2
 10
1446.2543999999998
 20
981.09529999999995
 11
2300.6314000000002
 21
1365.5646999999999
  0
LINE
  8
_0-2_LAYER004
  6
DASHED3
 62
    2
 10
1446.2543999999998
 20
985.48129999999992
 11
2298.9901
 21
1369.212
  0
LINE
  8
_0-1_LAYER003
  6
CONTINUOUS
 62
    2
 10
1446.2543999999998
 20
981.09529999999995
 11
607.82410000000004
 21
1358.3886000000002
  0
LINE
  8
_0-2_LAYER004
  6
DASHED3
 62
    2
 10
1446.2543999999998
 20
985.48129999999992
 11
609.46540000000005
 21
1362.0360000000001
  0
LINE
  8
_0-3_LAYER005
  6
CONTINUOUS
 62
    2
 10
1273.3025
 20
1094.8739
 11
1231.5165
 21
1111.6739
  0
LINE
  8
_0-2_LAYER004
  6
CONTINUOUS
 62
    2
 10
1220.8759
 20
1088.0296000000001
 11
1261.9123999999999
 21
1069.5626
  0
LINE
  8
_0-3_LAYER005
  6
CONTINUOUS
 62
    2
 10
1273.3025
 20
1094.8739
 11
1261.9123999999999
 21
1069.5626
  0
LINE
  8
_0-3_LAYER005
  6
CONTINUOUS
 62
    2
 10
1231.5165
 20
1111.6739
 11
1220.8759
 21
1088.0296000000001
  0
LINE
  8
_0-3_LAYER005
  6
CONTINUOUS
 62
    2
 10
1273.3025
 20
1094.8739
 11
1220.8755000000001
 21
1088.0289
  0
LINE
  8
_0-3_LAYER005
  6
CONTINUOUS
 62
    2
 10
1265.425
 20
1072.6347000000001
 11
1445.6113999999998
 21
991.55030000000011
  0
LINE
  8
_0-3_LAYER005
  6
CONTINUOUS
 62
    2
 10
1255.1005
 20
1103.2689
 11
1273.7655
 21
1099.8429000000001
  0
LINE
  8
_0-3_LAYER005
  6
CONTINUOUS
 62
    2
 10
1445.6113999999998
 20
991.55030000000011
 11
1626.9765000000002
 21
1073.1647
  0
LINE
  8
_0-4_LAYER006
  6
DASHED1
 62
    2
 10
1446.0414000000001
 20
983.37429999999995
 11
1173.4949999999999
 21
1106.0204000000001
  0
LINE
  8
_0-4_LAYER006
  6
DASHED1
 62
    2
 10
1446.0414000000001
 20
983.37429999999995
 11
1718.9422
 21
1106.1793
  0
LINE
  8
_0-1_LAYER003
  6
CONTINUOUS
 62
    2
 10
1566.5344
 20
1035.2203
 11
1648.6073999999999
 21
1072.1532999999999
  0
LINE
  8
_0-1_LAYER003
  6
CONTINUOUS
 62
    2
 10
1243.9023999999999
 20
1072.1532999999999
 11
1325.9744000000001
 21
1035.2203
  0
LINE
  8
_0-4_LAYER006
  6
CONTINUOUS
 62
    2
 10
1446.2543999999998
 20
794.67530000000011
 11
538.0619999999999
 21
1203.3616999999999
  0
LINE
  8
_0-4_LAYER006
  6
CONTINUOUS
 62
    2
 10
1446.2543999999998
 20
794.67530000000011
 11
2370.3935000000001
 21
1210.5377000000001
  0
LINE
  8
_0-4_LAYER006
  6
CONTINUOUS
 62
    2
 10
759.42830000000004
 20
1246.3033
 11
661.11439999999993
 21
1147.9883
  0
LINE
  8
_0-4_LAYER006
  6
CONTINUOUS
 62
    2
 10
751.6262999999999
 20
1249.8142
 11
653.31140000000005
 21
1151.4992999999999
  0
LINE
  8
_0-4_LAYER006
  6
CONTINUOUS
 62
    2
 10
743.82359999999994
 20
1253.3254999999999
 11
645.50939999999991
 21
1155.0112999999999
  0
LINE
  8
_0-4_LAYER006
  6
CONTINUOUS
 62
    2
 10
1115.0931
 20
1086.2539999999999
 11
1016.7783999999999
 21
987.9393
  0
LINE
  8
_0-4_LAYER006
  6
CONTINUOUS
 62
    2
 10
1122.8951
 20
1082.7430999999999
 11
1024.5814
 21
984.42830000000004
  0
LINE
  8
_0-4_LAYER006
  6
CONTINUOUS
 62
    2
 10
1130.6978999999999
 20
1079.2318
 11
1032.3833999999999
 21
980.91730000000007
  0
LINE
  8
_0-0_LAYER001
  6
CONTINUOUS
 62
    2
 10
1122.5340000000001
 20
1205.8046999999999
 11
1116.7361000000001
 21
1189.8239000000001
  0
LINE
  8
_0-0_LAYER001
  6
CONTINUOUS
 62
    2
 10
916.82169999999996
 20
1298.5219000000002
 11
911.02389999999991
 21
1282.5410999999999
  0
LINE
  8
_0-0_LAYER001
  6
CONTINUOUS
 62
    2
 10
711.10950000000003
 20
1391.2391
 11
705.31169999999997
 21
1375.2583999999999
  0
LINE
  8
_0-0_LAYER001
  6
CONTINUOUS
 62
    2
 10
1356.4474999999998
 20
1102.8559
 11
1116.7361000000001
 21
1189.8239000000001
  0
LINE
  8
_0-0_LAYER001
  6
CONTINUOUS
 62
    2
 10
1084.9322
 20
1219.4467
 11
911.02389999999991
 21
1282.5410999999999
  0
ARC
  8
_0-0_LAYER001
  6
CONTINUOUS
 62
    4
 10
1339.8561999999997
 20
1108.7992999999999
 40
17.623681999999999
 50
340.29127000000005
 51
57.209820000000029
  0
ARC
  8
_0-0_LAYER001
  6
CONTINUOUS
 62
    4
 10
722.7195999999999
 20
1386.951
 40
17.623681999999999
 50
340.29127000000005
 51
57.209820000000029
  0
LINE
  8
_0-0_LAYER001
  6
CONTINUOUS
 62
    4
 10
662.65190000000007
 20
1374.9589000000001
 11
620.09269999999992
 21
1390.3995
  0
LINE
  8
_0-0_LAYER001
  6
CONTINUOUS
 62
    2
 10
666.50649999999996
 20
1354.7317
 11
693.85380000000009
 21
1342.3977
  0
LINE
  8
_0-0_LAYER001
  6
CONTINUOUS
 62
    2
 10
660.33950000000004
 20
1341.0581
 11
666.50649999999996
 21
1354.7317
  0
LINE
  8
_0-0_LAYER001
  6
CONTINUOUS
 62
    2
 10
666.50649999999996
 20
1354.7317
 11
687.68669999999997
 21
1328.7240999999999
  0
LINE
  8
_0-0_LAYER001
  6
CONTINUOUS
 62
    4
 10
741.50620000000004
 20
1416.3796
 11
647.18309999999997
 21
1450.6003000000001
  0
LINE
  8
_0-0_LAYER001
  6
CONTINUOUS
 62
    4
 10
665.31439999999998
 20
1355.9087
 11
661.22180000000003
 21
1344.6282000000001
  0
LINE
  8
_0-0_LAYER001
  6
CONTINUOUS
 62
    4
 10
732.6567
 20
1401.5059999999999
 11
641.38519999999994
 21
1434.6195
  0
LINE
  8
_0-0_LAYER001
  6
CONTINUOUS
 62
    4
 10
673.50770000000011
 20
1404.8812
 11
652.76140000000009
 21
1347.6976
  0
LINE
  8
_0-0_LAYER001
  6
CONTINUOUS
 62
    4
 10
747.49610000000007
 20
1403.5687000000003
 11
739.31089999999995
 21
1381.0075999999999
  0
ARC
  8
_0-0_LAYER001
  6
CONTINUOUS
 62
    4
 10
738.0956000000001
 20
1406.9792000000002
 40
10
 50
340.05907999999999
 51
70.059082999999987
  0
ARC
  8
_0-0_LAYER001
  6
CONTINUOUS
 62
    4
 10
1134.144
 20
1201.5165
 40
17.623681999999999
 50
340.29127000000005
 51
57.209820000000029
  0
LINE
  8
_0-0_LAYER001
  6
CONTINUOUS
 62
    4
 10
1084.9322
 20
1219.4467
 11
1349.7933
 21
1123.3543
  0
LINE
  8
_0-0_LAYER001
  6
CONTINUOUS
 62
    2
 10
687.68669999999997
 20
1328.7240999999999
 11
660.33950000000004
 21
1341.0581
  0
LINE
  8
_0-0_LAYER001
  6
CONTINUOUS
 62
    2
 10
693.85380000000009
 20
1342.3977
 11
687.68669999999997
 21
1328.7240999999999
  0
LINE
  8
_0-0_LAYER001
  6
CONTINUOUS
 62
    2
 10
893.4541999999999
 20
1236.1286
 11
866.09660000000008
 21
1248.4395999999999
  0
LINE
  8
_0-0_LAYER001
  6
CONTINUOUS
 62
    2
 10
899.60969999999998
 20
1249.8073999999999
 11
893.4541999999999
 21
1236.1286
  0
LINE
  8
_0-0_LAYER001
  6
CONTINUOUS
 62
    2
 10
1099.2217000000001
 20
1143.5331000000001
 11
1071.8641
 21
1155.8441
  0
LINE
  8
_0-0_LAYER001
  6
CONTINUOUS
 62
    2
 10
1078.0196000000001
 20
1169.5228999999999
 11
1105.3771999999999
 21
1157.2119
  0
LINE
  8
_0-0_LAYER001
  6
CONTINUOUS
 62
    2
 10
1071.8641
 20
1155.8441
 11
1078.0196000000001
 21
1169.5228999999999
  0
LINE
  8
_0-0_LAYER001
  6
CONTINUOUS
 62
    2
 10
1105.3771999999999
 20
1157.2119
 11
1099.2217000000001
 21
1143.5331000000001
  0
LINE
  8
_0-0_LAYER001
  6
CONTINUOUS
 62
    2
 10
1078.0196000000001
 20
1169.5228999999999
 11
1099.2217000000001
 21
1143.5331000000001
  0
LINE
  8
_0-0_LAYER001
  6
CONTINUOUS
 62
    4
 10
1361.2221999999999
 20
1116.0165999999999
 11
1345.5916
 21
1072.9337
  0
ARC
  8
_0-0_LAYER001
  6
CONTINUOUS
 62
    4
 10
1342.4213
 20
1122.8376000000001
 40
20
 50
340.05907999999999
 51
70.059082999999987
  0
LINE
  8
_0-0_LAYER001
  6
CONTINUOUS
 62
    4
 10
661.22180000000003
 20
1344.6282000000001
 11
652.76140000000009
 21
1347.6976
  0
LINE
  8
_0-0_LAYER001
  6
CONTINUOUS
 62
    4
 10
858.47360000000003
 20
1254.9803999999999
 11
866.93399999999997
 21
1251.9109000000001
  0
LINE
  8
_0-0_LAYER001
  6
CONTINUOUS
 62
    4
 10
1076.7388000000001
 20
1170.4742000000001
 11
1072.6461999999999
 21
1159.1937
  0
LINE
  8
_0-0_LAYER001
  6
CONTINUOUS
 62
    4
 10
1064.1858
 20
1162.2632000000001
 11
1072.6461999999999
 21
1159.1937
  0
LINE
  8
_0-0_LAYER001
  6
CONTINUOUS
 62
    4
 10
1349.2422999999999
 20
1141.6385
 11
1156.5332000000001
 21
1211.5539000000001
  0
ARC
  8
_0-0_LAYER001
  6
CONTINUOUS
 62
    4
 10
1149.5201
 20
1221.5446999999999
 40
10
 50
340.05907999999999
 51
70.059082999999987
  0
LINE
  8
_0-0_LAYER001
  6
CONTINUOUS
 62
    4
 10
1150.7353000000001
 20
1195.5732
 11
1158.9204999999999
 21
1218.1342
  0
LINE
  8
_0-0_LAYER001
  6
CONTINUOUS
 62
    4
 10
1084.9322
 20
1219.4467
 11
1064.1858
 21
1162.2632000000001
  0
LINE
  8
_0-0_LAYER001
  6
CONTINUOUS
 62
    4
 10
1076.7388000000001
 20
1170.4742000000001
 11
1345.5916
 21
1072.9337
  0
ARC
  8
_0-0_LAYER001
  6
CONTINUOUS
 62
    4
 10
928.43180000000007
 20
1294.2338
 40
17.623681999999999
 50
340.29127000000005
 51
57.209820000000029
  0
LINE
  8
_0-0_LAYER001
  6
CONTINUOUS
 62
    4
 10
1074.0762999999999
 20
1189.5245
 11
871.02659999999992
 21
1263.1914999999999
  0
LINE
  8
_0-0_LAYER001
  6
CONTINUOUS
 62
    2
 10
872.25209999999993
 20
1262.1184000000001
 11
899.60969999999998
 21
1249.8073999999999
  0
LINE
  8
_0-0_LAYER001
  6
CONTINUOUS
 62
    2
 10
866.09660000000008
 20
1248.4395999999999
 11
872.25209999999993
 21
1262.1184000000001
  0
LINE
  8
_0-0_LAYER001
  6
CONTINUOUS
 62
    2
 10
872.25209999999993
 20
1262.1184000000001
 11
893.4541999999999
 21
1236.1286
  0
LINE
  8
_0-0_LAYER001
  6
CONTINUOUS
 62
    4
 10
1144.0811000000001
 20
1216.0716
 11
879.21990000000005
 21
1312.1639
  0
LINE
  8
_0-0_LAYER001
  6
CONTINUOUS
 62
    4
 10
871.02659999999992
 20
1263.1914999999999
 11
866.93399999999997
 21
1251.9109000000001
  0
LINE
  8
_0-0_LAYER001
  6
CONTINUOUS
 62
    4
 10
1152.9305999999999
 20
1230.9452000000001
 11
950.82089999999994
 21
1304.2710999999999
  0
ARC
  8
_0-0_LAYER001
  6
CONTINUOUS
 62
    4
 10
943.80790000000002
 20
1314.2619999999999
 40
10
 50
340.05907999999999
 51
70.059082999999987
  0
LINE
  8
_0-0_LAYER001
  6
CONTINUOUS
 62
    4
 10
945.02310000000011
 20
1288.2904000000003
 11
953.20830000000001
 21
1310.8515
  0
LINE
  8
_0-0_LAYER001
  6
CONTINUOUS
 62
    4
 10
879.21990000000005
 20
1312.1639
 11
858.47360000000003
 21
1254.9803999999999
  0
LINE
  8
_0-0_LAYER001
  6
CONTINUOUS
 62
    4
 10
868.36410000000001
 20
1282.2417
 11
665.31439999999998
 21
1355.9087
  0
LINE
  8
_0-0_LAYER001
  6
CONTINUOUS
 62
    4
 10
938.36889999999994
 20
1308.7888
 11
673.50770000000011
 21
1404.8812
  0
LINE
  8
_0-0_LAYER001
  6
CONTINUOUS
 62
    4
 10
947.21839999999997
 20
1323.6624000000002
 11
745.1087
 21
1396.9884
  0
LINE
  8
_0-0_LAYER001
  6
CONTINUOUS
 62
    2
 10
879.21990000000005
 20
1312.1639
 11
705.31169999999997
 21
1375.2583999999999
  0
LINE
  8
_0-0_LAYER001
  6
CONTINUOUS
 62
    2
 10
1214.4673
 20
1345.0263
 11
1196.5621000000001
 21
1295.674
  0
CIRCLE
  8
_0-0_LAYER001
  6
CONTINUOUS
 62
    2
 10
1213.6146000000001
 20
1342.6762000000003
 40
1.6999999999999997
  0
LINE
  8
_0-0_LAYER001
  6
CONTINUOUS
 62
    2
 10
1213.6146000000001
 20
1342.6762000000003
 11
1002.1045999999999
 21
1419.4127000000001
  0
CIRCLE
  8
_0-0_LAYER001
  6
CONTINUOUS
 62
    2
 10
1002.1045999999999
 20
1419.4127000000001
 40
1.6999999999999997
  0
LINE
  8
_0-0_LAYER001
  6
CONTINUOUS
 62
    2
 10
1002.9572000000001
 20
1421.7628
 11
985.05199999999991
 21
1372.4104
  0
LINE
  8
_0-0_LAYER001
  6
CONTINUOUS
 62
    2
 10
1013.1886999999999
 20
1449.9640999999999
 11
995.2835
 21
1400.6117999999997
  0
CIRCLE
  8
_0-0_LAYER001
  6
CONTINUOUS
 62
    2
 10
1012.3361
 20
1447.614
 40
1.6999999999999997
  0
LINE
  8
_0-0_LAYER001
  6
CONTINUOUS
 62
    2
 10
1012.3361
 20
1447.614
 11
800.82600000000002
 21
1524.3505
  0
CIRCLE
  8
_0-0_LAYER001
  6
CONTINUOUS
 62
    2
 10
800.82600000000002
 20
1524.3505
 40
1.6999999999999997
  0
LINE
  8
_0-0_LAYER001
  6
CONTINUOUS
 62
    2
 10
801.67859999999996
 20
1526.7005999999997
 11
783.77350000000001
 21
1477.3481999999999
  0
LINE
  8
_0-0_LAYER001
  6
CONTINUOUS
 62
    2
 10
1204.2357
 20
1316.825
 11
1186.3306
 21
1267.4726000000001
  0
CIRCLE
  8
_0-0_LAYER001
  6
CONTINUOUS
 62
    2
 10
1203.3831
 20
1314.4748999999999
 40
1.6999999999999997
  0
LINE
  8
_0-0_LAYER001
  6
CONTINUOUS
 62
    2
 10
1203.3831
 20
1314.4748999999999
 11
1414.8932
 21
1237.7384
  0
CIRCLE
  8
_0-0_LAYER001
  6
CONTINUOUS
 62
    2
 10
1414.8932
 20
1237.7384
 40
1.6999999999999997
  0
LINE
  8
_0-0_LAYER001
  6
CONTINUOUS
 62
    2
 10
1415.7457999999999
 20
1240.0885000000001
 11
1397.8406
 21
1190.7362000000001
  0
LINE
  8
_0-2_LAYER004
  6
DASHED1
 62
    2
 10
1617.7536
 20
951.0014000000001
 11
1613.7305999999999
 21
960.15650000000005
  0
LINE
  8
_0-2_LAYER004
  6
DASHED1
 62
    2
 10
1568.6423
 20
1013.1207999999999
 11
1595.4468999999999
 21
952.12210000000005
  0
LINE
  8
_0-2_LAYER004
  6
DASHED1
 62
    2
 10
1559.4872
 20
1009.0978
 11
1590.3148999999999
 21
938.94399999999996
  0
LINE
  8
_0-2_LAYER004
  6
DASHED1
 62
    2
 10
1595.4468999999999
 20
952.12210000000005
 11
1613.7305999999999
 21
960.15650000000005
  0
LINE
  8
_0-2_LAYER004
  6
DASHED1
 62
    2
 10
1590.3148999999999
 20
938.94399999999996
 11
1617.7536
 21
951.0014000000001
  0
LINE
  8
_0-2_LAYER004
  6
CONTINUOUS
 62
    3
 10
1462.4290000000001
 20
959.85629999999992
 11
2312.7069999999999
 21
1342.4818
  0
CIRCLE
  8
_0-2_LAYER004
  6
CONTINUOUS
 62
    3
 10
1473.6896999999999
 20
966.1400000000001
 40
1.3049219999999999
  0
CIRCLE
  8
_0-2_LAYER004
  6
CONTINUOUS
 62
    3
 10
1610.4778999999999
 20
1027.6948
 40
1.3049219999999999
  0
CIRCLE
  8
_0-2_LAYER004
  6
CONTINUOUS
 62
    3
 10
1747.2660999999998
 20
1089.2494999999999
 40
1.3049219999999999
  0
CIRCLE
  8
_0-2_LAYER004
  6
CONTINUOUS
 62
    3
 10
1884.0542999999998
 20
1150.8043
 40
1.3049219999999999
  0
CIRCLE
  8
_0-2_LAYER004
  6
CONTINUOUS
 62
    3
 10
2020.8425000000002
 20
1212.3590999999999
 40
1.3049219999999999
  0
CIRCLE
  8
_0-2_LAYER004
  6
CONTINUOUS
 62
    3
 10
2157.6307000000002
 20
1273.9138
 40
1.3049219999999999
  0
CIRCLE
  8
_0-2_LAYER004
  6
CONTINUOUS
 62
    3
 10
2294.4189000000001
 20
1335.4685999999997
 40
1.3049219999999999
  0
LINE
  8
_0-2_LAYER004
  6
DASHED1
 62
    2
 10
2164.9277000000002
 20
1197.2301
 11
2160.9047
 21
1206.3851
  0
LINE
  8
_0-2_LAYER004
  6
DASHED1
 62
    2
 10
2115.8164000000002
 20
1259.3494000000001
 11
2142.6210000000001
 21
1198.3507
  0
LINE
  8
_0-2_LAYER004
  6
DASHED1
 62
    2
 10
2106.6613000000002
 20
1255.3263999999999
 11
2137.489
 21
1185.1726000000001
  0
LINE
  8
_0-2_LAYER004
  6
DASHED1
 62
    2
 10
2142.6210000000001
 20
1198.3507
 11
2160.9047
 21
1206.3851
  0
LINE
  8
_0-2_LAYER004
  6
DASHED1
 62
    2
 10
2137.489
 20
1185.1726000000001
 11
2164.9277000000002
 21
1197.2301
  0
LINE
  8
_0-2_LAYER004
  6
DASHED1
 62
    2
 10
2115.8164000000002
 20
1259.3494000000001
 11
2106.6613000000002
 21
1255.3263999999999
  0
LINE
  8
_0-2_LAYER004
  6
DASHED1
 62
    2
 10
1568.6423
 20
1013.1207999999999
 11
1559.4872
 21
1009.0978
  0
LINE
  8
_0-2_LAYER004
  6
DASHED1
 62
    2
 10
1274.7551000000001
 20
951.0014000000001
 11
1278.7782
 21
960.15650000000005
  0
LINE
  8
_0-2_LAYER004
  6
DASHED1
 62
    2
 10
1323.8665000000001
 20
1013.1207999999999
 11
1297.0617999999999
 21
952.12210000000005
  0
LINE
  8
_0-2_LAYER004
  6
DASHED1
 62
    2
 10
1333.0216
 20
1009.0978
 11
1302.1939
 21
938.94399999999996
  0
LINE
  8
_0-2_LAYER004
  6
DASHED1
 62
    2
 10
1297.0617999999999
 20
952.12210000000005
 11
1278.7782
 21
960.15650000000005
  0
LINE
  8
_0-2_LAYER004
  6
DASHED1
 62
    2
 10
1302.1939
 20
938.94399999999996
 11
1274.7551000000001
 21
951.0014000000001
  0
LINE
  8
_0-2_LAYER004
  6
CONTINUOUS
 62
    3
 10
1430.0798
 20
959.85629999999992
 11
587.18119999999999
 21
1339.1610000000001
  0
CIRCLE
  8
_0-2_LAYER004
  6
CONTINUOUS
 62
    3
 10
1418.819
 20
966.1400000000001
 40
1.3049219999999999
  0
CIRCLE
  8
_0-2_LAYER004
  6
CONTINUOUS
 62
    3
 10
1282.0308
 20
1027.6948
 40
1.3049219999999999
  0
CIRCLE
  8
_0-2_LAYER004
  6
CONTINUOUS
 62
    3
 10
1145.2426
 20
1089.2494999999999
 40
1.3049219999999999
  0
CIRCLE
  8
_0-2_LAYER004
  6
CONTINUOUS
 62
    3
 10
1008.4544000000001
 20
1150.8043
 40
1.3049219999999999
  0
CIRCLE
  8
_0-2_LAYER004
  6
CONTINUOUS
 62
    3
 10
871.66619999999989
 20
1212.3590999999999
 40
1.3049219999999999
  0
CIRCLE
  8
_0-2_LAYER004
  6
CONTINUOUS
 62
    3
 10
734.87799999999993
 20
1273.9138
 40
1.3049219999999999
  0
CIRCLE
  8
_0-2_LAYER004
  6
CONTINUOUS
 62
    3
 10
598.08979999999997
 20
1335.4685999999997
 40
1.3049219999999999
  0
LINE
  8
_0-2_LAYER004
  6
DASHED1
 62
    2
 10
727.5809999999999
 20
1197.2301
 11
731.60410000000002
 21
1206.3851
  0
LINE
  8
_0-2_LAYER004
  6
DASHED1
 62
    2
 10
776.69239999999991
 20
1259.3494000000001
 11
749.8877
 21
1198.3507
  0
LINE
  8
_0-2_LAYER004
  6
DASHED1
 62
    2
 10
785.84740000000011
 20
1255.3263999999999
 11
755.01980000000003
 21
1185.1726000000001
  0
LINE
  8
_0-2_LAYER004
  6
DASHED1
 62
    2
 10
749.8877
 20
1198.3507
 11
731.60410000000002
 21
1206.3851
  0
LINE
  8
_0-2_LAYER004
  6
DASHED1
 62
    2
 10
755.01980000000003
 20
1185.1726000000001
 11
727.5809999999999
 21
1197.2301
  0
LINE
  8
_0-2_LAYER004
  6
DASHED1
 62
    2
 10
776.69239999999991
 20
1259.3494000000001
 11
785.84740000000011
 21
1255.3263999999999
  0
LINE
  8
_0-2_LAYER004
  6
DASHED1
 62
    2
 10
1323.8665000000001
 20
1013.1207999999999
 11
1333.0216
 21
1009.0978
  0
LINE
  8
_0-2_LAYER004
  6
CONTINUOUS
 62
    2
 10
760.13509999999997
 20
1196.5997
 11
758.19389999999999
 21
1203.8441
  0
LINE
  8
_0-2_LAYER004
  6
CONTINUOUS
 62
    2
 10
758.19389999999999
 20
1203.8441
 11
763.49720000000002
 21
1198.5408
  0
LINE
  8
_0-2_LAYER004
  6
CONTINUOUS
 62
    2
 10
758.19389999999999
 20
1203.8441
 11
779.73199999999997
 21
1166.539
  0
LINE
  8
_0-2_LAYER004
  6
CONTINUOUS
 62
    2
 10
779.73199999999997
 20
1166.539
 11
839.73199999999997
 21
1166.539
  0
LINE
  8
_0-2_LAYER004
  6
CONTINUOUS
 62
    2
 10
1056.8361
 20
1119.54
 11
1062.1394
 21
1124.8433
  0
LINE
  8
_0-2_LAYER004
  6
CONTINUOUS
 62
    2
 10
1062.1394
 20
1124.8433
 11
1060.1983
 21
1117.5989
  0
LINE
  8
_0-2_LAYER004
  6
CONTINUOUS
 62
    2
 10
1062.1394
 20
1124.8433
 11
1026.4408000000001
 21
1063.0115000000001
  0
LINE
  8
_0-2_LAYER004
  6
CONTINUOUS
 62
    2
 10
1026.4408000000001
 20
1063.0115000000001
 11
966.44080000000008
 21
1063.0115000000001
  0
LINE
  8
_0-0_LAYER001
  6
CONTINUOUS
 62
    2
 10
1901.5439000000001
 20
1238.4473
 11
1897.7939000000001
 21
1231.9521
  0
LINE
  8
_0-0_LAYER001
  6
CONTINUOUS
 62
    2
 10
1897.7939000000001
 20
1231.9521
 11
1897.7939000000001
 21
1239.4521
  0
LINE
  8
_0-0_LAYER001
  6
CONTINUOUS
 62
    2
 10
1897.7939000000001
 20
1231.9521
 11
1941.9000000000001
 21
1396.5585000000001
  0
LINE
  8
_0-0_LAYER001
  6
CONTINUOUS
 62
    2
 10
1941.9000000000001
 20
1396.5585000000001
 11
1982.4000000000001
 21
1396.5585000000001
  0
LINE
  8
_0-0_LAYER001
  6
CONTINUOUS
 62
    2
 10
1644.0135
 20
1101.1903
 11
1640.2635
 21
1094.6950999999999
  0
LINE
  8
_0-0_LAYER001
  6
CONTINUOUS
 62
    2
 10
1640.2635
 20
1094.6950999999999
 11
1640.2635
 21
1102.1950999999999
  0
LINE
  8
_0-0_LAYER001
  6
CONTINUOUS
 62
    2
 10
1640.2635
 20
1094.6950999999999
 11
1702.6695
 21
1327.5971999999999
  0
LINE
  8
_0-0_LAYER001
  6
CONTINUOUS
 62
    2
 10
1702.6695
 20
1327.5971999999999
 11
1833.1695
 21
1327.5971999999999
  0
LINE
  8
_0-0_LAYER001
  6
CONTINUOUS
 62
    2
 10
2087.7919999999999
 20
964.8134
 11
2292.6147000000001
 21
964.8134
  0
LINE
  8
_0-0_LAYER001
  6
CONTINUOUS
 62
    2
 10
2104.2440999999999
 20
904.85149999999999
 11
2342.2671
 21
904.85149999999999
  0
LINE
  8
_0-0_LAYER001
  6
CONTINUOUS
 62
    2
 10
2094.701
 20
934.94689999999991
 11
2431.9378999999999
 21
934.94689999999991
  0
LINE
  8
_0-0_LAYER001
  6
CONTINUOUS
 62
    2
 10
2012.2084
 20
1237.7374
 11
2012.2084
 21
1245.2374
  0
LINE
  8
_0-0_LAYER001
  6
CONTINUOUS
 62
    2
 10
2012.2084
 20
1245.2374
 11
2015.9584
 21
1238.7421999999999
  0
LINE
  8
_0-0_LAYER001
  6
CONTINUOUS
 62
    2
 10
2012.2084
 20
1245.2374
 11
2103.4701
 21
904.64419999999996
  0
LINE
  8
_0-1_LAYER003
  6
CONTINUOUS
 62
    7
 10
538.0619999999999
 20
1203.3616999999999
 11
1446.2543999999998
 21
794.67530000000011
  0
LINE
  8
_0-1_LAYER003
  6
CONTINUOUS
 62
    7
 10
1446.2543999999998
 20
794.67530000000011
 11
2370.3935000000001
 21
1210.5377000000001
  0
LINE
  8
_0-1_LAYER003
  6
CONTINUOUS
 62
    7
 10
591.40959999999995
 20
1321.9119000000001
 11
1446.2543999999998
 21
937.23119999999994
  0
LINE
  8
_0-1_LAYER003
  6
CONTINUOUS
 62
    7
 10
1446.2543999999998
 20
937.23119999999994
 11
2317.0459999999998
 21
1329.0879
  0
LINE
  8
_0-1_LAYER003
  6
CONTINUOUS
 62
    7
 10
2299.7730000000001
 20
1365.1784
 11
1446.2543999999998
 21
981.09529999999995
  0
LINE
  8
_0-1_LAYER003
  6
CONTINUOUS
 62
    7
 10
1446.2543999999998
 20
981.09529999999995
 11
607.82410000000004
 21
1358.3886000000002
  0
LINE
  8
_0-1_LAYER003
  6
CONTINUOUS
 62
    7
 10
609.46540000000005
 20
1362.0360000000001
 11
1446.2543999999998
 21
985.48129999999992
  0
LINE
  8
_0-1_LAYER003
  6
CONTINUOUS
 62
    7
 10
1446.2543999999998
 20
985.48129999999992
 11
2298.9901
 21
1369.212
  0
LINE
  8
_0-1_LAYER003
  6
CONTINUOUS
 62
    7
 10
1446.0414000000001
 20
983.37429999999995
 11
1718.9422
 21
1106.1793
  0
LINE
  8
_0-1_LAYER003
  6
CONTINUOUS
 62
    7
 10
1446.0414000000001
 20
983.37429999999995
 11
1173.4949999999999
 21
1106.0204000000001
  0
LINE
  8
_0-1_LAYER003
  6
CONTINUOUS
 62
    7
 10
1273.7655
 20
1099.8429000000001
 11
1255.1005
 21
1103.2689
  0
LINE
  8
_0-1_LAYER003
  6
CONTINUOUS
 62
    7
 10
1265.425
 20
1072.6347000000001
 11
1445.6113999999998
 21
991.55030000000011
  0
LINE
  8
_0-1_LAYER003
  6
CONTINUOUS
 62
    7
 10
1445.6113999999998
 20
991.55030000000011
 11
1626.9765000000002
 21
1073.1647
  0
LINE
  8
_0-1_LAYER003
  6
CONTINUOUS
 62
    7
 10
1626.9765000000002
 20
1073.1647
 11
1617.1235000000001
 21
1095.0608999999999
  0
LINE
  8
_0-1_LAYER003
  6
CONTINUOUS
 62
    7
 10
1617.1235000000001
 20
1095.0608999999999
 11
1637.5394999999999
 21
1103.2689
  0
LINE
  8
_0-1_LAYER003
  6
CONTINUOUS
 62
    7
 10
1637.5394999999999
 20
1103.2689
 11
1620.9850525546603
 21
1100.230296359618
  0
LINE
  8
_0-1_LAYER003
  6
CONTINUOUS
 62
    7
 10
1640.2635
 20
1102.1950999999999
 11
1640.2635
 21
1094.6950999999999
  0
LINE
  8
_0-1_LAYER003
  6
CONTINUOUS
 62
    7
 10
1640.2635
 20
1094.6950999999999
 11
1644.0135
 21
1101.1903
  0
LINE
  8
_0-1_LAYER003
  6
CONTINUOUS
 62
    7
 10
1640.2635
 20
1094.6950999999999
 11
1702.6695
 21
1327.5971999999999
  0
LINE
  8
_0-1_LAYER003
  6
CONTINUOUS
 62
    7
 10
1619.3375000000001
 20
1094.8739
 11
1661.1235000000001
 21
1111.6739
  0
LINE
  8
_0-1_LAYER003
  6
CONTINUOUS
 62
    7
 10
1661.1235000000001
 20
1111.6739
 11
1671.7640999999999
 21
1088.0296000000001
  0
LINE
  8
_0-1_LAYER003
  6
CONTINUOUS
 62
    7
 10
1671.7640999999999
 20
1088.0296000000001
 11
1630.7276000000002
 21
1069.5626
  0
LINE
  8
_0-1_LAYER003
  6
CONTINUOUS
 62
    7
 10
1630.7276000000002
 20
1069.5626
 11
1619.3375000000001
 21
1094.8739
  0
LINE
  8
_0-1_LAYER003
  6
CONTINUOUS
 62
    7
 10
1619.3375000000001
 20
1094.8739
 11
1671.7640999999999
 21
1088.0296000000001
  0
LINE
  8
_0-1_LAYER003
  6
CONTINUOUS
 62
    7
 10
1786.9611
 20
1157.5746999999999
 11
1814.3186999999998
 21
1169.8856000000001
  0
LINE
  8
_0-1_LAYER003
  6
CONTINUOUS
 62
    7
 10
1814.3186999999998
 20
1169.8856000000001
 11
1820.4742000000001
 21
1156.2067999999999
  0
LINE
  8
_0-1_LAYER003
  6
CONTINUOUS
 62
    7
 10
1820.4742000000001
 20
1156.2067999999999
 11
1793.1165999999998
 21
1143.8959
  0
LINE
  8
_0-1_LAYER003
  6
CONTINUOUS
 62
    7
 10
1793.1165999999998
 20
1143.8959
 11
1786.9611
 21
1157.5746999999999
  0
LINE
  8
_0-1_LAYER003
  6
CONTINUOUS
 62
    7
 10
1786.9611
 20
1157.5746999999999
 11
1793.1165999999998
 21
1143.8959
  0
LINE
  8
_0-1_LAYER003
  6
CONTINUOUS
 62
    7
 10
1814.3186999999998
 20
1169.8856000000001
 11
1793.1165999999998
 21
1143.8959
  0
LINE
  8
_0-1_LAYER003
  6
CONTINUOUS
 62
    7
 10
1897.7939000000001
 20
1239.4521
 11
1897.7939000000001
 21
1231.9521
  0
LINE
  8
_0-1_LAYER003
  6
CONTINUOUS
 62
    7
 10
1897.7939000000001
 20
1231.9521
 11
1901.3533493251587
 21
1238.1172560684718
  0
LINE
  8
_0-1_LAYER003
  6
CONTINUOUS
 62
    7
 10
1897.7939000000001
 20
1231.9521
 11
1941.9000000000001
 21
1396.5585000000001
  0
LINE
  8
_0-1_LAYER003
  6
CONTINUOUS
 62
    7
 10
1992.7285999999999
 20
1250.1702
 11
2020.0862000000002
 21
1262.4811
  0
LINE
  8
_0-1_LAYER003
  6
CONTINUOUS
 62
    7
 10
2026.2417
 20
1248.8023000000001
 11
2020.0862000000002
 21
1262.4811
  0
LINE
  8
_0-1_LAYER003
  6
CONTINUOUS
 62
    7
 10
2020.0862000000002
 20
1262.4811
 11
1998.8841000000002
 21
1236.4914000000001
  0
LINE
  8
_0-1_LAYER003
  6
CONTINUOUS
 62
    7
 10
1998.8841000000002
 20
1236.4914000000001
 11
2026.2417
 21
1248.8023000000001
  0
LINE
  8
_0-1_LAYER003
  6
CONTINUOUS
 62
    7
 10
1998.8841000000002
 20
1236.4914000000001
 11
1992.7285999999999
 21
1250.1702
  0
LINE
  8
_0-1_LAYER003
  6
CONTINUOUS
 62
    7
 10
2012.2084
 20
1245.2374
 11
2012.2084
 21
1237.7374
  0
LINE
  8
_0-1_LAYER003
  6
CONTINUOUS
 62
    7
 10
2012.2084
 20
1245.2374
 11
2015.9584
 21
1238.7421999999999
  0
LINE
  8
_0-1_LAYER003
  6
CONTINUOUS
 62
    7
 10
2012.2084
 20
1245.2374
 11
2103.4701
 21
904.64419999999996
  0
LINE
  8
_0-1_LAYER003
  6
CONTINUOUS
 62
    7
 10
1390.8530000000001
 20
1024.8924
 11
1390.8530000000001
 21
1017.3924
  0
LINE
  8
_0-1_LAYER003
  6
CONTINUOUS
 62
    7
 10
1390.8530000000001
 20
1017.3924
 11
1394.6030000000001
 21
1023.8876
  0
LINE
  8
_0-1_LAYER003
  6
CONTINUOUS
 62
    7
 10
1390.8530000000001
 20
1017.3924
 11
1489.268
 21
1384.6824999999999
  0
LINE
  8
_0-1_LAYER003
  6
CONTINUOUS
 62
    7
 10
1397.8406
 20
1190.7362000000001
 11
1415.472965685794
 21
1239.3364837742672
  0
LINE
  8
_0-1_LAYER003
  6
CONTINUOUS
 62
    7
 10
1414.8932
 20
1237.7384
 11
1203.3831328815384
 21
1314.474888070479
  0
LINE
  8
_0-1_LAYER003
  6
CONTINUOUS
 62
    7
 10
1186.3306
 20
1267.4726000000001
 11
1214.4673
 21
1345.0263
  0
LINE
  8
_0-1_LAYER003
  6
CONTINUOUS
 62
    7
 10
1213.6146000000001
 20
1342.6762000000003
 11
1002.1045999999999
 21
1419.4127000000001
  0
LINE
  8
_0-1_LAYER003
  6
CONTINUOUS
 62
    7
 10
985.05199999999991
 20
1372.4104
 11
1012.915865685794
 21
1449.2120837742673
  0
LINE
  8
_0-1_LAYER003
  6
CONTINUOUS
 62
    7
 10
1012.336077805257
 20
1447.6140080523194
 11
800.82600000000002
 21
1524.3505
  0
LINE
  8
_0-1_LAYER003
  6
CONTINUOUS
 62
    7
 10
783.77350000000001
 20
1477.3481999999999
 11
801.40576752085951
 21
1525.948583108526
  0
LINE
  8
_0-1_LAYER003
  6
CONTINUOUS
 62
    7
 10
660.33950000000004
 20
1341.0581
 11
666.50649999999996
 21
1354.7317
  0
LINE
  8
_0-1_LAYER003
  6
CONTINUOUS
 62
    7
 10
666.50649999999996
 20
1354.7317
 11
693.85380000000009
 21
1342.3977
  0
LINE
  8
_0-1_LAYER003
  6
CONTINUOUS
 62
    7
 10
693.85380000000009
 20
1342.3977
 11
687.68669999999997
 21
1328.7240999999999
  0
LINE
  8
_0-1_LAYER003
  6
CONTINUOUS
 62
    7
 10
687.68669999999997
 20
1328.7240999999999
 11
660.33950000000004
 21
1341.0581
  0
LINE
  8
_0-1_LAYER003
  6
CONTINUOUS
 62
    7
 10
666.50649999999996
 20
1354.7317
 11
687.68669999999997
 21
1328.7240999999999
  0
LINE
  8
_0-1_LAYER003
  6
CONTINUOUS
 62
    7
 10
872.25209999999993
 20
1262.1184000000001
 11
866.09660000000008
 21
1248.4395999999999
  0
LINE
  8
_0-1_LAYER003
  6
CONTINUOUS
 62
    7
 10
866.09660000000008
 20
1248.4395999999999
 11
893.4541999999999
 21
1236.1286
  0
LINE
  8
_0-1_LAYER003
  6
CONTINUOUS
 62
    7
 10
893.4541999999999
 20
1236.1286
 11
899.60969999999998
 21
1249.8073999999999
  0
LINE
  8
_0-1_LAYER003
  6
CONTINUOUS
 62
    7
 10
899.60969999999998
 20
1249.8073999999999
 11
872.25209999999993
 21
1262.1184000000001
  0
LINE
  8
_0-1_LAYER003
  6
CONTINUOUS
 62
    7
 10
872.25209999999993
 20
1262.1184000000001
 11
893.4541999999999
 21
1236.1286
  0
LINE
  8
_0-1_LAYER003
  6
CONTINUOUS
 62
    7
 10
1078.0196000000001
 20
1169.5228999999999
 11
1071.8641
 21
1155.8441
  0
LINE
  8
_0-1_LAYER003
  6
CONTINUOUS
 62
    7
 10
1071.8641
 20
1155.8441
 11
1099.2217000000001
 21
1143.5331000000001
  0
LINE
  8
_0-1_LAYER003
  6
CONTINUOUS
 62
    7
 10
1099.2217000000001
 20
1143.5331000000001
 11
1105.3771999999999
 21
1157.2119
  0
LINE
  8
_0-1_LAYER003
  6
CONTINUOUS
 62
    7
 10
1105.3771999999999
 20
1157.2119
 11
1078.0196000000001
 21
1169.5228999999999
  0
LINE
  8
_0-1_LAYER003
  6
CONTINUOUS
 62
    7
 10
1078.0196000000001
 20
1169.5228999999999
 11
1099.2217000000001
 21
1143.5331000000001
  0
LINE
  8
_0-1_LAYER003
  6
CONTINUOUS
 62
    7
 10
1231.5165
 20
1111.6739
 11
1273.3025
 21
1094.8739
  0
LINE
  8
_0-1_LAYER003
  6
CONTINUOUS
 62
    7
 10
1273.3025
 20
1094.8739
 11
1261.9123999999999
 21
1069.5626
  0
LINE
  8
_0-1_LAYER003
  6
CONTINUOUS
 62
    7
 10
1261.9123999999999
 20
1069.5626
 11
1220.8755000000001
 21
1088.0289
  0
LINE
  8
_0-1_LAYER003
  6
CONTINUOUS
 62
    7
 10
1231.5165
 20
1111.6739
 11
1220.8770157444233
 21
1088.0290978993758
  0
LINE
  8
_0-1_LAYER003
  6
CONTINUOUS
 62
    7
 10
1220.8770157444233
 20
1088.0290978993758
 11
1273.3025
 21
1094.8739
  0
LINE
  8
_0-1_LAYER003
  6
CONTINUOUS
 62
    7
 10
1255.1005
 20
1103.2689
 11
1275.5165
 21
1095.0608999999999
  0
LINE
  8
_0-1_LAYER003
  6
CONTINUOUS
 62
    7
 10
1275.5165
 20
1095.0608999999999
 11
1265.425
 21
1072.6347000000001
  0
LINE
  8
_0-1_LAYER003
  6
CONTINUOUS
 62
    7
 10
1740.0423999999998
 20
1059.2900999999999
 11
1762.3690999999999
 21
1009.6750999999999
  0
LINE
  8
_0-1_LAYER003
  6
CONTINUOUS
 62
    7
 10
1762.3690999999999
 20
1009.6750999999999
 11
1747.7285000000002
 21
1009.326
  0
LINE
  8
_0-1_LAYER003
  6
CONTINUOUS
 62
    7
 10
1762.3690999999999
 20
1009.6750999999999
 11
1752.3980999999999
 21
998.94910000000004
  0
LINE
  8
_0-1_LAYER003
  6
CONTINUOUS
 62
    7
 10
1762.3690999999999
 20
1009.6750999999999
 11
1535.694
 21
907.67139999999995
  0
LINE
  8
_0-1_LAYER003
  6
CONTINUOUS
 62
    7
 10
1559.4872
 20
1009.0978
 11
1568.6423
 21
1013.1207999999999
  0
LINE
  8
_0-1_LAYER003
  6
CONTINUOUS
 62
    7
 10
1568.6423
 20
1013.1207999999999
 11
1595.4468999999999
 21
952.12210000000005
  0
LINE
  8
_0-1_LAYER003
  6
CONTINUOUS
 62
    7
 10
1595.4468999999999
 20
952.12210000000005
 11
1613.7305999999999
 21
960.15650000000005
  0
LINE
  8
_0-1_LAYER003
  6
CONTINUOUS
 62
    7
 10
1613.7305999999999
 20
960.15650000000005
 11
1617.7536
 21
951.0014000000001
  0
LINE
  8
_0-1_LAYER003
  6
CONTINUOUS
 62
    7
 10
1617.7536
 20
951.0014000000001
 11
1590.3148999999999
 21
938.94399999999996
  0
LINE
  8
_0-1_LAYER003
  6
CONTINUOUS
 62
    7
 10
1590.3148999999999
 20
938.94399999999996
 11
1559.4872
 21
1009.0978
  0
LINE
  8
_0-1_LAYER003
  6
CONTINUOUS
 62
    7
 10
1695.3207000000002
 20
925.72980000000007
 11
1744.0145131390714
 21
817.52073037564583
  0
LINE
  8
_0-1_LAYER003
  6
CONTINUOUS
 62
    7
 10
1728.733692491136
 20
851.47829662101617
 11
1660.3395999999998
 21
820.70100000000002
  0
LINE
  8
_0-1_LAYER003
  6
CONTINUOUS
 62
    7
 10
1661.0372123323955
 20
819.15073001264648
 11
1639.8213999999998
 21
866.2971
  0
LINE
  8
_0-1_LAYER003
  6
CONTINUOUS
 62
    7
 10
1743.3168999999998
 20
819.07099999999991
 11
1560.9324999999999
 21
736.99829999999997
  0
LINE
  8
_0-1_LAYER003
  6
CONTINUOUS
 62
    7
 10
1561.9584
 20
734.71849999999995
 11
1512.9362999999998
 21
843.6570999999999
  0
LINE
  8
_0-1_LAYER003
  6
CONTINUOUS
 62
    7
 10
1376.1043
 20
835.95000000000005
 11
1326.0362
 21
724.6869999999999
  0
LINE
  8
_0-1_LAYER003
  6
CONTINUOUS
 62
    7
 10
1326.0362
 20
724.6869999999999
 11
1325.3385043503476
 21
723.13676750761169
  0
LINE
  8
_0-1_LAYER003
  6
CONTINUOUS
 62
    7
 10
1326.0361224842218
 20
724.68703488194296
 11
1143.6516039746587
 21
806.75969821141166
  0
LINE
  8
_0-1_LAYER003
  6
CONTINUOUS
 62
    7
 10
1142.9539869753332
 20
805.20943032416449
 11
1193.7197000000001
 21
918.02269999999999
  0
LINE
  8
_0-1_LAYER003
  6
CONTINUOUS
 62
    7
 10
1163.5582999999999
 20
850.99710000000005
 11
1231.9525000000001
 21
820.21990000000005
  0
LINE
  8
_0-1_LAYER003
  6
CONTINUOUS
 62
    7
 10
1231.254886400412
 20
818.66963058287615
 11
1252.4706000000001
 21
865.81600000000003
  0
LINE
  8
_0-1_LAYER003
  6
CONTINUOUS
 62
    7
 10
1323.8665000000001
 20
1013.1207999999999
 11
1333.0216
 21
1009.0978
  0
LINE
  8
_0-1_LAYER003
  6
CONTINUOUS
 62
    7
 10
1333.0216
 20
1009.0978
 11
1302.1939
 21
938.94399999999996
  0
LINE
  8
_0-1_LAYER003
  6
CONTINUOUS
 62
    7
 10
1302.1939
 20
938.94399999999996
 11
1274.7551000000001
 21
951.0014000000001
  0
LINE
  8
_0-1_LAYER003
  6
CONTINUOUS
 62
    7
 10
1274.7551000000001
 20
951.0014000000001
 11
1278.7782
 21
960.15650000000005
  0
LINE
  8
_0-1_LAYER003
  6
CONTINUOUS
 62
    7
 10
1278.7782
 20
960.15650000000005
 11
1297.0617999999999
 21
952.12210000000005
  0
LINE
  8
_0-1_LAYER003
  6
CONTINUOUS
 62
    7
 10
1297.0617999999999
 20
952.12210000000005
 11
1323.8665000000001
 21
1013.1207999999999
  0
LINE
  8
_0-1_LAYER003
  6
CONTINUOUS
 62
    7
 10
1357.3761999999999
 20
911.9079999999999
 11
1131.8196
 21
1013.4084
  0
LINE
  8
_0-1_LAYER003
  6
CONTINUOUS
 62
    7
 10
1131.8196
 20
1013.4084
 11
1146.4602
 21
1013.0592999999999
  0
LINE
  8
_0-1_LAYER003
  6
CONTINUOUS
 62
    7
 10
1131.8196
 20
1013.4084
 11
1141.7906
 21
1002.6822999999999
  0
LINE
  8
_0-1_LAYER003
  6
CONTINUOUS
 62
    7
 10
1131.8196
 20
1013.4084
 11
1153.9469999999999
 21
1062.5803000000001
  0
LINE
  8
_0-1_LAYER003
  6
CONTINUOUS
 62
    7
 10
1130.6978999999999
 20
1079.2318
 11
1032.3833999999999
 21
980.91730000000007
  0
LINE
  8
_0-1_LAYER003
  6
CONTINUOUS
 62
    7
 10
1024.5814
 20
984.42830000000004
 11
1122.8950925959252
 21
1082.7430925958427
  0
LINE
  8
_0-1_LAYER003
  6
CONTINUOUS
 62
    7
 10
1115.0930959948141
 20
1086.253995994814
 11
1016.7783999999999
 21
987.9393
  0
LINE
  8
_0-1_LAYER003
  6
CONTINUOUS
 62
    7
 10
653.31153299447146
 20
1151.4994329944714
 11
751.6262999999999
 21
1249.8142
  0
LINE
  8
_0-1_LAYER003
  6
CONTINUOUS
 62
    7
 10
759.42830000000004
 20
1246.3033
 11
661.11439999999993
 21
1147.9883
  0
LINE
  8
_0-1_LAYER003
  6
CONTINUOUS
 62
    7
 10
758.19389999999999
 20
1203.8441
 11
761.05044232616592
 21
1198.8964213685585
  0
LINE
  8
_0-1_LAYER003
  6
CONTINUOUS
 62
    7
 10
763.49720000000002
 20
1198.5408
 11
758.19389999999999
 21
1203.8441
  0
LINE
  8
_0-1_LAYER003
  6
CONTINUOUS
 62
    7
 10
758.19389999999999
 20
1203.8441
 11
760.13509999999997
 21
1196.5997
  0
LINE
  8
_0-1_LAYER003
  6
CONTINUOUS
 62
    7
 10
758.19389999999999
 20
1203.8441
 11
779.73199999999997
 21
1166.539
  0
LINE
  8
_0-1_LAYER003
  6
CONTINUOUS
 62
    7
 10
779.73199999999997
 20
1166.539
 11
839.73199999999997
 21
1166.539
  0
LINE
  8
_0-1_LAYER003
  6
CONTINUOUS
 62
    7
 10
776.69239999999991
 20
1259.3494000000001
 11
785.84740000000011
 21
1255.3263999999999
  0
LINE
  8
_0-1_LAYER003
  6
CONTINUOUS
 62
    7
 10
785.84740000000011
 20
1255.3263999999999
 11
755.01980000000003
 21
1185.1726000000001
  0
LINE
  8
_0-1_LAYER003
  6
CONTINUOUS
 62
    7
 10
755.01980000000003
 20
1185.1726000000001
 11
727.5809999999999
 21
1197.2301
  0
LINE
  8
_0-1_LAYER003
  6
CONTINUOUS
 62
    7
 10
727.5809999999999
 20
1197.2301
 11
731.60410000000002
 21
1206.3851
  0
LINE
  8
_0-1_LAYER003
  6
CONTINUOUS
 62
    7
 10
731.60410000000002
 20
1206.3851
 11
749.8877
 21
1198.3507
  0
LINE
  8
_0-1_LAYER003
  6
CONTINUOUS
 62
    7
 10
749.8877
 20
1198.3507
 11
776.69239999999991
 21
1259.3494000000001
  0
LINE
  8
_0-1_LAYER003
  6
CONTINUOUS
 62
    7
 10
743.82359999999994
 20
1253.3254999999999
 11
645.50939999999991
 21
1155.0112999999999
  0
LINE
  8
_0-1_LAYER003
  6
CONTINUOUS
 62
    7
 10
1489.268
 20
1384.6824999999999
 11
1723.268
 21
1384.6824999999999
  0
LINE
  8
_0-1_LAYER003
  6
CONTINUOUS
 62
    7
 10
1702.6695
 20
1327.5971999999999
 11
1833.1695
 21
1327.5971999999999
  0
LINE
  8
_0-1_LAYER003
  6
CONTINUOUS
 62
    7
 10
1941.9000000000001
 20
1396.5585000000001
 11
1982.4000000000001
 21
1396.5585000000001
  0
LINE
  8
_0-1_LAYER003
  6
CONTINUOUS
 62
    7
 10
2198.4845
 20
1342.7604999999999
 11
2225.8317999999999
 21
1355.0944999999999
  0
LINE
  8
_0-1_LAYER003
  6
CONTINUOUS
 62
    7
 10
2225.8317999999999
 20
1355.0944999999999
 11
2231.9987999999998
 21
1341.4208000000003
  0
LINE
  8
_0-1_LAYER003
  6
CONTINUOUS
 62
    7
 10
2231.9987999999998
 20
1341.4208000000003
 11
2204.6516000000001
 21
1329.0868
  0
LINE
  8
_0-1_LAYER003
  6
CONTINUOUS
 62
    7
 10
2204.6516000000001
 20
1329.0868
 11
2198.4845
 21
1342.7604999999999
  0
LINE
  8
_0-1_LAYER003
  6
CONTINUOUS
 62
    7
 10
2204.6516000000001
 20
1329.0868
 11
2225.8317999999999
 21
1355.0944999999999
  0
LINE
  8
_0-1_LAYER003
  6
CONTINUOUS
 62
    7
 10
2106.6613000000002
 20
1255.3263999999999
 11
2115.8164000000002
 21
1259.3494000000001
  0
LINE
  8
_0-1_LAYER003
  6
CONTINUOUS
 62
    7
 10
2115.8164000000002
 20
1259.3494000000001
 11
2142.6210000000001
 21
1198.3507
  0
LINE
  8
_0-1_LAYER003
  6
CONTINUOUS
 62
    7
 10
2142.6210000000001
 20
1198.3507
 11
2160.9047
 21
1206.3851
  0
LINE
  8
_0-1_LAYER003
  6
CONTINUOUS
 62
    7
 10
2160.9047
 20
1206.3851
 11
2164.9277000000002
 21
1197.2301
  0
LINE
  8
_0-1_LAYER003
  6
CONTINUOUS
 62
    7
 10
2164.9277000000002
 20
1197.2301
 11
2137.489
 21
1185.1726000000001
  0
LINE
  8
_0-1_LAYER003
  6
CONTINUOUS
 62
    7
 10
2137.489
 20
1185.1726000000001
 11
2106.6613000000002
 21
1255.3263999999999
  0
LINE
  8
_0-1_LAYER003
  6
CONTINUOUS
 62
    7
 10
2087.7919999999999
 20
964.8134
 11
2292.6147000000001
 21
964.8134
  0
LINE
  8
_0-1_LAYER003
  6
CONTINUOUS
 62
    7
 10
2094.701
 20
934.94689999999991
 11
2431.9378999999999
 21
934.94689999999991
  0
LINE
  8
_0-1_LAYER003
  6
CONTINUOUS
 62
    7
 10
2103.4701
 20
904.64419999999996
 11
2350.2440999999999
 21
904.64419999999996
  0
LINE
  8
_0-1_LAYER003
  6
CONTINUOUS
 62
    7
 10
966.44080000000008
 20
1063.0115000000001
 11
1026.4408000000001
 21
1063.0115000000001
  0
LINE
  8
_0-1_LAYER003
  6
CONTINUOUS
 62
    7
 10
1026.4408000000001
 20
1063.0115000000001
 11
1062.1394
 21
1124.8433
  0
LINE
  8
_0-1_LAYER003
  6
CONTINUOUS
 62
    7
 10
1062.1394
 20
1124.8433
 11
1056.8361
 21
1119.54
  0
LINE
  8
_0-1_LAYER003
  6
CONTINUOUS
 62
    7
 10
1062.1394
 20
1124.8433
 11
1060.1983
 21
1117.5989
  0
LINE
  8
_0-1_LAYER003
  6
CONTINUOUS
 62
    7
 10
1446.2543999999998
 20
794.67530000000011
 11
1446.2543999999998
 21
991.55030000000011
  0
LINE
  8
_0-4_LAYER006
  6
CONTINUOUS
 62
    2
 10
2133.0805
 20
1246.3033
 11
2231.3943999999997
 21
1147.9883
  0
LINE
  8
_0-4_LAYER006
  6
CONTINUOUS
 62
    2
 10
2148.6851999999999
 20
1253.3254999999999
 11
2246.9993999999997
 21
1155.0112999999999
  0
LINE
  8
_0-4_LAYER006
  6
CONTINUOUS
 62
    2
 10
2140.8824999999997
 20
1249.8142
 11
2239.1973999999996
 21
1151.4992999999999
  0
LINE
  8
_0-4_LAYER006
  6
CONTINUOUS
 62
    2
 10
1777.4156999999996
 20
1086.2539999999999
 11
1875.7303999999999
 21
987.93929999999989
  0
LINE
  8
_0-4_LAYER006
  6
CONTINUOUS
 62
    2
 10
1769.6136999999999
 20
1082.7430999999999
 11
1867.9273999999998
 21
984.42830000000004
  0
LINE
  8
_0-4_LAYER006
  6
CONTINUOUS
 62
    2
 10
1761.8108999999999
 20
1079.2318
 11
1860.1253999999997
 21
980.91730000000007
  0
LINE
  8
_0-1_LAYER003
  6
CONTINUOUS
 62
    7
 10
1777.4157223837228
 20
1086.2539776162766
 11
1875.7303999999999
 21
987.93929999999989
  0
LINE
  8
_0-1_LAYER003
  6
CONTINUOUS
 62
    7
 10
1867.9273999999998
 20
984.42830000000004
 11
1769.613725349484
 21
1082.7430746502321
  0
LINE
  8
_0-1_LAYER003
  6
CONTINUOUS
 62
    7
 10
1761.8109007297437
 20
1079.231799270256
 11
1860.1253999999997
 21
980.91730000000007
  0
LINE
  8
_0-1_LAYER003
  6
CONTINUOUS
 62
    7
 10
2231.3943999999997
 20
1147.9883
 11
2133.0805
 21
1246.3033
  0
LINE
  8
_0-1_LAYER003
  6
CONTINUOUS
 62
    7
 10
2140.8824999999997
 20
1249.8142
 11
2239.1973999999996
 21
1151.4992999999999
  0
LINE
  8
_0-1_LAYER003
  6
CONTINUOUS
 62
    7
 10
2148.685236416728
 20
1253.3254635832716
 11
2246.9993999999997
 21
1155.0112999999999
  0
TEXT
  8
_0-2_LAYER004
 62
    7
 10
1490.7705425581207
 20
1395.0084823858738
 40
20
 41
1
 50
0
  1
谷樋水切カラー鋼板0.35ｍｍ以上
  0
TEXT
  8
_0-2_LAYER004
 62
    7
 10
1708.8910443442544
 20
1330.34825458366
 40
20
 41
1
 50
0
  1
桟木：40x30
  0
TEXT
  8
_0-2_LAYER004
 62
    7
 10
1939.9435916908305
 20
1400.1813006100508
 40
20
 41
1
 50
0
  1
桟　瓦
  0
TEXT
  8
_0-2_LAYER004
 62
    7
 10
1318.7165992530092
 20
896.83043598463212
 40
20
 41
1
 50
0
  1
この範囲ルーフィング２枚貼り
  0
TEXT
  8
_0-2_LAYER004
 62
    7
 10
1188.1382541714415
 20
845.7345618222796
 40
20
 41
1
 50
-24.227662000000034
  1
75
  0
TEXT
  8
_0-2_LAYER004
 62
    7
 10
1680.1725979570588
 20
838.16480268711621
 40
20
 41
1
 50
24.227662000000034
  1
75
  0
TEXT
  8
_0-2_LAYER004
 62
    7
 10
1598.7976872540528
 20
765.30587101116907
 40
20
 41
1
 50
24.227661999999977
  1
200
  0
TEXT
  8
_0-2_LAYER004
 62
    7
 10
1159.7516574145791
 20
652.70570387561429
 40
20
 41
1
 50
0
  1
谷部分の下葺き材（アスファルトルーフィング）は、２枚重ねとする。
  0
TEXT
  8
_0-2_LAYER004
 62
    7
 10
1157.8592176307882
 20
616.74934798358845
 40
20
 41
1
 50
0
  1
谷巾については、現場状況で調整
  0
TEXT
  8
_0-2_LAYER004
 62
    7
 10
2089.8033706630449
 20
970.32059107350835
 40
20
 41
1
 50
0
  1
瓦桟：15x30以上
  0
TEXT
  8
_0-2_LAYER004
 62
    7
 10
2094.700581546977
 20
938.97844141634312
 40
20
 41
1
 50
0
  1
下葺材：ルーフィング
  0
TEXT
  8
_0-2_LAYER004
 62
    7
 10
2104.4950033148411
 20
906.65684958239137
 40
20
 41
1
 50
0
  1
パーライト系モルタルｔ＝40
  0
LINE
  8
_0-2_LAYER004
  6
CONTINUOUS
 62
    7
 10
1723.268
 20
1384.6824999999999
 11
1823.6651138456432
 21
1384.6824999999999
  0
LINE
  8
_0-2_LAYER004
  6
CONTINUOUS
 62
    7
 10
1982.4000000000001
 20
1396.5585000000001
 11
2007.1939823842845
 21
1396.5585000000001
  0
LINE
  8
_0-2_LAYER004
  6
CONTINUOUS
 62
    7
 10
2350.2440999999999
 20
904.64419999999996
 11
2388.1906208695655
 21
904.64419999999996
  0
LINE
  8
_0-2_LAYER004
  6
CONTINUOUS
 62
    7
 10
966.44080000000008
 20
1063.0115000000001
 11
933.89857396843286
 21
1063.0115000000001
  0
LINE
  8
_0-2_LAYER004
  6
CONTINUOUS
 62
    7
 10
839.73199999999997
 20
1166.539
 11
873.49666786710782
 21
1166.539
  0
TEXT
  8
_0-2_LAYER004
 62
    7
 10
1307.7989807088302
 20
1289.6829753999286
 40
20
 41
1
 50
-19.940899999999996
  1
225
  0
TEXT
  8
_0-2_LAYER004
 62
    7
 10
1103.1278183971099
 20
1394.8877784573551
 40
20
 41
1
 50
-19.940900000000045
  1
225
  0
TEXT
  8
_0-2_LAYER004
 62
    7
 10
909.93354369165434
 20
1494.3541377116489
 40
20
 41
1
 50
-19.940900000000045
  1
225
  0
TEXT
  8
_0-2_LAYER004
 62
    7
 10
781.77496542169865
 20
1174.9140993372819
 40
20
 41
1
 50
0
  1
アンカー
  0
TEXT
  8
_0-2_LAYER004
 62
    7
 10
934.80013350522768
 20
1067.7964816788115
 40
20
 41
1
 50
0
  1
溶接金網
  0
TEXT
  8
_0-2_LAYER004
 62
    7
 10
1221.7223236618449
 20
777.04866232010613
 40
20
 41
1
 50
-24.227661999999977
  1
200
  0
ENDSEC
  0
EOF
