  0
SECTION
  2
HEADER
  9
$ACADVER
  1
AC1009
  9
$INSBASE
 10
0
 20
0
 30
0
  9
$EXTMIN
 10
0
 20
0
  9
$EXTMAX
 10
2970
 20
2100
  9
$LIMMIN
 10
0
 20
0
  9
$LIMMAX
 10
2970
 20
2100
  9
$LTSCALE
 40
10
  0
ENDSEC
  0
SECTION
  2
TABLES
  0
TABLE
  2
LTYPE
 70
     9
  0
LTYPE
  2
CONTINUOUS
 70
    64
  3
実線
 72
    65
 73
     0
 40
0.0
  0
LTYPE
  2
DASHED1
 70
    64
  3
--  --  --  --  --  --  --  --  
 72
    65
 73
     2
 40
2.5
 49
1.25
 49
-1.25
  0
LTYPE
  2
DASHED2
 70
    64
  3
----    ----    ----    ----    
 72
    65
 73
     2
 40
5.0
 49
2.5
 49
-2.5
  0
LTYPE
  2
DASHED3
 70
    64
  3
------  ------  ------  ------  
 72
    65
 73
     2
 40
5.0
 49
3.75
 49
-1.25
  0
LTYPE
  2
CENTER1
 70
    64
  3
----- - ----- - ----- - ----- - 
 72
    65
 73
     4
 40
10.0
 49
6.25
 49
-1.25
 49
1.25
 49
-1.25
  0
LTYPE
  2
CENTER2
 70
    64
  3
----------  --  ----------  --  
 72
    65
 73
     4
 40
20.0
 49
12.5
 49
-2.5
 49
2.5
 49
-2.5
  0
LTYPE
  2
PHANTOM1
 70
    64
  3
--- - - --- - - --- - - --- - - 
 72
    65
 73
     6
 40
10.0
 49
3.25
 49
-1.25
 49
1.25
 49
-1.25
 49
1.25
 49
-1.25
  0
LTYPE
  2
PHANTOM2
 70
    64
  3
--------  -  -  --------  -  -  
 72
    65
 73
     6
 40
20.0
 49
10.0
 49
-2.5
 49
1.25
 49
-2.5
 49
1.25
 49
-2.5
  0
LTYPE
  2
DOT
 70
    64
  3
-   -   -   -   -   -   -   -   
 72
    65
 73
     2
 40
2.5
 49
0.625
 49
-1.875
  0
LTYPE
  2
DUMMY
 70
    64
  3
ダミー
 72
    65
 73
     0
 40
0.0
  0
LTYPE
  2
RAND1
 70
    64
  3
ランダム線1
 72
    65
 73
     4
 40
10.0
 49
1.0
 49
-2.0
 49
3.0
 49
-4.0
  0
LTYPE
  2
RAND2
 70
    64
  3
ランダム線2
 72
    65
 73
     4
 40
14.0
 49
2.0
 49
-3.0
 49
4.0
 49
-5.0
  0
LTYPE
  2
RAND3
 70
    64
  3
ランダム線3
 72
    65
 73
     4
 40
18.0
 49
3.0
 49
-4.0
 49
5.0
 49
-6.0
  0
LTYPE
  2
RAND4
 70
    64
  3
ランダム線4
 72
    65
 73
     4
 40
22.0
 49
4.0
 49
-5.0
 49
6.0
 49
-7.0
  0
LTYPE
  2
RAND5
 70
    64
  3
ランダム線5
 72
    65
 73
     4
 40
26.0
 49
5.0
 49
-6.0
 49
7.0
 49
-8.0
  0
LTYPE
  2
LONG1
 70
    64
  3
----------  --  ----------  --  
 72
    65
 73
     4
 40
40.0
 49
32.5
 49
-2.5
 49
2.5
 49
-2.5
  0
LTYPE
  2
LONG2
 70
    64
  3
--------  -  -  --------  -  -  
 72
    65
 73
     6
 40
40.0
 49
30.0
 49
-2.5
 49
1.25
 49
-2.5
 49
1.25
 49
-2.5
  0
LTYPE
  2
LONG3
 70
    64
  3
+++++++++++++++..+++++++++++++++
 72
    65
 73
     2
 40
40.0
 49
37.5
 49
-2.5
  0
LTYPE
  2
LONG4
 70
    64
  3
+++++++++++++++..+++++++++++++++
 72
    65
 73
     2
 40
80.0
 49
75.0
 49
-5.0
  0
LTYPE
  2
LONG5
 70
    64
  3
----------  --  ----------  --  
 72
    65
 73
     4
 40
60.0
 49
37.5
 49
-7.5
 49
7.5
 49
-7.5
  0
LTYPE
  2
dashed
 70
   64
  3
-------   -------------   ------
 72
   65
 73
    2
 40
7.5
 49
6
 49
-1.5
  0
LTYPE
  2
dashed_spaced
 70
   64
  3
----        --------        ----
 72
   65
 73
    2
 40
12
 49
6
 49
-6
  0
LTYPE
  2
long_dashed_dotted
 70
   64
  3
------------- --- --------------
 72
   65
 73
    4
 40
15.25
 49
12
 49
-1.5
 49
0.25
 49
-1.5
  0
LTYPE
  2
long_dashed_double-dotted
 70
   64
  3
----------- --- --- ------------
 72
   65
 73
    6
 40
17
 49
12
 49
-1.5
 49
0.25
 49
-1.5
 49
0.25
 49
-1.5
  0
LTYPE
  2
long_dashed_triplicate-dotted
 70
   64
  3
--------- --- --- --- ----------
 72
   65
 73
    8
 40
18.75
 49
12
 49
-1.5
 49
0.25
 49
-1.5
 49
0.25
 49
-1.5
 49
0.25
 49
-1.5
  0
LTYPE
  2
dotted
 70
   64
  3
   -       -       -       -    
 72
   65
 73
    2
 40
1.75
 49
0.25
 49
-1.5
  0
LTYPE
  2
chain
 70
   64
  3
-------------- -- --------------
 72
   65
 73
    4
 40
18.5
 49
12
 49
-1.5
 49
3.5
 49
-1.5
  0
LTYPE
  2
chain_double_dash
 70
   64
  3
------------ -- -- -------------
 72
   65
 73
    6
 40
23.5
 49
12
 49
-1.5
 49
3.5
 49
-1.5
 49
3.5
 49
-1.5
  0
LTYPE
  2
dashed_dotted
 70
   64
  3
-----------     -     ----------
 72
   65
 73
    4
 40
9.25
 49
6
 49
-1.5
 49
0.25
 49
-1.5
  0
LTYPE
  2
double-dashed_dotted
 70
   64
  3
------   -----------   -   -----
 72
   65
 73
    6
 40
16.75
 49
6
 49
-1.5
 49
6
 49
-1.5
 49
0.25
 49
-1.5
  0
LTYPE
  2
dashed_double-dotted
 70
   64
  3
---------    -    -    ---------
 72
   65
 73
    6
 40
11
 49
6
 49
-1.5
 49
0.25
 49
-1.5
 49
0.25
 49
-1.5
  0
LTYPE
  2
double-dashed_double-dotted
 70
   64
  3
-----   ---------   -   -   ----
 72
   65
 73
    8
 40
18.5
 49
6
 49
-1.5
 49
6
 49
-1.5
 49
0.25
 49
-1.5
 49
0.25
 49
-1.5
  0
LTYPE
  2
dashed_triplicate-dotted
 70
   64
  3
-------    -    -    -    ------
 72
   65
 73
    8
 40
12.75
 49
6
 49
-1.5
 49
0.25
 49
-1.5
 49
0.25
 49
-1.5
 49
0.25
 49
-1.5
  0
LTYPE
  2
double-dashed_triplicate-dotted
 70
   64
  3
-----  ---------  -  -  -  -----
 72
   65
 73
   10
 40
20.25
 49
6
 49
-1.5
 49
6
 49
-1.5
 49
0.25
 49
-1.5
 49
0.25
 49
-1.5
 49
0.25
 49
-1.5
  0
LTYPE
  2
undefined
 70
   64
  3
--------------------------------
 72
   65
 73
    0
 40
0
  0
ENDTAB
  0
TABLE
  2
STYLE
  5
3
100
AcDbSymbolTable
 70
     1
  0
STYLE
  5
10
100
AcDbSymbolTableRecord
100
AcDbTextStyleTableRecord
  2
STANDARD
 70
     0
 40
0.0
 41
1.0
 50
0.0
 71
     0
 42
0.2
  3
txt
  4
bigfont.shx
  0
STYLE
  5
26
100
AcDbSymbolTableRecord
100
AcDbTextStyleTableRecord
  2
TATEGAKI
 70
    68
 40
0.0
 41
1.0
 50
0.0
 71
     0
 42
1.0
  3
txt
  4
bigfont.shx
  0
ENDTAB
  0
TABLE
  2
LAYER
 70
    6
  0
LAYER
  2
_0-0_LAYER001
 70
   64
 62
    7
  6
CONTINUOUS
  0
LAYER
  2
_0-1_LAYER003
 70
   64
 62
    7
  6
CONTINUOUS
  0
LAYER
  2
_0-2_LAYER004
 70
   64
 62
    7
  6
CONTINUOUS
  0
LAYER
  2
_0-3_LAYER005
 70
   64
 62
    7
  6
CONTINUOUS
  0
LAYER
  2
_0-4_LAYER006
 70
   64
 62
    7
  6
CONTINUOUS
  0
LAYER
  2
ADD_LINE
 70
   64
 62
    7
  6
CONTINUOUS
  0
ENDTAB
  0
ENDSEC
  0
SECTION
  2
BLOCKS
  0
ENDSEC
  0
SECTION
  2
ENTITIES
  0
LINE
  8
_0-0_LAYER001
  6
CONTINUOUS
 62
    2
 10
1774.2170999999998
 20
946.0181
 11
1774.2170999999998
 21
767.86830000000009
  0
LINE
  8
_0-0_LAYER001
  6
CONTINUOUS
 62
    2
 10
1729.2352999999998
 20
1066.2280000000001
 11
1756.5929000000001
 21
1078.5389
  0
LINE
  8
_0-0_LAYER001
  6
CONTINUOUS
 62
    2
 10
1750.4373999999998
 20
1092.2176999999999
 11
1723.0798
 21
1079.9068
  0
LINE
  8
_0-0_LAYER001
  6
CONTINUOUS
 62
    2
 10
1756.5929000000001
 20
1078.5389
 11
1750.4373999999998
 21
1092.2176999999999
  0
LINE
  8
_0-0_LAYER001
  6
CONTINUOUS
 62
    2
 10
1723.0798
 20
1079.9068
 11
1729.2352999999998
 21
1066.2280000000001
  0
LINE
  8
_0-0_LAYER001
  6
CONTINUOUS
 62
    2
 10
1750.4373999999998
 20
1092.2176999999999
 11
1729.2352999999998
 21
1066.2280000000001
  0
LINE
  8
_0-0_LAYER001
  6
CONTINUOUS
 62
    2
 10
1523.5576999999998
 20
973.67290000000003
 11
1550.9049
 21
986.00690000000009
  0
LINE
  8
_0-0_LAYER001
  6
CONTINUOUS
 62
    2
 10
1544.7379000000001
 20
999.68059999999991
 11
1517.3906999999999
 21
987.34660000000008
  0
LINE
  8
_0-0_LAYER001
  6
CONTINUOUS
 62
    2
 10
1550.9049
 20
986.00690000000009
 11
1544.7379000000001
 21
999.68059999999991
  0
LINE
  8
_0-0_LAYER001
  6
CONTINUOUS
 62
    2
 10
1517.3906999999999
 20
987.34660000000008
 11
1523.5576999999998
 21
973.67290000000003
  0
LINE
  8
_0-0_LAYER001
  6
CONTINUOUS
 62
    2
 10
1544.7379000000001
 20
999.68059999999991
 11
1523.5576999999998
 21
973.67290000000003
  0
LINE
  8
_0-0_LAYER001
  6
CONTINUOUS
 62
    2
 10
1317.7902999999997
 20
881.0775000000001
 11
1345.1478999999999
 21
893.38840000000005
  0
LINE
  8
_0-0_LAYER001
  6
CONTINUOUS
 62
    2
 10
1338.9924000000001
 20
907.06719999999996
 11
1311.6347999999998
 21
894.75630000000001
  0
LINE
  8
_0-0_LAYER001
  6
CONTINUOUS
 62
    2
 10
1345.1478999999999
 20
893.38840000000005
 11
1338.9924000000001
 21
907.06719999999996
  0
LINE
  8
_0-0_LAYER001
  6
CONTINUOUS
 62
    2
 10
1311.6347999999998
 20
894.75630000000001
 11
1317.7902999999997
 21
881.0775000000001
  0
LINE
  8
_0-0_LAYER001
  6
CONTINUOUS
 62
    2
 10
1338.9924000000001
 20
907.06719999999996
 11
1317.7902999999997
 21
881.0775000000001
  0
LINE
  8
_0-0_LAYER001
  6
CONTINUOUS
 62
    2
 10
1112.0227
 20
788.48199999999997
 11
1139.3803
 21
800.79289999999992
  0
LINE
  8
_0-0_LAYER001
  6
CONTINUOUS
 62
    2
 10
1133.2248
 20
814.47170000000006
 11
1105.8671999999999
 21
802.16080000000011
  0
LINE
  8
_0-0_LAYER001
  6
CONTINUOUS
 62
    2
 10
1139.3803
 20
800.79289999999992
 11
1133.2248
 21
814.47170000000006
  0
LINE
  8
_0-0_LAYER001
  6
CONTINUOUS
 62
    2
 10
1105.8671999999999
 20
802.16080000000011
 11
1112.0227
 21
788.48199999999997
  0
LINE
  8
_0-0_LAYER001
  6
CONTINUOUS
 62
    2
 10
1133.2248
 20
814.47170000000006
 11
1112.0227
 21
788.48199999999997
  0
LINE
  8
_0-0_LAYER001
  6
CONTINUOUS
 62
    4
 10
1751.6423
 20
1093.5748000000001
 11
1755.7348999999999
 21
1082.2943
  0
LINE
  8
_0-0_LAYER001
  6
CONTINUOUS
 62
    4
 10
1486.3919999999998
 20
1015.4255000000001
 11
1754.3047999999999
 21
1112.625
  0
LINE
  8
_0-0_LAYER001
  6
CONTINUOUS
 62
    4
 10
1469.7383
 20
1061.3285000000001
 11
1737.6511
 21
1158.528
  0
ARC
  8
_0-0_LAYER001
  6
CONTINUOUS
 62
    4
 10
1284.0903000000001
 20
913.30780000000004
 40
10
 50
109.94091000000002
 51
199.94091
  0
ARC
  8
_0-0_LAYER001
  6
CONTINUOUS
 62
    4
 10
1489.8024999999998
 20
1006.0250000000001
 40
10
 50
109.94091000000002
 51
199.94091
  0
LINE
  8
_0-0_LAYER001
  6
CONTINUOUS
 62
    4
 10
1755.7348999999999
 20
1082.2943
 11
1764.1952999999999
 21
1085.3637000000001
  0
LINE
  8
_0-0_LAYER001
  6
CONTINUOUS
 62
    4
 10
1737.6511
 20
1158.528
 11
1764.1952999999999
 21
1085.3637000000001
  0
LINE
  8
_0-0_LAYER001
  6
CONTINUOUS
 62
    4
 10
1286.4776999999999
 20
906.72749999999996
 11
1545.9301
 21
1000.8576
  0
LINE
  8
_0-0_LAYER001
  6
CONTINUOUS
 62
    4
 10
1545.9301
 20
1000.8576
 11
1550.0227
 21
989.577
  0
LINE
  8
_0-0_LAYER001
  6
CONTINUOUS
 62
    4
 10
1550.0227
 20
989.577
 11
1558.4830999999999
 21
992.64650000000006
  0
LINE
  8
_0-0_LAYER001
  6
CONTINUOUS
 62
    4
 10
1352.7709
 20
899.92930000000001
 11
1344.3105
 21
896.85979999999995
  0
LINE
  8
_0-0_LAYER001
  6
CONTINUOUS
 62
    4
 10
1134.5056
 20
815.42309999999998
 11
1138.5981999999999
 21
804.1425999999999
  0
LINE
  8
_0-0_LAYER001
  6
CONTINUOUS
 62
    4
 10
1147.0586000000001
 20
807.21199999999999
 11
1138.5981999999999
 21
804.1425999999999
  0
LINE
  8
_0-0_LAYER001
  6
CONTINUOUS
 62
    4
 10
1137.1682000000001
 20
834.47330000000011
 11
1147.0586000000001
 21
807.21199999999999
  0
LINE
  8
_0-0_LAYER001
  6
CONTINUOUS
 62
    4
 10
1090.8335
 20
817.66300000000001
 11
1340.2177999999999
 21
908.14030000000002
  0
LINE
  8
_0-0_LAYER001
  6
CONTINUOUS
 62
    4
 10
1340.2177999999999
 20
908.14030000000002
 11
1344.3105
 21
896.85979999999995
  0
LINE
  8
_0-0_LAYER001
  6
CONTINUOUS
 62
    4
 10
1062.5319999999999
 20
877.42440000000011
 11
1260.4235000000001
 21
949.22000000000003
  0
ARC
  8
_0-0_LAYER001
  6
CONTINUOUS
 62
    4
 10
1267.4366
 20
959.21080000000006
 40
10
 50
109.94091000000002
 51
199.94091
  0
LINE
  8
_0-0_LAYER001
  6
CONTINUOUS
 62
    4
 10
1258.0361
 20
955.80030000000011
 11
1277.0771999999999
 21
903.31700000000001
  0
LINE
  8
_0-0_LAYER001
  6
CONTINUOUS
 62
    4
 10
1258.0361
 20
955.80030000000011
 11
1277.0771999999999
 21
903.31700000000001
  0
LINE
  8
_0-0_LAYER001
  6
CONTINUOUS
 62
    4
 10
1083.5250000000001
 20
833.09570000000008
 11
1342.8804
 21
927.1905999999999
  0
LINE
  8
_0-0_LAYER001
  6
CONTINUOUS
 62
    4
 10
1342.8804
 20
927.1905999999999
 11
1352.7709
 21
899.92930000000001
  0
LINE
  8
_0-0_LAYER001
  6
CONTINUOUS
 62
    4
 10
1264.0261
 20
968.61130000000003
 11
1466.1356999999998
 21
1041.9372000000001
  0
LINE
  8
_0-0_LAYER001
  6
CONTINUOUS
 62
    4
 10
1469.5462000000002
 20
1032.5368000000001
 11
1482.7894999999999
 21
996.03420000000006
  0
LINE
  8
_0-0_LAYER001
  6
CONTINUOUS
 62
    4
 10
1548.5925999999999
 20
1019.9078
 11
1558.4830999999999
 21
992.64650000000006
  0
LINE
  8
_0-0_LAYER001
  6
CONTINUOUS
 62
    4
 10
1280.6797999999999
 20
922.70830000000001
 11
1751.6423
 21
1093.5748000000001
  0
LINE
  8
_0-0_LAYER001
  6
CONTINUOUS
 62
    4
 10
1463.7483000000002
 20
1048.5174999999999
 11
1482.7894999999999
 21
996.03420000000006
  0
ARC
  8
_0-0_LAYER001
  6
CONTINUOUS
 62
    4
 10
1473.1487999999999
 20
1051.9281000000001
 40
10
 50
109.94091000000002
 51
199.94091
  0
LINE
  8
_0-0_LAYER001
  6
CONTINUOUS
 62
    4
 10
1134.5056
 20
815.42309999999998
 11
1098.1420000000001
 21
802.23029999999994
  0
LINE
  8
_0-0_LAYER001
  6
CONTINUOUS
 62
    2
 10
1659.5646000000002
 20
1170.2322999999999
 11
1657.8094000000001
 21
1144.3135
  0
LINE
  8
_0-0_LAYER001
  6
CONTINUOUS
 62
    2
 10
1657.8094000000001
 20
1144.3135
 11
1662.1532000000002
 21
1150.3432
  0
LINE
  8
_0-0_LAYER001
  6
CONTINUOUS
 62
    2
 10
1774.2727
 20
1183.1463000000001
 11
1770.1893
 21
1197.5798
  0
LINE
  8
_0-0_LAYER001
  6
CONTINUOUS
 62
    2
 10
1770.1893
 20
1197.5798
 11
1669.1547999999998
 21
1168.9963
  0
LINE
  8
_0-0_LAYER001
  6
CONTINUOUS
 62
    2
 10
1774.2727
 20
1183.1463000000001
 11
1673.2381
 21
1154.5627999999999
  0
LINE
  8
_0-0_LAYER001
  6
CONTINUOUS
 62
    2
 10
1673.2381
 20
1154.5627999999999
 11
1669.1547999999998
 21
1168.9963
  0
LINE
  8
_0-0_LAYER001
  6
CONTINUOUS
 62
    2
 10
1673.2381
 20
1154.5627999999999
 11
1770.1893
 21
1197.5798
  0
LINE
  8
_0-0_LAYER001
  6
CONTINUOUS
 62
    2
 10
1749.2170999999998
 20
1195.5957000000001
 11
1659.5646000000002
 21
1170.2322999999999
  0
LINE
  8
_0-0_LAYER001
  6
CONTINUOUS
 62
    2
 10
1764.0279
 20
1180.2479000000001
 11
1774.4683
 21
1180.2479000000001
  0
LINE
  8
_0-0_LAYER001
  6
CONTINUOUS
 62
    2
 10
1822.4683
 20
1160.2479000000001
 11
1817.4681999999998
 21
1163.2479000000001
  0
LINE
  8
_0-0_LAYER001
  6
CONTINUOUS
 62
    2
 10
1817.4681999999998
 20
1157.248
 11
1822.4683
 21
1160.2479000000001
  0
LINE
  8
_0-0_LAYER001
  6
CONTINUOUS
 62
    2
 10
1816.3932
 20
1157.248
 11
1819.2422999999999
 21
1162.184
  0
LINE
  8
_0-0_LAYER001
  6
CONTINUOUS
 62
    2
 10
1750.4681999999998
 20
1157.248
 11
1750.4681999999998
 21
1163.2479000000001
  0
LINE
  8
_0-0_LAYER001
  6
CONTINUOUS
 62
    2
 10
1744.4683
 20
1154.2479000000001
 11
1744.4683
 21
1166.248
  0
LINE
  8
_0-0_LAYER001
  6
CONTINUOUS
 62
    2
 10
1753.3552
 20
1157.248
 11
1756.8182999999999
 21
1163.2479000000001
  0
LINE
  8
_0-0_LAYER001
  6
CONTINUOUS
 62
    2
 10
1744.4683
 20
1154.2479000000001
 11
1750.4681999999998
 21
1157.248
  0
LINE
  8
_0-0_LAYER001
  6
CONTINUOUS
 62
    2
 10
1750.4681999999998
 20
1163.2479000000001
 11
1744.4683
 21
1166.248
  0
LINE
  8
_0-0_LAYER001
  6
CONTINUOUS
 62
    2
 10
1817.4681999999998
 20
1163.2479000000001
 11
1807.4531999999999
 21
1163.2479000000001
  0
LINE
  8
_0-0_LAYER001
  6
CONTINUOUS
 62
    2
 10
1798.8013000000001
 20
1158.7751000000001
 11
1800.6952999999999
 21
1162.056
  0
LINE
  8
_0-0_LAYER001
  6
CONTINUOUS
 62
    2
 10
1807.1853000000001
 20
1157.297
 11
1810.6201999999998
 21
1163.2479000000001
  0
LINE
  8
_0-0_LAYER001
  6
CONTINUOUS
 62
    2
 10
1817.4681999999998
 20
1157.248
 11
1807.4612999999999
 21
1157.248
  0
LINE
  8
_0-0_LAYER001
  6
CONTINUOUS
 62
    2
 10
1815.3172
 20
1166.971
 11
1815.7172
 21
1164.7049
  0
LINE
  8
_0-0_LAYER001
  6
CONTINUOUS
 62
    2
 10
1815.1442999999999
 20
1153.5581
 11
1815.5421999999999
 21
1155.8230000000001
  0
LINE
  8
_0-0_LAYER001
  6
CONTINUOUS
 62
    2
 10
1810.7240999999999
 20
1165.9570000000001
 11
1812.3982000000001
 21
1166.2519
  0
LINE
  8
_0-0_LAYER001
  6
CONTINUOUS
 62
    2
 10
1806.3912
 20
1165.193
 11
1808.0641999999998
 21
1165.4880000000001
  0
LINE
  8
_0-0_LAYER001
  6
CONTINUOUS
 62
    2
 10
1802.0581999999999
 20
1164.4289000000001
 11
1803.7311
 21
1164.7239999999999
  0
LINE
  8
_0-0_LAYER001
  6
CONTINUOUS
 62
    2
 10
1801.7620999999999
 20
1166.1020000000001
 11
1792.6682000000001
 21
1164.4991
  0
LINE
  8
_0-0_LAYER001
  6
CONTINUOUS
 62
    2
 10
1806.0952000000002
 20
1166.8659
 11
1803.4362000000001
 21
1166.3969
  0
LINE
  8
_0-0_LAYER001
  6
CONTINUOUS
 62
    2
 10
1810.4281999999998
 20
1167.6301000000001
 11
1807.7692000000002
 21
1167.1611
  0
LINE
  8
_0-0_LAYER001
  6
CONTINUOUS
 62
    2
 10
1813.5801000000001
 20
1168.1858999999999
 11
1812.1023
 21
1167.9249
  0
LINE
  8
_0-0_LAYER001
  6
CONTINUOUS
 62
    2
 10
1812.3982000000001
 20
1166.2519
 11
1812.1023
 21
1167.9259999999999
  0
LINE
  8
_0-0_LAYER001
  6
CONTINUOUS
 62
    2
 10
1810.7240999999999
 20
1165.9570000000001
 11
1810.4281999999998
 21
1167.6310000000001
  0
LINE
  8
_0-0_LAYER001
  6
CONTINUOUS
 62
    2
 10
1808.0653000000002
 20
1165.4880000000001
 11
1807.7692000000002
 21
1167.1621
  0
LINE
  8
_0-0_LAYER001
  6
CONTINUOUS
 62
    2
 10
1806.3912
 20
1165.193
 11
1806.0952000000002
 21
1166.8669
  0
LINE
  8
_0-0_LAYER001
  6
CONTINUOUS
 62
    2
 10
1803.7321999999999
 20
1164.7239999999999
 11
1803.4362000000001
 21
1166.3978999999999
  0
LINE
  8
_0-0_LAYER001
  6
CONTINUOUS
 62
    2
 10
1802.0581999999999
 20
1164.4289000000001
 11
1801.7620999999999
 21
1166.1030000000001
  0
LINE
  8
_0-0_LAYER001
  6
CONTINUOUS
 62
    2
 10
1810.5491999999999
 20
1154.5708999999999
 11
1812.2233000000001
 21
1154.2760000000001
  0
LINE
  8
_0-0_LAYER001
  6
CONTINUOUS
 62
    2
 10
1806.2163
 20
1155.335
 11
1807.8901999999998
 21
1155.04
  0
LINE
  8
_0-0_LAYER001
  6
CONTINUOUS
 62
    2
 10
1801.8832000000002
 20
1156.0989999999999
 11
1803.5572000000002
 21
1155.8039000000001
  0
LINE
  8
_0-0_LAYER001
  6
CONTINUOUS
 62
    2
 10
1801.8842
 20
1156.0989999999999
 11
1801.5882000000001
 21
1154.4259999999999
  0
LINE
  8
_0-0_LAYER001
  6
CONTINUOUS
 62
    2
 10
1803.5581999999999
 20
1155.8039000000001
 11
1803.2620999999999
 21
1154.1310000000001
  0
LINE
  8
_0-0_LAYER001
  6
CONTINUOUS
 62
    2
 10
1806.2172999999998
 20
1155.335
 11
1805.9212000000002
 21
1153.662
  0
LINE
  8
_0-0_LAYER001
  6
CONTINUOUS
 62
    2
 10
1807.8912
 20
1155.04
 11
1807.5952000000002
 21
1153.367
  0
LINE
  8
_0-0_LAYER001
  6
CONTINUOUS
 62
    2
 10
1810.5502000000001
 20
1154.5708999999999
 11
1810.2543000000001
 21
1152.8979999999999
  0
LINE
  8
_0-0_LAYER001
  6
CONTINUOUS
 62
    2
 10
1812.2242999999999
 20
1154.2760000000001
 11
1811.9281999999998
 21
1152.6030000000001
  0
LINE
  8
_0-0_LAYER001
  6
CONTINUOUS
 62
    2
 10
1801.5882000000001
 20
1154.4259999999999
 11
1792.6682000000001
 21
1155.9979000000001
  0
LINE
  8
_0-0_LAYER001
  6
CONTINUOUS
 62
    2
 10
1805.9212000000002
 20
1153.662
 11
1803.2620999999999
 21
1154.1310000000001
  0
LINE
  8
_0-0_LAYER001
  6
CONTINUOUS
 62
    2
 10
1810.2543000000001
 20
1152.8979999999999
 11
1807.5952000000002
 21
1153.367
  0
LINE
  8
_0-0_LAYER001
  6
CONTINUOUS
 62
    2
 10
1813.4052999999999
 20
1152.3420000000001
 11
1811.9281999999998
 21
1152.6020000000001
  0
LINE
  8
_0-0_LAYER001
  6
CONTINUOUS
 62
    2
 10
1790.4443000000001
 20
1160.249
 11
1815.7172
 21
1164.7049
  0
LINE
  8
_0-0_LAYER001
  6
CONTINUOUS
 62
    2
 10
1790.4443000000001
 20
1160.249
 11
1815.5421999999999
 21
1155.8230000000001
  0
LINE
  8
_0-0_LAYER001
  6
CONTINUOUS
 62
    2
 10
1774.4683
 20
1164.498
 11
1792.6682000000001
 21
1164.498
  0
LINE
  8
_0-0_LAYER001
  6
CONTINUOUS
 62
    2
 10
1774.4683
 20
1155.9979000000001
 11
1792.6682000000001
 21
1155.9979000000001
  0
LINE
  8
_0-0_LAYER001
  6
CONTINUOUS
 62
    2
 10
1774.4683
 20
1155.9979000000001
 11
1774.4683
 21
1164.498
  0
LINE
  8
_0-0_LAYER001
  6
CONTINUOUS
 62
    2
 10
1744.4683
 20
1140.2479000000001
 11
1774.4683
 21
1140.2479000000001
  0
LINE
  8
_0-0_LAYER001
  6
CONTINUOUS
 62
    2
 10
1774.4683
 20
1163.2479000000001
 11
1750.4681999999998
 21
1163.2479000000001
  0
LINE
  8
_0-0_LAYER001
  6
CONTINUOUS
 62
    2
 10
1774.4683
 20
1157.248
 11
1750.4681999999998
 21
1157.248
  0
LINE
  8
_0-0_LAYER001
  6
CONTINUOUS
 62
    2
 10
1759.0783000000001
 20
1157.248
 11
1762.5414000000001
 21
1163.2479000000001
  0
LINE
  8
_0-0_LAYER001
  6
CONTINUOUS
 62
    2
 10
1764.8015
 20
1157.248
 11
1768.2645000000002
 21
1163.2479000000001
  0
LINE
  8
_0-0_LAYER001
  6
CONTINUOUS
 62
    2
 10
1770.5246000000002
 20
1157.248
 11
1773.9877000000001
 21
1163.2479000000001
  0
LINE
  8
_0-0_LAYER001
  6
CONTINUOUS
 62
    2
 10
1744.4683
 20
1140.2479000000001
 11
1744.4683
 21
1174.9581000000001
  0
LINE
  8
_0-0_LAYER001
  6
CONTINUOUS
 62
    2
 10
1774.4683
 20
1140.2479000000001
 11
1747.9722999999999
 21
1175.576
  0
ARC
  8
_0-0_LAYER001
  6
CONTINUOUS
 62
    2
 10
1813.8321999999998
 20
1166.704
 40
1.5049999999999999
 50
10.451269999999999
 51
99.637527999999989
  0
ARC
  8
_0-0_LAYER001
  6
CONTINUOUS
 62
    2
 10
1813.6642999999999
 20
1153.8209999999999
 40
1.4969999999999999
 50
259.83899000000008
 51
350.14733000000001
  0
LINE
  8
_0-0_LAYER001
  6
CONTINUOUS
 62
    2
 10
1741.9782
 20
1190.0426
 11
1750.0488999999998
 21
1193.8053
  0
LINE
  8
_0-0_LAYER001
  6
CONTINUOUS
 62
    2
 10
1756.4180000000001
 20
1165.2216000000001
 11
1761.8742999999999
 21
1158.1537000000001
  0
LINE
  8
_0-0_LAYER001
  6
CONTINUOUS
 62
    2
 10
1748.3665000000001
 20
1191.2607
 11
1759.7772
 21
1166.7879
  0
LINE
  8
_0-0_LAYER001
  6
CONTINUOUS
 62
    2
 10
1761.8742999999999
 20
1158.1537000000001
 11
1759.7772
 21
1166.7879
  0
LINE
  8
_0-0_LAYER001
  6
CONTINUOUS
 62
    2
 10
1745.0070000000001
 20
1189.6958999999999
 11
1741.9782
 21
1190.0426
  0
LINE
  8
_0-0_LAYER001
  6
CONTINUOUS
 62
    2
 10
1748.3665000000001
 20
1191.2607
 11
1750.0488999999998
 21
1193.8053
  0
LINE
  8
_0-0_LAYER001
  6
CONTINUOUS
 62
    2
 10
1745.0070000000001
 20
1189.6958999999999
 11
1756.4180000000001
 21
1165.2216000000001
  0
LINE
  8
_0-0_LAYER001
  6
CONTINUOUS
 62
    2
 10
1764.7001
 20
1314.6316999999999
 11
1764.7001
 21
1295.5957000000001
  0
LINE
  8
_0-0_LAYER001
  6
CONTINUOUS
 62
    2
 10
1770.1621
 20
1314.6316999999999
 11
1764.7001
 21
1295.5957000000001
  0
LINE
  8
_0-0_LAYER001
  6
CONTINUOUS
 62
    2
 10
1770.1621
 20
1295.5957000000001
 11
1764.7001
 21
1314.6316999999999
  0
ARC
  8
_0-0_LAYER001
  6
CONTINUOUS
 62
    2
 10
1732.3980999999999
 20
1304.2283
 40
20.694040000000001
 50
335.49168000000003
 51
29.733201000000058
  0
LINE
  8
_0-3_LAYER005
  6
CONTINUOUS
 62
    2
 10
1749.2170999999998
 20
1314.6316999999999
 11
1774.2170999999998
 21
1314.6316999999999
  0
LINE
  8
_0-3_LAYER005
  6
CONTINUOUS
 62
    2
 10
1749.2170999999998
 20
1295.5957000000001
 11
1770.1621
 21
1295.5957000000001
  0
LINE
  8
_0-3_LAYER005
  6
CONTINUOUS
 62
    2
 10
1770.1621
 20
1295.5957000000001
 11
1770.1621
 21
1314.6316999999999
  0
LINE
  8
_0-3_LAYER005
  6
CONTINUOUS
 62
    2
 10
1758.3921
 20
1295.5957000000001
 11
1764.7001
 21
1301.9037000000001
  0
LINE
  8
_0-3_LAYER005
  6
CONTINUOUS
 62
    2
 10
1754.1491000000001
 20
1295.5957000000001
 11
1764.7001
 21
1306.1466999999998
  0
LINE
  8
_0-3_LAYER005
  6
CONTINUOUS
 62
    2
 10
1752.0477999999998
 20
1297.7375000000002
 11
1764.7001
 21
1310.3889999999999
  0
LINE
  8
_0-3_LAYER005
  6
CONTINUOUS
 62
    2
 10
1753.0547999999999
 20
1302.9864
 11
1764.7001
 21
1314.6316999999999
  0
LINE
  8
_0-3_LAYER005
  6
CONTINUOUS
 62
    2
 10
1752.8960999999999
 20
1307.0694000000001
 11
1760.4571000000001
 21
1314.6316999999999
  0
LINE
  8
_0-3_LAYER005
  6
CONTINUOUS
 62
    2
 10
1752.1107000000002
 20
1310.5255
 11
1756.2141000000001
 21
1314.6316999999999
  0
LINE
  8
_0-0_LAYER001
  6
CONTINUOUS
 62
    2
 10
1859.9807999999998
 20
1195.5957000000001
 11
1832.4807999999998
 21
1195.5957000000001
  0
CIRCLE
  8
_0-0_LAYER001
  6
CONTINUOUS
 62
    2
 10
1857.4807999999998
 20
1195.5957000000001
 40
1.6999999999999997
  0
LINE
  8
_0-0_LAYER001
  6
CONTINUOUS
 62
    2
 10
1857.4807999999998
 20
1195.5957000000001
 11
1857.4807999999998
 21
1295.5957000000001
  0
CIRCLE
  8
_0-0_LAYER001
  6
CONTINUOUS
 62
    2
 10
1857.4807999999998
 20
1295.5957000000001
 40
1.6999999999999997
  0
LINE
  8
_0-0_LAYER001
  6
CONTINUOUS
 62
    2
 10
1859.9807999999998
 20
1295.5957000000001
 11
1832.4807999999998
 21
1295.5957000000001
  0
CIRCLE
  8
_0-0_LAYER001
  6
CONTINUOUS
 62
    2
 10
1857.4807999999998
 20
1295.5957000000001
 40
1.6999999999999997
  0
LINE
  8
_0-0_LAYER001
  6
CONTINUOUS
 62
    2
 10
1857.4807999999998
 20
1295.5957000000001
 11
1857.4807999999998
 21
1315.5957000000001
  0
CIRCLE
  8
_0-0_LAYER001
  6
CONTINUOUS
 62
    2
 10
1857.4807999999998
 20
1315.5957000000001
 40
1.6999999999999997
  0
LINE
  8
_0-0_LAYER001
  6
CONTINUOUS
 62
    2
 10
1859.9807999999998
 20
1315.5957000000001
 11
1832.4807999999998
 21
1315.5957000000001
  0
LINE
  8
_0-0_LAYER001
  6
CONTINUOUS
 62
    2
 10
1981.3533000000002
 20
1077.6080999999999
 11
1928.8533000000002
 21
1077.6080999999999
  0
CIRCLE
  8
_0-0_LAYER001
  6
CONTINUOUS
 62
    2
 10
1978.8533000000002
 20
1077.6080999999999
 40
1.6999999999999997
  0
LINE
  8
_0-0_LAYER001
  6
CONTINUOUS
 62
    2
 10
1978.8533000000002
 20
1077.6080999999999
 11
1978.8533000000002
 21
1277.6080999999999
  0
CIRCLE
  8
_0-0_LAYER001
  6
CONTINUOUS
 62
    2
 10
1978.8533000000002
 20
1277.6080999999999
 40
1.6999999999999997
  0
LINE
  8
_0-0_LAYER001
  6
CONTINUOUS
 62
    2
 10
1981.3533000000002
 20
1277.6080999999999
 11
1928.8533000000002
 21
1277.6080999999999
  0
LINE
  8
_0-0_LAYER001
  6
CONTINUOUS
 62
    2
 10
1767.1116999999999
 20
1153.0728999999999
 11
1765.1705000000002
 21
1160.3172999999999
  0
LINE
  8
_0-0_LAYER001
  6
CONTINUOUS
 62
    2
 10
1765.1705000000002
 20
1160.3172999999999
 11
1770.4738000000002
 21
1155.0139999999999
  0
LINE
  8
_0-0_LAYER001
  6
CONTINUOUS
 62
    2
 10
1765.1705000000002
 20
1160.3172999999999
 11
1802.8218999999999
 21
1095.1033
  0
LINE
  8
_0-0_LAYER001
  6
CONTINUOUS
 62
    2
 10
1802.8218999999999
 20
1095.1033
 11
1949.8218999999999
 21
1095.1033
  0
LINE
  8
_0-0_LAYER001
  6
CONTINUOUS
 62
    2
 10
1676.1172999999999
 20
1328.1346000000003
 11
1694.0225
 21
1278.7823000000001
  0
CIRCLE
  8
_0-0_LAYER001
  6
CONTINUOUS
 62
    2
 10
1676.9699000000001
 20
1325.7845
 40
1.6999999999999997
  0
LINE
  8
_0-0_LAYER001
  6
CONTINUOUS
 62
    2
 10
1676.9699000000001
 20
1325.7845
 11
1399.6567
 21
1225.1745000000001
  0
CIRCLE
  8
_0-0_LAYER001
  6
CONTINUOUS
 62
    2
 10
1399.6567
 20
1225.1745000000001
 40
1.6999999999999997
  0
LINE
  8
_0-0_LAYER001
  6
CONTINUOUS
 62
    2
 10
1398.8041000000001
 20
1227.5246
 11
1416.7092
 21
1178.1723
  0
LINE
  8
_0-0_LAYER001
  6
CONTINUOUS
 62
    2
 10
1409.0355999999999
 20
1199.3233
 11
1426.9408000000001
 21
1149.9709
  0
CIRCLE
  8
_0-0_LAYER001
  6
CONTINUOUS
 62
    2
 10
1409.8882000000001
 20
1196.9731999999999
 40
1.6999999999999997
  0
LINE
  8
_0-0_LAYER001
  6
CONTINUOUS
 62
    2
 10
1409.8882000000001
 20
1196.9731999999999
 11
1198.3782000000001
 21
1120.2366999999999
  0
CIRCLE
  8
_0-0_LAYER001
  6
CONTINUOUS
 62
    2
 10
1198.3782000000001
 20
1120.2366999999999
 40
1.6999999999999997
  0
LINE
  8
_0-0_LAYER001
  6
CONTINUOUS
 62
    2
 10
1197.5255
 20
1122.5868
 11
1215.4306999999999
 21
1073.2345
  0
LINE
  8
_0-0_LAYER001
  6
CONTINUOUS
 62
    2
 10
1207.7571
 20
1094.3855000000001
 11
1225.6622
 21
1045.0331000000001
  0
CIRCLE
  8
_0-0_LAYER001
  6
CONTINUOUS
 62
    2
 10
1208.6097
 20
1092.0354
 40
1.6999999999999997
  0
LINE
  8
_0-0_LAYER001
  6
CONTINUOUS
 62
    2
 10
1208.6097
 20
1092.0354
 11
968.89830000000006
 21
1005.0673999999999
  0
CIRCLE
  8
_0-0_LAYER001
  6
CONTINUOUS
 62
    2
 10
968.89830000000006
 20
1005.0673999999999
 40
1.6999999999999997
  0
LINE
  8
_0-0_LAYER001
  6
CONTINUOUS
 62
    2
 10
968.04559999999992
 20
1007.4175
 11
985.95080000000007
 21
958.06510000000003
  0
LINE
  8
_0-0_LAYER001
  6
CONTINUOUS
 62
    2
 10
1656.0841
 20
1369.5397
 11
1656.0841
 21
1293.002
  0
CIRCLE
  8
_0-0_LAYER001
  6
CONTINUOUS
 62
    2
 10
1656.0841
 20
1367.0397
 40
1.6999999999999997
  0
LINE
  8
_0-0_LAYER001
  6
CONTINUOUS
 62
    2
 10
1656.0841
 20
1367.0397
 11
1749.2170999999998
 21
1367.0397
  0
CIRCLE
  8
_0-0_LAYER001
  6
CONTINUOUS
 62
    2
 10
1749.2170999999998
 20
1367.0397
 40
1.6999999999999997
  0
LINE
  8
_0-0_LAYER001
  6
CONTINUOUS
 62
    2
 10
1706.7707
 20
1191.2808
 11
1708.7118999999998
 21
1184.0363
  0
LINE
  8
_0-0_LAYER001
  6
CONTINUOUS
 62
    2
 10
1708.7118999999998
 20
1184.0363
 11
1703.4086000000002
 21
1189.3396
  0
LINE
  8
_0-0_LAYER001
  6
CONTINUOUS
 62
    2
 10
1708.7118999999998
 20
1184.0363
 11
1600.4933000000001
 21
1371.4762999999998
  0
LINE
  8
_0-0_LAYER001
  6
CONTINUOUS
 62
    2
 10
1600.4933000000001
 20
1371.4762999999998
 11
1366.4933000000001
 21
1371.4762999999998
  0
LINE
  8
_0-0_LAYER001
  6
CONTINUOUS
 62
    2
 10
1685.1840999999999
 20
1171.4250999999999
 11
1687.1251999999999
 21
1164.1806999999999
  0
LINE
  8
_0-0_LAYER001
  6
CONTINUOUS
 62
    2
 10
1687.1251999999999
 20
1164.1806999999999
 11
1681.8218999999999
 21
1169.4839999999999
  0
LINE
  8
_0-0_LAYER001
  6
CONTINUOUS
 62
    2
 10
1687.1251999999999
 20
1164.1806999999999
 11
1589.1813000000002
 21
1333.8245000000002
  0
LINE
  8
_0-0_LAYER001
  6
CONTINUOUS
 62
    2
 10
1589.1813000000002
 20
1333.8245000000002
 11
1442.1813000000002
 21
1333.8245000000002
  0
LINE
  8
_0-0_LAYER001
  6
CONTINUOUS
 62
    2
 10
1755.846
 20
1311.3625999999999
 11
1757.7872000000002
 21
1304.1181000000001
  0
LINE
  8
_0-0_LAYER001
  6
CONTINUOUS
 62
    2
 10
1757.7872000000002
 20
1304.1181000000001
 11
1752.4839000000002
 21
1309.4213999999999
  0
LINE
  8
_0-0_LAYER001
  6
CONTINUOUS
 62
    2
 10
1757.7872000000002
 20
1304.1181000000001
 11
1677.4731999999999
 21
1443.2260000000001
  0
LINE
  8
_0-0_LAYER001
  6
CONTINUOUS
 62
    2
 10
1677.4731999999999
 20
1443.2260000000001
 11
1596.4731999999999
 21
1443.2260000000001
  0
LINE
  8
_0-0_LAYER001
  6
CONTINUOUS
 62
    2
 10
1751.7860000000001
 20
1105.8847000000001
 11
1749.8449000000001
 21
1113.1291000000001
  0
LINE
  8
_0-0_LAYER001
  6
CONTINUOUS
 62
    2
 10
1749.8449000000001
 20
1113.1291000000001
 11
1755.1482000000001
 21
1107.8258000000001
  0
LINE
  8
_0-0_LAYER001
  6
CONTINUOUS
 62
    2
 10
1749.8449000000001
 20
1113.1291000000001
 11
1819.6406999999999
 21
992.23919999999998
  0
LINE
  8
_0-0_LAYER001
  6
CONTINUOUS
 62
    2
 10
1819.6406999999999
 20
992.23919999999998
 11
1898.3220999999999
 21
992.23919999999998
  0
LINE
  8
_0-1_LAYER003
  6
CONTINUOUS
 62
    2
 10
1087.6891000000001
 20
768.67010000000005
 11
1774.2170999999998
 21
1077.6080999999999
  0
LINE
  8
_0-2_LAYER004
  6
DASHED3
 62
    2
 10
1086.0471
 20
772.31809999999996
 11
1771.1561000000002
 21
1080.6170999999999
  0
LINE
  8
_0-4_LAYER006
  6
DASHED3
 62
    2
 10
1771.1561000000002
 20
1080.6170999999999
 11
1771.1561000000002
 21
1277.6080999999999
  0
LINE
  8
_0-1_LAYER003
  6
CONTINUOUS
 62
    2
 10
1749.2170999999998
 20
1519.9871000000003
 11
1749.2170999999998
 21
1314.6316999999999
  0
LINE
  8
_0-1_LAYER003
  6
CONTINUOUS
 62
    2
 10
1749.2170999999998
 20
1295.5957000000001
 11
1749.2170999999998
 21
1195.5957000000001
  0
LINE
  8
_0-1_LAYER003
  6
CONTINUOUS
 62
    2
 10
1136.9331
 20
659.24009999999998
 11
1774.2170999999998
 21
946.0181
  0
LINE
  8
_0-1_LAYER003
  6
CONTINUOUS
 62
    2
 10
1774.2170999999998
 20
1314.6316999999999
 11
1774.2170999999998
 21
1077.6080999999999
  0
LINE
  8
_0-1_LAYER003
  6
CONTINUOUS
 62
    2
 10
1265.4725000000001
 20
848.67270000000008
 11
1230.8431
 21
701.4991
  0
LINE
  8
_0-1_LAYER003
  6
CONTINUOUS
 62
    2
 10
1274.6643999999999
 20
852.80899999999997
 11
1240.0351000000001
 21
705.63609999999994
  0
LINE
  8
_0-1_LAYER003
  6
CONTINUOUS
 62
    2
 10
1283.855
 20
856.94479999999999
 11
1249.2271000000001
 21
709.77209999999991
  0
LINE
  8
_0-1_LAYER003
  6
CONTINUOUS
 62
    2
 10
1588.9005000000002
 20
994.21550000000002
 11
1554.2710999999999
 21
847.04209999999989
  0
LINE
  8
_0-1_LAYER003
  6
CONTINUOUS
 62
    2
 10
1607.2844
 20
1002.4883
 11
1572.6550999999999
 21
855.31510000000003
  0
LINE
  8
_0-1_LAYER003
  6
CONTINUOUS
 62
    2
 10
1598.0927000000001
 20
998.35200000000009
 11
1563.4630999999999
 21
851.17910000000006
  0
LINE
  8
_0-1_LAYER003
  6
CONTINUOUS
 62
    2
 10
1749.2170999999998
 20
1444.4321
 11
1824.7710999999999
 21
1519.9871000000003
  0
LINE
  8
_0-1_LAYER003
  6
CONTINUOUS
 62
    2
 10
1749.2170999999998
 20
1433.1190999999999
 11
1836.0850999999998
 21
1519.9871000000003
  0
LINE
  8
_0-1_LAYER003
  6
CONTINUOUS
 62
    2
 10
1749.2170999999998
 20
1421.8051
 11
1847.3991000000001
 21
1519.9871000000003
  0
ARC
  8
_0-1_LAYER003
  6
CONTINUOUS
 62
    2
 10
1490.5417000000002
 20
1103.3264999999999
 40
196.005
 50
355.66429000000005
 51
15.514044000000052
  0
CIRCLE
  8
_0-3_LAYER005
  6
CONTINUOUS
 62
    2
 10
1716.3620000000001
 20
1112.0300999999999
 40
1.018
  0
CIRCLE
  8
_0-3_LAYER005
  6
CONTINUOUS
 62
    2
 10
1707.3551000000002
 20
1105.6001000000001
 40
1.018
  0
CIRCLE
  8
_0-3_LAYER005
  6
CONTINUOUS
 62
    2
 10
1703.3330999999998
 20
1150.0215000000001
 40
1.018
  0
CIRCLE
  8
_0-3_LAYER005
  6
CONTINUOUS
 62
    2
 10
1700.7741000000001
 20
1144.5374999999999
 40
1.018
  0
CIRCLE
  8
_0-3_LAYER005
  6
CONTINUOUS
 62
    2
 10
1701.8701000000001
 20
1139.0525
 40
1.018
  0
CIRCLE
  8
_0-3_LAYER005
  6
CONTINUOUS
 62
    2
 10
1706.6241
 20
1133.9335000000001
 40
1.018
  0
CIRCLE
  8
_0-3_LAYER005
  6
CONTINUOUS
 62
    2
 10
1708.683
 20
1116.5741
 40
1.018
  0
CIRCLE
  8
_0-3_LAYER005
  6
CONTINUOUS
 62
    2
 10
1703.6990999999998
 20
1103.5631000000001
 40
1.018
  0
CIRCLE
  8
_0-3_LAYER005
  6
CONTINUOUS
 62
    2
 10
1693.4611
 20
1098.0780999999999
 40
1.018
  0
CIRCLE
  8
_0-3_LAYER005
  6
CONTINUOUS
 62
    2
 10
1697.7139999999999
 20
1112.0300999999999
 40
1.018
  0
CIRCLE
  8
_0-3_LAYER005
  6
CONTINUOUS
 62
    2
 10
1692.7291
 20
1138.6865
 40
1.018
  0
CIRCLE
  8
_0-3_LAYER005
  6
CONTINUOUS
 62
    2
 10
1692.96
 20
1118.7681
 40
1.018
  0
CIRCLE
  8
_0-3_LAYER005
  6
CONTINUOUS
 62
    2
 10
1701.7359999999999
 20
1114.3811000000001
 40
1.018
  0
CIRCLE
  8
_0-3_LAYER005
  6
CONTINUOUS
 62
    2
 10
1715.0340999999999
 20
1101.0030999999999
 40
1.018
  0
CIRCLE
  8
_0-3_LAYER005
  6
CONTINUOUS
 62
    2
 10
1714.5340000000001
 20
1115.8431
 40
1.018
  0
CIRCLE
  8
_0-3_LAYER005
  6
CONTINUOUS
 62
    2
 10
1716.1311000000001
 20
1133.2025000000001
 40
1.018
  0
CIRCLE
  8
_0-3_LAYER005
  6
CONTINUOUS
 62
    2
 10
1719.7105000000001
 20
1153.3902
 40
1.018
  0
CIRCLE
  8
_0-3_LAYER005
  6
CONTINUOUS
 62
    2
 10
1723.8101000000001
 20
1124.6355000000001
 40
1.018
  0
CIRCLE
  8
_0-3_LAYER005
  6
CONTINUOUS
 62
    2
 10
1730.7570999999998
 20
1133.7764999999999
 40
1.018
  0
CIRCLE
  8
_0-3_LAYER005
  6
CONTINUOUS
 62
    2
 10
1717.8825000000002
 20
1149.9422
 40
1.018
  0
CIRCLE
  8
_0-3_LAYER005
  6
CONTINUOUS
 62
    2
 10
1716.8620999999998
 20
1137.7985000000001
 40
1.018
  0
CIRCLE
  8
_0-3_LAYER005
  6
CONTINUOUS
 62
    2
 10
1714.1680000000001
 20
1116.7841000000001
 40
1.018
  0
CIRCLE
  8
_0-3_LAYER005
  6
CONTINUOUS
 62
    2
 10
1707.221
 20
1118.6121000000001
 40
1.018
  0
CIRCLE
  8
_0-3_LAYER005
  6
CONTINUOUS
 62
    2
 10
1699.1759999999999
 20
1119.3431
 40
1.018
  0
CIRCLE
  8
_0-3_LAYER005
  6
CONTINUOUS
 62
    2
 10
1697.4830999999999
 20
1151.4845
 40
1.018
  0
CIRCLE
  8
_0-3_LAYER005
  6
CONTINUOUS
 62
    2
 10
1716.1311000000001
 20
1101.2121
 40
1.018
  0
CIRCLE
  8
_0-3_LAYER005
  6
CONTINUOUS
 62
    2
 10
1690.9011
 20
1143.4404999999999
 40
1.018
  0
CIRCLE
  8
_0-3_LAYER005
  6
CONTINUOUS
 62
    2
 10
1714.2255
 20
1154.1212
 40
1.018
  0
CIRCLE
  8
_0-3_LAYER005
  6
CONTINUOUS
 62
    2
 10
1729.6601000000001
 20
1130.2764999999999
 40
1.018
  0
CIRCLE
  8
_0-3_LAYER005
  6
CONTINUOUS
 62
    2
 10
1731.8541
 20
1125.8895
 40
1.018
  0
CIRCLE
  8
_0-3_LAYER005
  6
CONTINUOUS
 62
    2
 10
1736.2420999999999
 20
1102.4661000000001
 40
1.018
  0
CIRCLE
  8
_0-3_LAYER005
  6
CONTINUOUS
 62
    2
 10
1741.1302000000001
 20
1120.4428
 40
1.018
  0
CIRCLE
  8
_0-3_LAYER005
  6
CONTINUOUS
 62
    2
 10
1747.2111
 20
1143.8054999999999
 40
1.018
  0
CIRCLE
  8
_0-3_LAYER005
  6
CONTINUOUS
 62
    2
 10
1745.3831
 20
1101.2121
 40
1.018
  0
CIRCLE
  8
_0-3_LAYER005
  6
CONTINUOUS
 62
    2
 10
1757.4490999999998
 20
1139.9925000000001
 40
1.018
  0
CIRCLE
  8
_0-3_LAYER005
  6
CONTINUOUS
 62
    2
 10
1753.4270999999999
 20
1142.1865
 40
1.018
  0
CIRCLE
  8
_0-3_LAYER005
  6
CONTINUOUS
 62
    2
 10
1748.6741000000002
 20
1139.6275000000001
 40
1.018
  0
CIRCLE
  8
_0-3_LAYER005
  6
CONTINUOUS
 62
    2
 10
1744.2860999999998
 20
1146.2085
 40
1.018
  0
CIRCLE
  8
_0-3_LAYER005
  6
CONTINUOUS
 62
    2
 10
1743.9200999999998
 20
1167.4165
 40
1.018
  0
CIRCLE
  8
_0-3_LAYER005
  6
CONTINUOUS
 62
    2
 10
1737.3391000000001
 20
1169.9765
 40
1.018
  0
CIRCLE
  8
_0-3_LAYER005
  6
CONTINUOUS
 62
    2
 10
1746.4801000000002
 20
1156.8125
 40
1.018
  0
CIRCLE
  8
_0-3_LAYER005
  6
CONTINUOUS
 62
    2
 10
1726.6574999999998
 20
1158.3522
 40
1.018
  0
CIRCLE
  8
_0-3_LAYER005
  6
CONTINUOUS
 62
    2
 10
1740.3982000000001
 20
1120.6518000000001
 40
1.018
  0
CIRCLE
  8
_0-3_LAYER005
  6
CONTINUOUS
 62
    2
 10
1735.8761
 20
1104.8690999999999
 40
1.018
  0
CIRCLE
  8
_0-3_LAYER005
  6
CONTINUOUS
 62
    2
 10
1738.0700999999999
 20
1144.9024999999999
 40
1.018
  0
CIRCLE
  8
_0-3_LAYER005
  6
CONTINUOUS
 62
    2
 10
1722.3471
 20
1138.6865
 40
1.018
  0
CIRCLE
  8
_0-3_LAYER005
  6
CONTINUOUS
 62
    2
 10
1723.8101000000001
 20
1133.2025000000001
 40
1.018
  0
CIRCLE
  8
_0-3_LAYER005
  6
CONTINUOUS
 62
    2
 10
1729.2941000000001
 20
1105.0251000000001
 40
1.018
  0
CIRCLE
  8
_0-3_LAYER005
  6
CONTINUOUS
 62
    2
 10
1749.4050999999999
 20
1102.8321000000001
 40
1.018
  0
CIRCLE
  8
_0-3_LAYER005
  6
CONTINUOUS
 62
    2
 10
1747.2111
 20
1143.4404999999999
 40
1.018
  0
CIRCLE
  8
_0-3_LAYER005
  6
CONTINUOUS
 62
    2
 10
1760.7401
 20
1147.4625000000001
 40
1.018
  0
CIRCLE
  8
_0-3_LAYER005
  6
CONTINUOUS
 62
    2
 10
1757.4490999999998
 20
1125.8895
 40
1.018
  0
CIRCLE
  8
_0-3_LAYER005
  6
CONTINUOUS
 62
    2
 10
1760.0091000000002
 20
1105.0251000000001
 40
1.018
  0
CIRCLE
  8
_0-3_LAYER005
  6
CONTINUOUS
 62
    2
 10
1747.9421000000002
 20
1098.0780999999999
 40
1.018
  0
CIRCLE
  8
_0-3_LAYER005
  6
CONTINUOUS
 62
    2
 10
1754.5241000000001
 20
1127.3515
 40
1.018
  0
CIRCLE
  8
_0-3_LAYER005
  6
CONTINUOUS
 62
    2
 10
1763.3000999999999
 20
1135.3955000000001
 40
1.018
  0
CIRCLE
  8
_0-3_LAYER005
  6
CONTINUOUS
 62
    2
 10
1750.5021000000002
 20
1146.7315000000001
 40
1.018
  0
CIRCLE
  8
_0-3_LAYER005
  6
CONTINUOUS
 62
    2
 10
1762.2031000000002
 20
1104.1370999999999
 40
1.018
  0
CIRCLE
  8
_0-3_LAYER005
  6
CONTINUOUS
 62
    2
 10
1768.0531000000001
 20
1131.2175
 40
1.018
  0
CIRCLE
  8
_0-3_LAYER005
  6
CONTINUOUS
 62
    2
 10
1765.1280999999999
 20
1145.8434999999999
 40
1.018
  0
CIRCLE
  8
_0-3_LAYER005
  6
CONTINUOUS
 62
    2
 10
1764.3971000000001
 20
1157.9095
 40
1.018
  0
CIRCLE
  8
_0-3_LAYER005
  6
CONTINUOUS
 62
    2
 10
1752.4980999999998
 20
1170.1015
 40
1.018
  0
CIRCLE
  8
_0-3_LAYER005
  6
CONTINUOUS
 62
    2
 10
1745.2981
 20
1097.9820999999999
 40
1.018
  0
CIRCLE
  8
_0-3_LAYER005
  6
CONTINUOUS
 62
    2
 10
1718.2970999999998
 20
1130.5005000000001
 40
1.018
  0
CIRCLE
  8
_0-3_LAYER005
  6
CONTINUOUS
 62
    2
 10
1726.5455000000002
 20
1153.3771999999999
 40
1.018
  0
CIRCLE
  8
_0-3_LAYER005
  6
CONTINUOUS
 62
    2
 10
1722.0455000000002
 20
1160.5771999999999
 40
1.018
  0
CIRCLE
  8
_0-3_LAYER005
  6
CONTINUOUS
 62
    2
 10
1737.6702
 20
1121.3298
 40
1.018
  0
CIRCLE
  8
_0-3_LAYER005
  6
CONTINUOUS
 62
    2
 10
1729.0981000000002
 20
1137.3235
 40
1.018
  0
CIRCLE
  8
_0-3_LAYER005
  6
CONTINUOUS
 62
    2
 10
1748.8980999999999
 20
1138.2235000000001
 40
1.018
  0
CIRCLE
  8
_0-3_LAYER005
  6
CONTINUOUS
 62
    2
 10
1761.4991
 20
1162.9014999999999
 40
1.018
  0
CIRCLE
  8
_0-3_LAYER005
  6
CONTINUOUS
 62
    2
 10
1754.2981
 20
1153.0005000000001
 40
1.018
  0
CIRCLE
  8
_0-3_LAYER005
  6
CONTINUOUS
 62
    2
 10
1758.7991000000002
 20
1136.4235000000001
 40
1.018
  0
CIRCLE
  8
_0-3_LAYER005
  6
CONTINUOUS
 62
    2
 10
1751.5981000000002
 20
1126.8995
 40
1.018
  0
LINE
  8
_0-0_LAYER001
  6
CONTINUOUS
 62
    2
 10
1359.0368000000001
 20
954.92280000000005
 11
1360.9779000000001
 21
947.67840000000001
  0
LINE
  8
_0-0_LAYER001
  6
CONTINUOUS
 62
    2
 10
1360.9779000000001
 20
947.67840000000001
 11
1355.6746000000001
 21
952.98170000000005
  0
LINE
  8
_0-0_LAYER001
  6
CONTINUOUS
 62
    2
 10
1360.9779000000001
 20
947.67840000000001
 11
1311.7910999999999
 21
1032.8724
  0
LINE
  8
_0-0_LAYER001
  6
CONTINUOUS
 62
    2
 10
1311.7910999999999
 20
1032.8724
 11
1271.2910999999999
 21
1032.8724
  0
LINE
  8
_0-0_LAYER001
  6
CONTINUOUS
 62
    2
 10
1404.7126000000001
 20
609.67200000000003
 11
1609.5353
 21
609.67200000000003
  0
LINE
  8
_0-0_LAYER001
  6
CONTINUOUS
 62
    2
 10
1329.2535
 20
882.80340000000001
 11
1329.2535
 21
890.30340000000001
  0
LINE
  8
_0-0_LAYER001
  6
CONTINUOUS
 62
    2
 10
1329.2535
 20
890.30340000000001
 11
1333.0035
 21
883.80819999999994
  0
LINE
  8
_0-0_LAYER001
  6
CONTINUOUS
 62
    2
 10
1329.2535
 20
890.30340000000001
 11
1412.3956000000001
 21
580.01279999999997
  0
LINE
  8
_0-1_LAYER003
  6
CONTINUOUS
 62
    7
 10
1087.6891000000001
 20
768.67010000000005
 11
1774.2170999999998
 21
1077.6080999999999
  0
LINE
  8
_0-1_LAYER003
  6
CONTINUOUS
 62
    7
 10
1774.2170999999998
 20
1077.6080999999999
 11
1774.2170999999998
 21
1314.6316999999999
  0
LINE
  8
_0-1_LAYER003
  6
CONTINUOUS
 62
    7
 10
1771.1561000000002
 20
1277.6080999999999
 11
1771.1561000000002
 21
1080.6170999999999
  0
LINE
  8
_0-1_LAYER003
  6
CONTINUOUS
 62
    7
 10
1771.1561000000002
 20
1080.6170999999999
 11
1086.0471
 21
772.31809999999996
  0
LINE
  8
_0-1_LAYER003
  6
CONTINUOUS
 62
    7
 10
1105.8671999999999
 20
802.16080000000011
 11
1112.0227
 21
788.48199999999997
  0
LINE
  8
_0-1_LAYER003
  6
CONTINUOUS
 62
    7
 10
1112.0227
 20
788.48199999999997
 11
1139.3803
 21
800.79289999999992
  0
LINE
  8
_0-1_LAYER003
  6
CONTINUOUS
 62
    7
 10
1139.3803
 20
800.79289999999992
 11
1133.2248
 21
814.47170000000006
  0
LINE
  8
_0-1_LAYER003
  6
CONTINUOUS
 62
    7
 10
1133.2248
 20
814.47170000000006
 11
1105.8671999999999
 21
802.16080000000011
  0
LINE
  8
_0-1_LAYER003
  6
CONTINUOUS
 62
    7
 10
1112.0227
 20
788.48199999999997
 11
1133.2248
 21
814.47170000000006
  0
LINE
  8
_0-1_LAYER003
  6
CONTINUOUS
 62
    7
 10
1311.6347999999998
 20
894.75630000000001
 11
1338.9924000000001
 21
907.06719999999996
  0
LINE
  8
_0-1_LAYER003
  6
CONTINUOUS
 62
    7
 10
1338.9924000000001
 20
907.06719999999996
 11
1345.1478999999999
 21
893.38840000000005
  0
LINE
  8
_0-1_LAYER003
  6
CONTINUOUS
 62
    7
 10
1345.1478999999999
 20
893.38840000000005
 11
1317.7902999999997
 21
881.0775000000001
  0
LINE
  8
_0-1_LAYER003
  6
CONTINUOUS
 62
    7
 10
1311.6347999999998
 20
894.75630000000001
 11
1317.7902999999997
 21
881.0775000000001
  0
LINE
  8
_0-1_LAYER003
  6
CONTINUOUS
 62
    7
 10
1317.7902999999997
 20
881.0775000000001
 11
1338.9924000000001
 21
907.06719999999996
  0
LINE
  8
_0-1_LAYER003
  6
CONTINUOUS
 62
    7
 10
1329.2535
 20
890.30340000000001
 11
1329.2535
 21
882.80340000000001
  0
LINE
  8
_0-1_LAYER003
  6
CONTINUOUS
 62
    7
 10
1329.2535
 20
890.30340000000001
 11
1333.0035
 21
883.80819999999994
  0
LINE
  8
_0-1_LAYER003
  6
CONTINUOUS
 62
    7
 10
1329.2535
 20
890.30340000000001
 11
1412.3956000000001
 21
580.01279999999997
  0
LINE
  8
_0-1_LAYER003
  6
CONTINUOUS
 62
    7
 10
1609.5353
 20
609.67200000000003
 11
1404.7126000000001
 21
609.67200000000003
  0
LINE
  8
_0-1_LAYER003
  6
CONTINUOUS
 62
    7
 10
1136.9331
 20
659.24009999999998
 11
1774.2170999999998
 21
946.0181
  0
LINE
  8
_0-1_LAYER003
  6
CONTINUOUS
 62
    7
 10
1774.2170999999998
 20
946.0181
 11
1774.2170999999998
 21
767.86830000000009
  0
LINE
  8
_0-1_LAYER003
  6
CONTINUOUS
 62
    7
 10
1230.8432393361638
 20
701.49969217326407
 11
1265.4725000000001
 21
848.67270000000008
  0
LINE
  8
_0-1_LAYER003
  6
CONTINUOUS
 62
    7
 10
1274.6643999999999
 20
852.80899999999997
 11
1240.0351000000001
 21
705.63609999999994
  0
LINE
  8
_0-1_LAYER003
  6
CONTINUOUS
 62
    7
 10
1249.227188218671
 20
709.77247493986044
 11
1283.855
 21
856.94479999999999
  0
LINE
  8
_0-1_LAYER003
  6
CONTINUOUS
 62
    7
 10
1554.2711607833382
 20
847.04235832646702
 11
1588.9005000000002
 21
994.21550000000002
  0
LINE
  8
_0-1_LAYER003
  6
CONTINUOUS
 62
    7
 10
1598.0927000000001
 20
998.35200000000009
 11
1563.4630999999999
 21
851.17910000000006
  0
LINE
  8
_0-1_LAYER003
  6
CONTINUOUS
 62
    7
 10
1572.6551096694218
 20
855.31514109467275
 11
1607.2843967731274
 21
1002.4882862859147
  0
LINE
  8
_0-1_LAYER003
  6
CONTINUOUS
 62
    7
 10
1517.3906999999999
 20
987.34660000000008
 11
1523.5576999999998
 21
973.67290000000003
  0
LINE
  8
_0-1_LAYER003
  6
CONTINUOUS
 62
    7
 10
1523.5576999999998
 20
973.67290000000003
 11
1550.9049
 21
986.00690000000009
  0
LINE
  8
_0-1_LAYER003
  6
CONTINUOUS
 62
    7
 10
1550.9049
 20
986.00690000000009
 11
1544.7379000000001
 21
999.68059999999991
  0
LINE
  8
_0-1_LAYER003
  6
CONTINUOUS
 62
    7
 10
1544.7379000000001
 20
999.68059999999991
 11
1517.3906999999999
 21
987.34660000000008
  0
LINE
  8
_0-1_LAYER003
  6
CONTINUOUS
 62
    7
 10
1523.5576999999998
 20
973.67290000000003
 11
1544.7379000000001
 21
999.68059999999991
  0
LINE
  8
_0-1_LAYER003
  6
CONTINUOUS
 62
    7
 10
1360.9779000000001
 20
947.67840000000001
 11
1359.0368000000001
 21
954.92280000000005
  0
LINE
  8
_0-1_LAYER003
  6
CONTINUOUS
 62
    7
 10
1360.9779000000001
 20
947.67840000000001
 11
1355.6746000000001
 21
952.98170000000005
  0
LINE
  8
_0-1_LAYER003
  6
CONTINUOUS
 62
    7
 10
1360.9779000000001
 20
947.67840000000001
 11
1311.7910999999999
 21
1032.8724
  0
LINE
  8
_0-1_LAYER003
  6
CONTINUOUS
 62
    7
 10
1311.7910999999999
 20
1032.8724
 11
1271.2910999999999
 21
1032.8724
  0
LINE
  8
_0-1_LAYER003
  6
CONTINUOUS
 62
    7
 10
1225.6622
 20
1045.0331000000001
 11
1197.798345946273
 21
1121.8347517126726
  0
LINE
  8
_0-1_LAYER003
  6
CONTINUOUS
 62
    7
 10
1208.6096417614078
 20
1092.0353788708676
 11
968.89830000000006
 21
1005.0673999999999
  0
LINE
  8
_0-1_LAYER003
  6
CONTINUOUS
 62
    7
 10
968.31844545773356
 20
1006.6654515354057
 11
985.95080000000007
 21
958.06510000000003
  0
LINE
  8
_0-1_LAYER003
  6
CONTINUOUS
 62
    7
 10
1198.3782000000001
 20
1120.2366999999999
 11
1409.8882000000001
 21
1196.9731999999999
  0
LINE
  8
_0-1_LAYER003
  6
CONTINUOUS
 62
    7
 10
1399.0769329676666
 20
1226.7725832857582
 11
1426.9408000000001
 21
1149.9709
  0
LINE
  8
_0-1_LAYER003
  6
CONTINUOUS
 62
    7
 10
1399.6567195163859
 20
1225.1745070805991
 11
1676.9699000000001
 21
1325.7845
  0
LINE
  8
_0-1_LAYER003
  6
CONTINUOUS
 62
    7
 10
1676.3901343142061
 20
1327.3825837742672
 11
1694.0225
 21
1278.7823000000001
  0
LINE
  8
_0-1_LAYER003
  6
CONTINUOUS
 62
    7
 10
1366.4933000000001
 20
1371.4762999999998
 11
1600.4933000000001
 21
1371.4762999999998
  0
LINE
  8
_0-1_LAYER003
  6
CONTINUOUS
 62
    7
 10
1600.4933000000001
 20
1371.4762999999998
 11
1708.686952999939
 21
1184.1294014537091
  0
LINE
  8
_0-1_LAYER003
  6
CONTINUOUS
 62
    7
 10
1708.686952999939
 20
1184.1294014537091
 11
1706.7707
 21
1191.2808
  0
LINE
  8
_0-1_LAYER003
  6
CONTINUOUS
 62
    7
 10
1708.686952999939
 20
1184.1294014537091
 11
1703.4086000000002
 21
1189.3396
  0
LINE
  8
_0-1_LAYER003
  6
CONTINUOUS
 62
    7
 10
1687.1251999999999
 20
1164.1806999999999
 11
1685.1840999999999
 21
1171.4250999999999
  0
LINE
  8
_0-1_LAYER003
  6
CONTINUOUS
 62
    7
 10
1687.1251999999999
 20
1164.1806999999999
 11
1681.8218999999999
 21
1169.4839999999999
  0
LINE
  8
_0-1_LAYER003
  6
CONTINUOUS
 62
    7
 10
1687.1251999999999
 20
1164.1806999999999
 11
1589.1813000000002
 21
1333.8245000000002
  0
LINE
  8
_0-1_LAYER003
  6
CONTINUOUS
 62
    7
 10
1589.1813000000002
 20
1333.8245000000002
 11
1442.1813000000002
 21
1333.8245000000002
  0
LINE
  8
_0-1_LAYER003
  6
CONTINUOUS
 62
    7
 10
1442.1813000000002
 20
1333.8245000000002
 11
1589.1813000000002
 21
1333.8245000000002
  0
LINE
  8
_0-1_LAYER003
  6
CONTINUOUS
 62
    7
 10
1656.0841
 20
1293.002
 11
1656.0841
 21
1368.7397000000001
  0
LINE
  8
_0-1_LAYER003
  6
CONTINUOUS
 62
    7
 10
1656.0841
 20
1367.0397
 11
1749.2170999999998
 21
1367.0397
  0
LINE
  8
_0-1_LAYER003
  6
CONTINUOUS
 62
    7
 10
1749.2170999999998
 20
1314.6316999999999
 11
1774.2170999999998
 21
1314.6316999999999
  0
LINE
  8
_0-1_LAYER003
  6
CONTINUOUS
 62
    7
 10
1770.1621
 20
1295.5957000000001
 11
1749.2170999999998
 21
1295.5957000000001
  0
LINE
  8
_0-1_LAYER003
  6
CONTINUOUS
 62
    7
 10
1757.7872000000002
 20
1304.1181000000001
 11
1756.4692521570546
 21
1306.4008521570545
  0
LINE
  8
_0-1_LAYER003
  6
CONTINUOUS
 62
    7
 10
1757.7872000000002
 20
1304.1181000000001
 11
1677.4731999999999
 21
1443.2260000000001
  0
LINE
  8
_0-1_LAYER003
  6
CONTINUOUS
 62
    7
 10
1677.4731999999999
 20
1443.2260000000001
 11
1596.4731999999999
 21
1443.2260000000001
  0
LINE
  8
_0-1_LAYER003
  6
CONTINUOUS
 62
    7
 10
1749.2170999999998
 20
1314.6316999999999
 11
1749.2170999999998
 21
1519.9871000000003
  0
LINE
  8
_0-1_LAYER003
  6
CONTINUOUS
 62
    7
 10
1749.2170999999998
 20
1444.4321
 11
1824.7710999999999
 21
1519.9871000000003
  0
LINE
  8
_0-1_LAYER003
  6
CONTINUOUS
 62
    7
 10
1749.2170999999998
 20
1433.1190999999999
 11
1836.0850999999998
 21
1519.9871000000003
  0
LINE
  8
_0-1_LAYER003
  6
CONTINUOUS
 62
    7
 10
1749.2170999999998
 20
1421.8051
 11
1847.3991000000001
 21
1519.9871000000003
  0
LINE
  8
_0-1_LAYER003
  6
CONTINUOUS
 62
    7
 10
1770.1621
 20
1295.5957000000001
 11
1770.1621
 21
1314.6316999999999
  0
LINE
  8
_0-1_LAYER003
  6
CONTINUOUS
 62
    7
 10
1764.7001
 20
1295.5957000000001
 11
1764.7001
 21
1314.6316999999999
  0
LINE
  8
_0-1_LAYER003
  6
CONTINUOUS
 62
    7
 10
1764.7001
 20
1314.6316999999999
 11
1770.1621
 21
1295.5957000000001
  0
LINE
  8
_0-1_LAYER003
  6
CONTINUOUS
 62
    7
 10
1764.7001
 20
1295.5957000000001
 11
1770.1621
 21
1314.6316999999999
  0
ARC
  8
_0-1_LAYER003
  6
CONTINUOUS
 62
    7
 10
1732.3973149209442
 20
1304.2282641789529
 40
20.69473948787348
 50
335.49267189620588
 51
29.732209103794276
  0
LINE
  8
_0-1_LAYER003
  6
CONTINUOUS
 62
    7
 10
1749.2170999999998
 20
1295.5957000000001
 11
1749.2170999999998
 21
1195.5957000000001
  0
LINE
  8
_0-1_LAYER003
  6
CONTINUOUS
 62
    7
 10
1749.2170999999998
 20
1195.5957000000001
 11
1659.5646000000002
 21
1170.2322999999999
  0
LINE
  8
_0-1_LAYER003
  6
CONTINUOUS
 62
    7
 10
1659.5646000000002
 20
1170.2322999999999
 11
1657.8094000000001
 21
1144.3135
  0
LINE
  8
_0-1_LAYER003
  6
CONTINUOUS
 62
    7
 10
1657.8094000000001
 20
1144.3135
 11
1662.1532000000002
 21
1150.3432
  0
LINE
  8
_0-1_LAYER003
  6
CONTINUOUS
 62
    7
 10
1669.1547999999998
 20
1168.9963
 11
1673.2381
 21
1154.5627999999999
  0
LINE
  8
_0-1_LAYER003
  6
CONTINUOUS
 62
    7
 10
1673.2381
 20
1154.5627999999999
 11
1774.2727
 21
1183.1463000000001
  0
LINE
  8
_0-1_LAYER003
  6
CONTINUOUS
 62
    7
 10
1774.2170999999998
 20
1183.3428280403591
 11
1770.1893
 21
1197.5798
  0
LINE
  8
_0-1_LAYER003
  6
CONTINUOUS
 62
    7
 10
1770.1893
 20
1197.5798
 11
1669.1547999999998
 21
1168.9963
  0
LINE
  8
_0-1_LAYER003
  6
CONTINUOUS
 62
    7
 10
1673.2381
 20
1154.5627999999999
 11
1770.1893
 21
1197.5798
  0
LINE
  8
_0-1_LAYER003
  6
CONTINUOUS
 62
    7
 10
1741.9782
 20
1190.0426
 11
1750.0488999999998
 21
1193.8053
  0
LINE
  8
_0-1_LAYER003
  6
CONTINUOUS
 62
    7
 10
1750.0488999999998
 20
1193.8053
 11
1748.3665000000001
 21
1191.2607
  0
LINE
  8
_0-1_LAYER003
  6
CONTINUOUS
 62
    7
 10
1748.3665000000001
 20
1191.2607
 11
1759.7772
 21
1166.7879
  0
LINE
  8
_0-1_LAYER003
  6
CONTINUOUS
 62
    7
 10
1759.7772
 20
1166.7879
 11
1761.8742999999999
 21
1158.1537000000001
  0
LINE
  8
_0-1_LAYER003
  6
CONTINUOUS
 62
    7
 10
1761.8742999999999
 20
1158.1537000000001
 11
1756.4180000000001
 21
1165.2216000000001
  0
LINE
  8
_0-1_LAYER003
  6
CONTINUOUS
 62
    7
 10
1756.4180000000001
 20
1165.2216000000001
 11
1745.0070000000001
 21
1189.6958999999999
  0
LINE
  8
_0-1_LAYER003
  6
CONTINUOUS
 62
    7
 10
1745.0070000000001
 20
1189.6958999999999
 11
1741.9782
 21
1190.0426
  0
LINE
  8
_0-1_LAYER003
  6
CONTINUOUS
 62
    7
 10
1747.9722999999999
 20
1175.576
 11
1774.4683
 21
1140.2479000000001
  0
LINE
  8
_0-1_LAYER003
  6
CONTINUOUS
 62
    7
 10
1774.4683
 20
1140.2479000000001
 11
1744.4683
 21
1140.2479000000001
  0
LINE
  8
_0-1_LAYER003
  6
CONTINUOUS
 62
    7
 10
1744.4683
 20
1140.2479000000001
 11
1744.4683
 21
1174.7143958067832
  0
LINE
  8
_0-1_LAYER003
  6
CONTINUOUS
 62
    7
 10
1764.0279
 20
1180.2479000000001
 11
1774.2170999999998
 21
1180.2479000000001
  0
LINE
  8
_0-1_LAYER003
  6
CONTINUOUS
 62
    7
 10
1744.4683
 20
1166.248
 11
1750.4681999999998
 21
1163.2479000000001
  0
LINE
  8
_0-1_LAYER003
  6
CONTINUOUS
 62
    7
 10
1750.4681999999998
 20
1163.2479000000001
 11
1750.4681999999998
 21
1157.248
  0
LINE
  8
_0-1_LAYER003
  6
CONTINUOUS
 62
    7
 10
1750.4681999999998
 20
1157.248
 11
1744.4683
 21
1154.2479000000001
  0
LINE
  8
_0-1_LAYER003
  6
CONTINUOUS
 62
    7
 10
1750.4681999999998
 20
1157.248
 11
1774.2170999999998
 21
1157.248
  0
LINE
  8
_0-1_LAYER003
  6
CONTINUOUS
 62
    7
 10
1750.4681999999998
 20
1163.2479000000001
 11
1774.4683
 21
1163.2479000000001
  0
LINE
  8
_0-1_LAYER003
  6
CONTINUOUS
 62
    7
 10
1767.1116999999999
 20
1153.0728999999999
 11
1765.1705000000002
 21
1160.3172999999999
  0
LINE
  8
_0-1_LAYER003
  6
CONTINUOUS
 62
    7
 10
1765.1705000000002
 20
1160.3172999999999
 11
1770.4738000000002
 21
1155.0139999999999
  0
LINE
  8
_0-1_LAYER003
  6
CONTINUOUS
 62
    7
 10
1774.4683
 20
1164.498
 11
1774.4683
 21
1155.9979000000001
  0
LINE
  8
_0-1_LAYER003
  6
CONTINUOUS
 62
    7
 10
1774.2170999999998
 20
1157.248
 11
1774.4683
 21
1157.248
  0
LINE
  8
_0-1_LAYER003
  6
CONTINUOUS
 62
    7
 10
1774.4683
 20
1155.9979000000001
 11
1792.6682000000001
 21
1155.9979000000001
  0
LINE
  8
_0-1_LAYER003
  6
CONTINUOUS
 62
    7
 10
1792.6682000000001
 20
1155.9979000000001
 11
1801.5882000000001
 21
1154.4259999999999
  0
LINE
  8
_0-1_LAYER003
  6
CONTINUOUS
 62
    7
 10
1801.5882000000001
 20
1154.4259999999999
 11
1801.8842
 21
1156.0989999999999
  0
LINE
  8
_0-1_LAYER003
  6
CONTINUOUS
 62
    7
 10
1801.8842
 20
1156.0989999999999
 11
1803.5581999999999
 21
1155.8039000000001
  0
LINE
  8
_0-1_LAYER003
  6
CONTINUOUS
 62
    7
 10
1803.5581999999999
 20
1155.8039000000001
 11
1803.2620999999999
 21
1154.1310000000001
  0
LINE
  8
_0-1_LAYER003
  6
CONTINUOUS
 62
    7
 10
1803.2620999999999
 20
1154.1310000000001
 11
1805.9212000000002
 21
1153.662
  0
LINE
  8
_0-1_LAYER003
  6
CONTINUOUS
 62
    7
 10
1805.9212000000002
 20
1153.662
 11
1806.217269752068
 21
1155.3348290956092
  0
LINE
  8
_0-1_LAYER003
  6
CONTINUOUS
 62
    7
 10
1806.217269752068
 20
1155.3348290956092
 11
1807.8901999999998
 21
1155.04
  0
LINE
  8
_0-1_LAYER003
  6
CONTINUOUS
 62
    7
 10
1807.8901999999998
 20
1155.04
 11
1807.5952000000002
 21
1153.367
  0
LINE
  8
_0-1_LAYER003
  6
CONTINUOUS
 62
    7
 10
1807.5952000000002
 20
1153.367
 11
1810.2543000000001
 21
1152.8979999999999
  0
LINE
  8
_0-1_LAYER003
  6
CONTINUOUS
 62
    7
 10
1810.2543000000001
 20
1152.8979999999999
 11
1810.550169783568
 21
1154.5707291684043
  0
LINE
  8
_0-1_LAYER003
  6
CONTINUOUS
 62
    7
 10
1810.550169783568
 20
1154.5707291684043
 11
1812.2233000000001
 21
1154.2760000000001
  0
LINE
  8
_0-1_LAYER003
  6
CONTINUOUS
 62
    7
 10
1812.2233000000001
 20
1154.2760000000001
 11
1811.9281999999998
 21
1152.6030000000001
  0
LINE
  8
_0-1_LAYER003
  6
CONTINUOUS
 62
    7
 10
1811.9281999999998
 20
1152.6030000000001
 11
1811.9281999999998
 21
1152.6020000000001
  0
LINE
  8
_0-1_LAYER003
  6
CONTINUOUS
 62
    7
 10
1811.9281999999998
 20
1152.6030000000001
 11
1813.4002068191865
 21
1152.3474791172678
  0
LINE
  8
_0-1_LAYER003
  6
CONTINUOUS
 62
    7
 10
1813.4002068191865
 20
1152.3474791172678
 11
1815.1442999999999
 21
1153.5581
  0
LINE
  8
_0-1_LAYER003
  6
CONTINUOUS
 62
    7
 10
1815.1442999999999
 20
1153.5581
 11
1815.5421999999999
 21
1155.8230000000001
  0
LINE
  8
_0-1_LAYER003
  6
CONTINUOUS
 62
    7
 10
1815.5421999999999
 20
1155.8230000000001
 11
1790.4443000000001
 21
1160.249
  0
LINE
  8
_0-1_LAYER003
  6
CONTINUOUS
 62
    7
 10
1790.4443000000001
 20
1160.249
 11
1815.7172
 21
1164.7049
  0
LINE
  8
_0-1_LAYER003
  6
CONTINUOUS
 62
    7
 10
1815.7172
 20
1164.7049
 11
1815.3122313622889
 21
1166.977005799645
  0
LINE
  8
_0-1_LAYER003
  6
CONTINUOUS
 62
    7
 10
1815.3122313622889
 20
1166.977005799645
 11
1813.5802411389068
 21
1168.1877593242559
  0
LINE
  8
_0-1_LAYER003
  6
CONTINUOUS
 62
    7
 10
1813.5802411389068
 20
1168.1877593242559
 11
1812.1023
 21
1167.9249
  0
LINE
  8
_0-1_LAYER003
  6
CONTINUOUS
 62
    7
 10
1812.1023
 20
1167.9249
 11
1812.3982000000001
 21
1166.2519
  0
LINE
  8
_0-1_LAYER003
  6
CONTINUOUS
 62
    7
 10
1812.3982000000001
 20
1166.2519
 11
1810.7240999999999
 21
1165.9570000000001
  0
LINE
  8
_0-1_LAYER003
  6
CONTINUOUS
 62
    7
 10
1810.7240999999999
 20
1165.9570000000001
 11
1810.4281999999998
 21
1167.6310000000001
  0
LINE
  8
_0-1_LAYER003
  6
CONTINUOUS
 62
    7
 10
1810.4281999999998
 20
1167.6310000000001
 11
1807.7693715202536
 21
1167.1611302531023
  0
LINE
  8
_0-1_LAYER003
  6
CONTINUOUS
 62
    7
 10
1807.7693715202536
 20
1167.1611302531023
 11
1808.0641999999998
 21
1165.4880000000001
  0
LINE
  8
_0-1_LAYER003
  6
CONTINUOUS
 62
    7
 10
1808.0641999999998
 20
1165.4880000000001
 11
1806.3912
 21
1165.193
  0
LINE
  8
_0-1_LAYER003
  6
CONTINUOUS
 62
    7
 10
1806.3912
 20
1165.193
 11
1806.0952000000002
 21
1166.8669
  0
LINE
  8
_0-1_LAYER003
  6
CONTINUOUS
 62
    7
 10
1806.0952000000002
 20
1166.8669
 11
1803.4362000000001
 21
1166.3969
  0
LINE
  8
_0-1_LAYER003
  6
CONTINUOUS
 62
    7
 10
1803.4362000000001
 20
1166.3969
 11
1803.7311
 21
1164.7239999999999
  0
LINE
  8
_0-1_LAYER003
  6
CONTINUOUS
 62
    7
 10
1803.7321999999999
 20
1164.7239999999999
 11
1802.0581999999999
 21
1164.4289000000001
  0
LINE
  8
_0-1_LAYER003
  6
CONTINUOUS
 62
    7
 10
1802.0581999999999
 20
1164.4289000000001
 11
1801.7620999999999
 21
1166.1030000000001
  0
LINE
  8
_0-1_LAYER003
  6
CONTINUOUS
 62
    7
 10
1801.7620999999999
 20
1166.1030000000001
 11
1792.6682000000001
 21
1164.498
  0
LINE
  8
_0-1_LAYER003
  6
CONTINUOUS
 62
    7
 10
1792.6682000000001
 20
1164.498
 11
1774.4683
 21
1164.498
  0
LINE
  8
_0-1_LAYER003
  6
CONTINUOUS
 62
    7
 10
1765.1705000000002
 20
1160.3172999999999
 11
1802.8218999999999
 21
1095.1033
  0
LINE
  8
_0-1_LAYER003
  6
CONTINUOUS
 62
    7
 10
1802.8218999999999
 20
1095.1033
 11
1949.8218999999999
 21
1095.1033
  0
LINE
  8
_0-1_LAYER003
  6
CONTINUOUS
 62
    7
 10
1928.8533000000002
 20
1077.6080999999999
 11
1980.5533000000003
 21
1077.6080999999999
  0
LINE
  8
_0-1_LAYER003
  6
CONTINUOUS
 62
    7
 10
1978.8533000000002
 20
1077.6080999999999
 11
1978.8533000000002
 21
1277.6080999999999
  0
LINE
  8
_0-1_LAYER003
  6
CONTINUOUS
 62
    7
 10
1978.8533000000002
 20
1277.6080999999999
 11
1980.5533000000003
 21
1277.6080999999999
  0
LINE
  8
_0-1_LAYER003
  6
CONTINUOUS
 62
    7
 10
1977.1533000000002
 20
1277.6080999999999
 11
1978.8533000000002
 21
1277.6080999999999
  0
LINE
  8
_0-1_LAYER003
  6
CONTINUOUS
 62
    7
 10
1977.1533000000002
 20
1277.6080999999999
 11
1928.8533000000002
 21
1277.6080999999999
  0
LINE
  8
_0-1_LAYER003
  6
CONTINUOUS
 62
    7
 10
1749.8449000000001
 20
1113.1291000000001
 11
1751.7860000000001
 21
1105.8847000000001
  0
LINE
  8
_0-1_LAYER003
  6
CONTINUOUS
 62
    7
 10
1749.8449000000001
 20
1113.1291000000001
 11
1755.1482000000001
 21
1107.8258000000001
  0
LINE
  8
_0-1_LAYER003
  6
CONTINUOUS
 62
    7
 10
1749.8449000000001
 20
1113.1291000000001
 11
1819.6406999999999
 21
992.23919999999998
  0
LINE
  8
_0-1_LAYER003
  6
CONTINUOUS
 62
    7
 10
1819.6406999999999
 20
992.23919999999998
 11
1898.3220999999999
 21
992.23919999999998
  0
LINE
  8
_0-1_LAYER003
  6
CONTINUOUS
 62
    7
 10
1723.0798
 20
1079.9068
 11
1729.2352999999998
 21
1066.2280000000001
  0
LINE
  8
_0-1_LAYER003
  6
CONTINUOUS
 62
    7
 10
1729.2352999999998
 20
1066.2280000000001
 11
1756.5929000000001
 21
1078.5389
  0
LINE
  8
_0-1_LAYER003
  6
CONTINUOUS
 62
    7
 10
1756.5929000000001
 20
1078.5389
 11
1750.4373999999998
 21
1092.2176999999999
  0
LINE
  8
_0-1_LAYER003
  6
CONTINUOUS
 62
    7
 10
1750.4373999999998
 20
1092.2176999999999
 11
1723.0798
 21
1079.9068
  0
LINE
  8
_0-1_LAYER003
  6
CONTINUOUS
 62
    7
 10
1729.2352999999998
 20
1066.2280000000001
 11
1750.4373999999998
 21
1092.2176999999999
  0
ARC
  8
_0-1_LAYER003
  6
CONTINUOUS
 62
    7
 10
1453.4915836847053
 20
1099.700776670609
 40
232.76343425639669
 50
357.24390240180571
 51
13.934431598194349
  0
LINE
  8
_0-1_LAYER003
  6
CONTINUOUS
 62
    7
 10
1832.4807999999998
 20
1195.5957000000001
 11
1859.1807999999996
 21
1195.5957000000001
  0
LINE
  8
_0-1_LAYER003
  6
CONTINUOUS
 62
    7
 10
1857.4807999999998
 20
1195.5957000000001
 11
1857.4807999999998
 21
1315.5957000000001
  0
LINE
  8
_0-1_LAYER003
  6
CONTINUOUS
 62
    7
 10
1859.1807999999996
 20
1315.5957000000001
 11
1832.4807999999998
 21
1315.5957000000001
  0
LINE
  8
_0-1_LAYER003
  6
CONTINUOUS
 62
    7
 10
1832.4807999999998
 20
1295.5957000000001
 11
1859.1807999999996
 21
1295.5957000000001
  0
TEXT
  8
_0-0_LAYER001
 62
    7
 10
524.624273352513
 20
1204.403324436712
 40
15
 41
0.5
 50
0
  1
　
  0
TEXT
  8
_0-2_LAYER004
 62
    7
 10
1572.9450017546596
 20
1448.7924314505415
 40
20
 41
1
 50
0
  1
シーリング
  0
TEXT
  8
_0-2_LAYER004
 62
    7
 10
1442.7042450908589
 20
1338.9815974006706
 40
20
 41
1
 50
0
  1
笠木：15x105
  0
TEXT
  8
_0-2_LAYER004
 62
    7
 10
1266.4961625457172
 20
1374.7339619750471
 40
20
 41
1
 50
0
  1
雨押水切カラー鋼板0.35ｍｍ以上
  0
TEXT
  8
_0-2_LAYER004
 62
    7
 10
2012.1883379541437
 20
1052.9626808056576
 40
20
 41
1
 50
90
  1
下葺き材立上がり寸法
  0
TEXT
  8
_0-2_LAYER004
 62
    7
 10
1846.1952167159666
 20
1226.6170230240582
 40
20
 41
1
 50
90
  1
100
  0
TEXT
  8
_0-2_LAYER004
 62
    7
 10
1846.1952167159666
 20
1295.5680118460702
 40
20
 41
1
 50
90
  1
20
  0
TEXT
  8
_0-2_LAYER004
 62
    7
 10
1956.0060507658375
 20
1160.2197745287874
 40
20
 41
1
 50
90
  1
200
  0
TEXT
  8
_0-2_LAYER004
 62
    7
 10
1887.0550619438256
 20
1157.6660342020464
 40
20
 41
1
 50
90
  1
水切り立上がり寸法
  0
TEXT
  8
_0-2_LAYER004
 62
    7
 10
1823.2115537752957
 20
999.33413394409263
 40
20
 41
1
 50
0
  1
葺き土
  0
TEXT
  8
_0-2_LAYER004
 62
    7
 10
1802.7816311613662
 20
1101.4837470137402
 40
20
 41
1
 50
0
  1
下地：40x30
  0
TEXT
  8
_0-2_LAYER004
 62
    7
 10
1676.1506478853003
 20
1374.6044484864346
 40
20
 41
1
 50
0
  1
90
  0
TEXT
  8
_0-2_LAYER004
 62
    7
 10
1407.6758277092385
 20
617.07009101668302
 40
20
 41
1
 50
0
  1
瓦桟：15x30以上
  0
TEXT
  8
_0-2_LAYER004
 62
    7
 10
1236.4324288942375
 20
1035.0200813448218
 40
20
 41
1
 50
0
  1
桟　瓦
  0
TEXT
  8
_0-2_LAYER004
 62
    7
 10
1509.1118102719454
 20
1280.9774759113463
 40
20
 41
1
 50
20.060506999999951
  1
295
  0
TEXT
  8
_0-2_LAYER004
 62
    7
 10
1068.1990278874171
 20
1055.1766873568452
 40
20
 41
1
 50
20.060507000000548
  1
255
  0
TEXT
  8
_0-2_LAYER004
 62
    7
 10
1284.6471210580034
 20
1167.4090319638162
 40
20
 41
1
 50
20.060506999999781
  1
225
  0
LINE
  8
_0-2_LAYER004
  6
CONTINUOUS
 62
    7
 10
1366.4933000000001
 20
1371.4762999999998
 11
1276.4934186466169
 21
1371.4762999999998
  0
LINE
  8
_0-2_LAYER004
  6
CONTINUOUS
 62
    7
 10
1596.4731999999999
 20
1443.2260000000001
 11
1565.0908762073993
 21
1443.2260000000001
  0
LINE
  8
_0-2_LAYER004
  6
CONTINUOUS
 62
    7
 10
1271.2910999999999
 20
1032.8724
 11
1236.4104384298416
 21
1032.8724
  0
TEXT
  8
_0-2_LAYER004
 62
    7
 10
1410.5782581976287
 20
583.69214040019961
 40
20
 41
1
 50
0
  1
下葺材：ルーフィング
  0
LINE
  8
_0-2_LAYER004
  6
CONTINUOUS
 62
    7
 10
1412.3956000000001
 20
580.01279999999997
 11
1641.1256251157547
 21
580.01279999999997
  0
ENDSEC
  0
EOF
