  0
SECTION
  2
HEADER
  9
$ACADVER
  1
AC1009
  9
$INSBASE
 10
0
 20
0
 30
0
  9
$EXTMIN
 10
0
 20
0
  9
$EXTMAX
 10
2970
 20
2100
  9
$LIMMIN
 10
0
 20
0
  9
$LIMMAX
 10
2970
 20
2100
  9
$LTSCALE
 40
10
  0
ENDSEC
  0
SECTION
  2
TABLES
  0
TABLE
  2
LTYPE
 70
     9
  0
LTYPE
  2
CONTINUOUS
 70
    64
  3
実線
 72
    65
 73
     0
 40
0.0
  0
LTYPE
  2
DASHED1
 70
    64
  3
--  --  --  --  --  --  --  --  
 72
    65
 73
     2
 40
2.5
 49
1.25
 49
-1.25
  0
LTYPE
  2
DASHED2
 70
    64
  3
----    ----    ----    ----    
 72
    65
 73
     2
 40
5.0
 49
2.5
 49
-2.5
  0
LTYPE
  2
DASHED3
 70
    64
  3
------  ------  ------  ------  
 72
    65
 73
     2
 40
5.0
 49
3.75
 49
-1.25
  0
LTYPE
  2
CENTER1
 70
    64
  3
----- - ----- - ----- - ----- - 
 72
    65
 73
     4
 40
10.0
 49
6.25
 49
-1.25
 49
1.25
 49
-1.25
  0
LTYPE
  2
CENTER2
 70
    64
  3
----------  --  ----------  --  
 72
    65
 73
     4
 40
20.0
 49
12.5
 49
-2.5
 49
2.5
 49
-2.5
  0
LTYPE
  2
PHANTOM1
 70
    64
  3
--- - - --- - - --- - - --- - - 
 72
    65
 73
     6
 40
10.0
 49
3.25
 49
-1.25
 49
1.25
 49
-1.25
 49
1.25
 49
-1.25
  0
LTYPE
  2
PHANTOM2
 70
    64
  3
--------  -  -  --------  -  -  
 72
    65
 73
     6
 40
20.0
 49
10.0
 49
-2.5
 49
1.25
 49
-2.5
 49
1.25
 49
-2.5
  0
LTYPE
  2
DOT
 70
    64
  3
-   -   -   -   -   -   -   -   
 72
    65
 73
     2
 40
2.5
 49
0.625
 49
-1.875
  0
LTYPE
  2
DUMMY
 70
    64
  3
ダミー
 72
    65
 73
     0
 40
0.0
  0
LTYPE
  2
RAND1
 70
    64
  3
ランダム線1
 72
    65
 73
     4
 40
10.0
 49
1.0
 49
-2.0
 49
3.0
 49
-4.0
  0
LTYPE
  2
RAND2
 70
    64
  3
ランダム線2
 72
    65
 73
     4
 40
14.0
 49
2.0
 49
-3.0
 49
4.0
 49
-5.0
  0
LTYPE
  2
RAND3
 70
    64
  3
ランダム線3
 72
    65
 73
     4
 40
18.0
 49
3.0
 49
-4.0
 49
5.0
 49
-6.0
  0
LTYPE
  2
RAND4
 70
    64
  3
ランダム線4
 72
    65
 73
     4
 40
22.0
 49
4.0
 49
-5.0
 49
6.0
 49
-7.0
  0
LTYPE
  2
RAND5
 70
    64
  3
ランダム線5
 72
    65
 73
     4
 40
26.0
 49
5.0
 49
-6.0
 49
7.0
 49
-8.0
  0
LTYPE
  2
LONG1
 70
    64
  3
----------  --  ----------  --  
 72
    65
 73
     4
 40
40.0
 49
32.5
 49
-2.5
 49
2.5
 49
-2.5
  0
LTYPE
  2
LONG2
 70
    64
  3
--------  -  -  --------  -  -  
 72
    65
 73
     6
 40
40.0
 49
30.0
 49
-2.5
 49
1.25
 49
-2.5
 49
1.25
 49
-2.5
  0
LTYPE
  2
LONG3
 70
    64
  3
+++++++++++++++..+++++++++++++++
 72
    65
 73
     2
 40
40.0
 49
37.5
 49
-2.5
  0
LTYPE
  2
LONG4
 70
    64
  3
+++++++++++++++..+++++++++++++++
 72
    65
 73
     2
 40
80.0
 49
75.0
 49
-5.0
  0
LTYPE
  2
LONG5
 70
    64
  3
----------  --  ----------  --  
 72
    65
 73
     4
 40
60.0
 49
37.5
 49
-7.5
 49
7.5
 49
-7.5
  0
LTYPE
  2
dashed
 70
   64
  3
-------   -------------   ------
 72
   65
 73
    2
 40
7.5
 49
6
 49
-1.5
  0
LTYPE
  2
dashed_spaced
 70
   64
  3
----        --------        ----
 72
   65
 73
    2
 40
12
 49
6
 49
-6
  0
LTYPE
  2
long_dashed_dotted
 70
   64
  3
------------- --- --------------
 72
   65
 73
    4
 40
15.25
 49
12
 49
-1.5
 49
0.25
 49
-1.5
  0
LTYPE
  2
long_dashed_double-dotted
 70
   64
  3
----------- --- --- ------------
 72
   65
 73
    6
 40
17
 49
12
 49
-1.5
 49
0.25
 49
-1.5
 49
0.25
 49
-1.5
  0
LTYPE
  2
long_dashed_triplicate-dotted
 70
   64
  3
--------- --- --- --- ----------
 72
   65
 73
    8
 40
18.75
 49
12
 49
-1.5
 49
0.25
 49
-1.5
 49
0.25
 49
-1.5
 49
0.25
 49
-1.5
  0
LTYPE
  2
dotted
 70
   64
  3
   -       -       -       -    
 72
   65
 73
    2
 40
1.75
 49
0.25
 49
-1.5
  0
LTYPE
  2
chain
 70
   64
  3
-------------- -- --------------
 72
   65
 73
    4
 40
18.5
 49
12
 49
-1.5
 49
3.5
 49
-1.5
  0
LTYPE
  2
chain_double_dash
 70
   64
  3
------------ -- -- -------------
 72
   65
 73
    6
 40
23.5
 49
12
 49
-1.5
 49
3.5
 49
-1.5
 49
3.5
 49
-1.5
  0
LTYPE
  2
dashed_dotted
 70
   64
  3
-----------     -     ----------
 72
   65
 73
    4
 40
9.25
 49
6
 49
-1.5
 49
0.25
 49
-1.5
  0
LTYPE
  2
double-dashed_dotted
 70
   64
  3
------   -----------   -   -----
 72
   65
 73
    6
 40
16.75
 49
6
 49
-1.5
 49
6
 49
-1.5
 49
0.25
 49
-1.5
  0
LTYPE
  2
dashed_double-dotted
 70
   64
  3
---------    -    -    ---------
 72
   65
 73
    6
 40
11
 49
6
 49
-1.5
 49
0.25
 49
-1.5
 49
0.25
 49
-1.5
  0
LTYPE
  2
double-dashed_double-dotted
 70
   64
  3
-----   ---------   -   -   ----
 72
   65
 73
    8
 40
18.5
 49
6
 49
-1.5
 49
6
 49
-1.5
 49
0.25
 49
-1.5
 49
0.25
 49
-1.5
  0
LTYPE
  2
dashed_triplicate-dotted
 70
   64
  3
-------    -    -    -    ------
 72
   65
 73
    8
 40
12.75
 49
6
 49
-1.5
 49
0.25
 49
-1.5
 49
0.25
 49
-1.5
 49
0.25
 49
-1.5
  0
LTYPE
  2
double-dashed_triplicate-dotted
 70
   64
  3
-----  ---------  -  -  -  -----
 72
   65
 73
   10
 40
20.25
 49
6
 49
-1.5
 49
6
 49
-1.5
 49
0.25
 49
-1.5
 49
0.25
 49
-1.5
 49
0.25
 49
-1.5
  0
LTYPE
  2
undefined
 70
   64
  3
--------------------------------
 72
   65
 73
    0
 40
0
  0
ENDTAB
  0
TABLE
  2
STYLE
  5
3
100
AcDbSymbolTable
 70
     1
  0
STYLE
  5
10
100
AcDbSymbolTableRecord
100
AcDbTextStyleTableRecord
  2
STANDARD
 70
     0
 40
0.0
 41
1.0
 50
0.0
 71
     0
 42
0.2
  3
txt
  4
bigfont.shx
  0
STYLE
  5
26
100
AcDbSymbolTableRecord
100
AcDbTextStyleTableRecord
  2
TATEGAKI
 70
    68
 40
0.0
 41
1.0
 50
0.0
 71
     0
 42
1.0
  3
txt
  4
bigfont.shx
  0
ENDTAB
  0
TABLE
  2
LAYER
 70
    6
  0
LAYER
  2
_0-0_LAYER001
 70
   64
 62
    7
  6
CONTINUOUS
  0
LAYER
  2
_0-1_LAYER003
 70
   64
 62
    7
  6
CONTINUOUS
  0
LAYER
  2
_0-2_LAYER004
 70
   64
 62
    7
  6
CONTINUOUS
  0
LAYER
  2
_0-3_LAYER005
 70
   64
 62
    7
  6
CONTINUOUS
  0
LAYER
  2
_0-4_LAYER007
 70
   64
 62
    7
  6
CONTINUOUS
  0
LAYER
  2
ADD_LINE
 70
   64
 62
    7
  6
CONTINUOUS
  0
ENDTAB
  0
ENDSEC
  0
SECTION
  2
BLOCKS
  0
ENDSEC
  0
SECTION
  2
ENTITIES
  0
LINE
  8
_0-1_LAYER003
  6
CONTINUOUS
 62
    2
 10
1554.9391000000001
 20
985.3626999999999
 11
1549.6358
 21
980.0594000000001
  0
LINE
  8
_0-1_LAYER003
  6
CONTINUOUS
 62
    2
 10
1549.6358
 20
980.0594000000001
 11
1551.5770000000002
 21
987.30390000000011
  0
LINE
  8
_0-1_LAYER003
  6
CONTINUOUS
 62
    2
 10
1549.6358
 20
980.0594000000001
 11
1618.2037
 21
1098.8224
  0
LINE
  8
_0-1_LAYER003
  6
CONTINUOUS
 62
    2
 10
1618.2037
 20
1098.8224
 11
1658.7037
 21
1098.8224
  0
LINE
  8
_0-1_LAYER003
  6
CONTINUOUS
 62
    2
 10
778.36300000000006
 20
933.3886
 11
830.86300000000006
 21
933.3886
  0
CIRCLE
  8
_0-1_LAYER003
  6
CONTINUOUS
 62
    2
 10
780.86300000000006
 20
933.3886
 40
1.6999999999999997
  0
LINE
  8
_0-1_LAYER003
  6
CONTINUOUS
 62
    2
 10
780.86300000000006
 20
933.3886
 11
780.86300000000006
 21
1183.3886
  0
CIRCLE
  8
_0-1_LAYER003
  6
CONTINUOUS
 62
    2
 10
780.86300000000006
 20
1183.3886
 40
1.6999999999999997
  0
LINE
  8
_0-1_LAYER003
  6
CONTINUOUS
 62
    2
 10
778.36300000000006
 20
1183.3886
 11
830.86300000000006
 21
1183.3886
  0
LINE
  8
_0-0_LAYER001
  6
CONTINUOUS
 62
    3
 10
1160.7655999999999
 20
1042.4366
 11
1160.7882
 21
1041.9712999999999
  0
LINE
  8
_0-0_LAYER001
  6
CONTINUOUS
 62
    3
 10
1160.7882
 20
1041.9712999999999
 11
1160.8497
 21
1040.7085999999999
  0
LINE
  8
_0-0_LAYER001
  6
CONTINUOUS
 62
    3
 10
1160.8497
 20
1040.7085999999999
 11
1160.9403
 21
1038.8477
  0
LINE
  8
_0-0_LAYER001
  6
CONTINUOUS
 62
    3
 10
1160.9403
 20
1038.8477
 11
1161.0503000000001
 21
1036.588
  0
LINE
  8
_0-0_LAYER001
  6
CONTINUOUS
 62
    3
 10
1161.0503000000001
 20
1036.588
 11
1161.1700000000001
 21
1034.1288999999999
  0
LINE
  8
_0-0_LAYER001
  6
CONTINUOUS
 62
    3
 10
1161.1700000000001
 20
1034.1288999999999
 11
1161.2897
 21
1031.6699000000001
  0
LINE
  8
_0-0_LAYER001
  6
CONTINUOUS
 62
    3
 10
1161.2897
 20
1031.6699000000001
 11
1161.3996999999999
 21
1029.4102
  0
LINE
  8
_0-0_LAYER001
  6
CONTINUOUS
 62
    3
 10
1161.3996999999999
 20
1029.4102
 11
1161.4902999999999
 21
1027.5492999999999
  0
LINE
  8
_0-0_LAYER001
  6
CONTINUOUS
 62
    3
 10
1161.4902999999999
 20
1027.5492999999999
 11
1161.5518
 21
1026.2864999999999
  0
LINE
  8
_0-0_LAYER001
  6
CONTINUOUS
 62
    3
 10
1161.5518
 20
1026.2864999999999
 11
1161.5744
 21
1025.8213000000001
  0
LINE
  8
_0-0_LAYER001
  6
CONTINUOUS
 62
    3
 10
1161.5744
 20
1025.8213000000001
 11
1162.7195999999999
 21
1025.8969
  0
LINE
  8
_0-0_LAYER001
  6
CONTINUOUS
 62
    3
 10
1162.7195999999999
 20
1025.8969
 11
1166.0949000000001
 21
1025.9656
  0
LINE
  8
_0-0_LAYER001
  6
CONTINUOUS
 62
    3
 10
1166.0949000000001
 20
1025.9656
 11
1171.6098999999999
 21
1025.7896000000001
  0
LINE
  8
_0-0_LAYER001
  6
CONTINUOUS
 62
    3
 10
1171.6098999999999
 20
1025.7896000000001
 11
1179.1744000000001
 21
1025.1315
  0
LINE
  8
_0-0_LAYER001
  6
CONTINUOUS
 62
    3
 10
1179.1744000000001
 20
1025.1315
 11
1188.6980000000001
 21
1023.7537
  0
LINE
  8
_0-0_LAYER001
  6
CONTINUOUS
 62
    3
 10
1188.6980000000001
 20
1023.7537
 11
1200.0905
 21
1021.4185
  0
LINE
  8
_0-0_LAYER001
  6
CONTINUOUS
 62
    3
 10
1200.0905
 20
1021.4185
 11
1213.2614000000001
 21
1017.8886
  0
LINE
  8
_0-0_LAYER001
  6
CONTINUOUS
 62
    3
 10
1213.2614000000001
 20
1017.8886
 11
1228.1205
 21
1012.9262000000001
  0
LINE
  8
_0-0_LAYER001
  6
CONTINUOUS
 62
    3
 10
1228.1205
 20
1012.9262000000001
 11
1244.5775000000001
 21
1006.2937999999999
  0
LINE
  8
_0-0_LAYER001
  6
CONTINUOUS
 62
    3
 10
1244.5775000000001
 20
1006.2937999999999
 11
1262.5419999999999
 21
997.75389999999993
  0
LINE
  8
_0-0_LAYER001
  6
CONTINUOUS
 62
    3
 10
1262.5419999999999
 20
997.75389999999993
 11
1262.5051000000001
 21
998.51099999999997
  0
LINE
  8
_0-0_LAYER001
  6
CONTINUOUS
 62
    3
 10
1262.5051000000001
 20
998.51099999999997
 11
1262.4050999999999
 21
1000.5662
  0
LINE
  8
_0-0_LAYER001
  6
CONTINUOUS
 62
    3
 10
1262.4050999999999
 20
1000.5662
 11
1262.2575999999999
 21
1003.5947000000001
  0
LINE
  8
_0-0_LAYER001
  6
CONTINUOUS
 62
    3
 10
1262.2575999999999
 20
1003.5947000000001
 11
1262.0786000000001
 21
1007.2723000000001
  0
LINE
  8
_0-0_LAYER001
  6
CONTINUOUS
 62
    3
 10
1262.0786000000001
 20
1007.2723000000001
 11
1261.8838000000001
 21
1011.2744
  0
LINE
  8
_0-0_LAYER001
  6
CONTINUOUS
 62
    3
 10
1261.8838000000001
 20
1011.2744
 11
1261.6889000000001
 21
1015.2764
  0
LINE
  8
_0-0_LAYER001
  6
CONTINUOUS
 62
    3
 10
1261.6889000000001
 20
1015.2764
 11
1261.5099
 21
1018.954
  0
LINE
  8
_0-0_LAYER001
  6
CONTINUOUS
 62
    3
 10
1261.5099
 20
1018.954
 11
1261.3625
 21
1021.9826
  0
LINE
  8
_0-0_LAYER001
  6
CONTINUOUS
 62
    3
 10
1261.3625
 20
1021.9826
 11
1261.2624000000001
 21
1024.0377000000001
  0
LINE
  8
_0-0_LAYER001
  6
CONTINUOUS
 62
    3
 10
1261.2624000000001
 20
1024.0377000000001
 11
1261.2256
 21
1024.7947999999999
  0
LINE
  8
_0-0_LAYER001
  6
CONTINUOUS
 62
    3
 10
1261.2256
 20
1024.7947999999999
 11
1259.5319999999999
 21
1025.2991999999999
  0
LINE
  8
_0-0_LAYER001
  6
CONTINUOUS
 62
    3
 10
1259.5319999999999
 20
1025.2991999999999
 11
1254.7573
 21
1026.6666
  0
LINE
  8
_0-0_LAYER001
  6
CONTINUOUS
 62
    3
 10
1254.7573
 20
1026.6666
 11
1247.3611000000001
 21
1028.6783
  0
LINE
  8
_0-0_LAYER001
  6
CONTINUOUS
 62
    3
 10
1247.3611000000001
 20
1028.6783
 11
1237.8025
 21
1031.1157000000001
  0
LINE
  8
_0-0_LAYER001
  6
CONTINUOUS
 62
    3
 10
1237.8025
 20
1031.1157000000001
 11
1226.5409999999999
 21
1033.7602999999999
  0
LINE
  8
_0-0_LAYER001
  6
CONTINUOUS
 62
    3
 10
1226.5409999999999
 20
1033.7602999999999
 11
1214.0358000000001
 21
1036.3932
  0
LINE
  8
_0-0_LAYER001
  6
CONTINUOUS
 62
    3
 10
1214.0358000000001
 20
1036.3932
 11
1200.7463
 21
1038.796
  0
LINE
  8
_0-0_LAYER001
  6
CONTINUOUS
 62
    3
 10
1200.7463
 20
1038.796
 11
1187.1319000000001
 21
1040.7499
  0
LINE
  8
_0-0_LAYER001
  6
CONTINUOUS
 62
    3
 10
1187.1319000000001
 20
1040.7499
 11
1173.6519000000001
 21
1042.0363
  0
LINE
  8
_0-0_LAYER001
  6
CONTINUOUS
 62
    3
 10
1160.7655999999999
 20
1042.4366
 11
1173.7648999999999
 21
1042.0255
  0
LINE
  8
_0-0_LAYER001
  6
CONTINUOUS
 62
    3
 10
1149.6646000000001
 20
1073.8414
 11
1149.6872000000001
 21
1073.3761
  0
LINE
  8
_0-0_LAYER001
  6
CONTINUOUS
 62
    3
 10
1149.6872000000001
 20
1073.3761
 11
1149.7487000000001
 21
1072.1134
  0
LINE
  8
_0-0_LAYER001
  6
CONTINUOUS
 62
    3
 10
1149.7487000000001
 20
1072.1134
 11
1149.8393000000001
 21
1070.2525000000001
  0
LINE
  8
_0-0_LAYER001
  6
CONTINUOUS
 62
    3
 10
1149.8393000000001
 20
1070.2525000000001
 11
1149.9493
 21
1067.9928
  0
LINE
  8
_0-0_LAYER001
  6
CONTINUOUS
 62
    3
 10
1149.9493
 20
1067.9928
 11
1150.069
 21
1065.5337
  0
LINE
  8
_0-0_LAYER001
  6
CONTINUOUS
 62
    3
 10
1150.069
 20
1065.5337
 11
1150.1886999999999
 21
1063.0745999999999
  0
LINE
  8
_0-0_LAYER001
  6
CONTINUOUS
 62
    3
 10
1150.1886999999999
 20
1063.0745999999999
 11
1150.2987000000001
 21
1060.8150000000001
  0
LINE
  8
_0-0_LAYER001
  6
CONTINUOUS
 62
    3
 10
1150.2987000000001
 20
1060.8150000000001
 11
1150.3893
 21
1058.954
  0
LINE
  8
_0-0_LAYER001
  6
CONTINUOUS
 62
    3
 10
1150.3893
 20
1058.954
 11
1150.4508000000001
 21
1057.6913
  0
LINE
  8
_0-0_LAYER001
  6
CONTINUOUS
 62
    3
 10
1150.4508000000001
 20
1057.6913
 11
1150.4734000000001
 21
1057.2261000000001
  0
LINE
  8
_0-0_LAYER001
  6
CONTINUOUS
 62
    3
 10
1150.4734000000001
 20
1057.2261000000001
 11
1151.6186
 21
1057.3017
  0
LINE
  8
_0-0_LAYER001
  6
CONTINUOUS
 62
    3
 10
1151.6186
 20
1057.3017
 11
1154.9938999999999
 21
1057.3704
  0
LINE
  8
_0-0_LAYER001
  6
CONTINUOUS
 62
    3
 10
1154.9938999999999
 20
1057.3704
 11
1160.5089
 21
1057.1944000000001
  0
LINE
  8
_0-0_LAYER001
  6
CONTINUOUS
 62
    3
 10
1160.5089
 20
1057.1944000000001
 11
1168.0734
 21
1056.5363
  0
LINE
  8
_0-0_LAYER001
  6
CONTINUOUS
 62
    3
 10
1168.0734
 20
1056.5363
 11
1177.597
 21
1055.1585
  0
LINE
  8
_0-0_LAYER001
  6
CONTINUOUS
 62
    3
 10
1177.597
 20
1055.1585
 11
1188.9894999999999
 21
1052.8233
  0
LINE
  8
_0-0_LAYER001
  6
CONTINUOUS
 62
    3
 10
1188.9894999999999
 20
1052.8233
 11
1202.1604
 21
1049.2934
  0
LINE
  8
_0-0_LAYER001
  6
CONTINUOUS
 62
    3
 10
1202.1604
 20
1049.2934
 11
1217.0195000000001
 21
1044.3309999999999
  0
LINE
  8
_0-0_LAYER001
  6
CONTINUOUS
 62
    3
 10
1217.0195000000001
 20
1044.3309999999999
 11
1233.4765
 21
1037.6985999999999
  0
LINE
  8
_0-0_LAYER001
  6
CONTINUOUS
 62
    3
 10
1233.4765
 20
1037.6985999999999
 11
1251.441
 21
1029.1587
  0
LINE
  8
_0-0_LAYER001
  6
CONTINUOUS
 62
    3
 10
1251.441
 20
1029.1587
 11
1251.4041
 21
1029.9158
  0
LINE
  8
_0-0_LAYER001
  6
CONTINUOUS
 62
    3
 10
1251.4041
 20
1029.9158
 11
1251.3041000000001
 21
1031.9709
  0
LINE
  8
_0-0_LAYER001
  6
CONTINUOUS
 62
    3
 10
1251.3041000000001
 20
1031.9709
 11
1251.1566
 21
1034.9994999999999
  0
LINE
  8
_0-0_LAYER001
  6
CONTINUOUS
 62
    3
 10
1251.1566
 20
1034.9994999999999
 11
1250.9775999999999
 21
1038.6771000000001
  0
LINE
  8
_0-0_LAYER001
  6
CONTINUOUS
 62
    3
 10
1250.9775999999999
 20
1038.6771000000001
 11
1250.7828
 21
1042.6791000000001
  0
LINE
  8
_0-0_LAYER001
  6
CONTINUOUS
 62
    3
 10
1250.7828
 20
1042.6791000000001
 11
1250.5879
 21
1046.6812
  0
LINE
  8
_0-0_LAYER001
  6
CONTINUOUS
 62
    3
 10
1250.5879
 20
1046.6812
 11
1250.4088999999999
 21
1050.3588
  0
LINE
  8
_0-0_LAYER001
  6
CONTINUOUS
 62
    3
 10
1250.4088999999999
 20
1050.3588
 11
1250.2615000000001
 21
1053.3874000000001
  0
LINE
  8
_0-0_LAYER001
  6
CONTINUOUS
 62
    3
 10
1250.2615000000001
 20
1053.3874000000001
 11
1250.1614
 21
1055.4425000000001
  0
LINE
  8
_0-0_LAYER001
  6
CONTINUOUS
 62
    3
 10
1250.1614
 20
1055.4425000000001
 11
1250.1246000000001
 21
1056.1995999999999
  0
LINE
  8
_0-0_LAYER001
  6
CONTINUOUS
 62
    3
 10
1250.1246000000001
 20
1056.1995999999999
 11
1248.431
 21
1056.704
  0
LINE
  8
_0-0_LAYER001
  6
CONTINUOUS
 62
    3
 10
1248.431
 20
1056.704
 11
1243.6563000000001
 21
1058.0714
  0
LINE
  8
_0-0_LAYER001
  6
CONTINUOUS
 62
    3
 10
1243.6563000000001
 20
1058.0714
 11
1236.2601
 21
1060.0831000000001
  0
LINE
  8
_0-0_LAYER001
  6
CONTINUOUS
 62
    3
 10
1236.2601
 20
1060.0831000000001
 11
1226.7014999999999
 21
1062.5205000000001
  0
LINE
  8
_0-0_LAYER001
  6
CONTINUOUS
 62
    3
 10
1226.7014999999999
 20
1062.5205000000001
 11
1215.4400000000001
 21
1065.1650999999999
  0
LINE
  8
_0-0_LAYER001
  6
CONTINUOUS
 62
    3
 10
1215.4400000000001
 20
1065.1650999999999
 11
1202.9348
 21
1067.798
  0
LINE
  8
_0-0_LAYER001
  6
CONTINUOUS
 62
    3
 10
1202.9348
 20
1067.798
 11
1189.6452999999999
 21
1070.2008000000001
  0
LINE
  8
_0-0_LAYER001
  6
CONTINUOUS
 62
    3
 10
1189.6452999999999
 20
1070.2008000000001
 11
1176.0309
 21
1072.1547
  0
LINE
  8
_0-0_LAYER001
  6
CONTINUOUS
 62
    3
 10
1176.0309
 20
1072.1547
 11
1162.5509
 21
1073.4411
  0
LINE
  8
_0-0_LAYER001
  6
CONTINUOUS
 62
    3
 10
1149.6646000000001
 20
1073.8414
 11
1162.6639
 21
1073.4303
  0
LINE
  8
_0-2_LAYER004
  6
CONTINUOUS
 62
    2
 10
1231.5175999999999
 20
1070.8246999999999
 11
1227.5237999999999
 21
1076.8088
  0
LINE
  8
_0-0_LAYER001
  6
CONTINUOUS
 62
    2
 10
1127.8554999999999
 20
1090.2711999999999
 11
1116.1557
 21
1090.2711999999999
  0
LINE
  8
_0-0_LAYER001
  6
CONTINUOUS
 62
    2
 10
1068.1557
 20
1070.2711999999999
 11
1073.1558
 21
1073.2711999999999
  0
LINE
  8
_0-0_LAYER001
  6
CONTINUOUS
 62
    2
 10
1073.1558
 20
1067.2713000000001
 11
1068.1557
 21
1070.2711999999999
  0
LINE
  8
_0-0_LAYER001
  6
CONTINUOUS
 62
    2
 10
1074.2307000000001
 20
1067.2713000000001
 11
1071.3816999999999
 21
1072.2073
  0
LINE
  8
_0-0_LAYER001
  6
CONTINUOUS
 62
    2
 10
1140.1558
 20
1067.2713000000001
 11
1140.1558
 21
1073.2711999999999
  0
LINE
  8
_0-0_LAYER001
  6
CONTINUOUS
 62
    2
 10
1146.1557
 20
1064.2710999999999
 11
1146.1557
 21
1076.2713000000001
  0
LINE
  8
_0-0_LAYER001
  6
CONTINUOUS
 62
    2
 10
1137.2688000000001
 20
1067.2713000000001
 11
1133.8056999999999
 21
1073.2711999999999
  0
LINE
  8
_0-0_LAYER001
  6
CONTINUOUS
 62
    2
 10
1146.1557
 20
1064.2710999999999
 11
1140.1558
 21
1067.2713000000001
  0
LINE
  8
_0-0_LAYER001
  6
CONTINUOUS
 62
    2
 10
1140.1558
 20
1073.2711999999999
 11
1146.1557
 21
1076.2713000000001
  0
LINE
  8
_0-0_LAYER001
  6
CONTINUOUS
 62
    2
 10
1073.1558
 20
1073.2711999999999
 11
1083.1708000000001
 21
1073.2711999999999
  0
LINE
  8
_0-0_LAYER001
  6
CONTINUOUS
 62
    2
 10
1091.8226999999999
 20
1068.7982999999999
 11
1089.9286999999999
 21
1072.0793000000001
  0
LINE
  8
_0-0_LAYER001
  6
CONTINUOUS
 62
    2
 10
1083.4386999999999
 20
1067.3202000000001
 11
1080.0038
 21
1073.2711999999999
  0
LINE
  8
_0-0_LAYER001
  6
CONTINUOUS
 62
    2
 10
1073.1558
 20
1067.2713000000001
 11
1083.1627000000001
 21
1067.2713000000001
  0
LINE
  8
_0-0_LAYER001
  6
CONTINUOUS
 62
    2
 10
1075.3067000000001
 20
1076.9943000000001
 11
1074.9067
 21
1074.7282
  0
LINE
  8
_0-0_LAYER001
  6
CONTINUOUS
 62
    2
 10
1075.4797000000001
 20
1063.5813000000001
 11
1075.0817999999999
 21
1065.8462
  0
LINE
  8
_0-0_LAYER001
  6
CONTINUOUS
 62
    2
 10
1079.8997999999999
 20
1075.9802999999999
 11
1078.2257
 21
1076.2752
  0
LINE
  8
_0-0_LAYER001
  6
CONTINUOUS
 62
    2
 10
1084.2327
 20
1075.2163
 11
1082.5598
 21
1075.5111999999999
  0
LINE
  8
_0-0_LAYER001
  6
CONTINUOUS
 62
    2
 10
1088.5658000000001
 20
1074.4521999999999
 11
1086.8928000000001
 21
1074.7473
  0
LINE
  8
_0-0_LAYER001
  6
CONTINUOUS
 62
    2
 10
1088.8619000000001
 20
1076.1252999999999
 11
1097.9558
 21
1074.5224000000001
  0
LINE
  8
_0-0_LAYER001
  6
CONTINUOUS
 62
    2
 10
1084.5288
 20
1076.8892000000001
 11
1087.1877999999999
 21
1076.4202
  0
LINE
  8
_0-0_LAYER001
  6
CONTINUOUS
 62
    2
 10
1080.1958
 20
1077.6532999999999
 11
1082.8547000000001
 21
1077.1842999999999
  0
LINE
  8
_0-0_LAYER001
  6
CONTINUOUS
 62
    2
 10
1077.0438999999999
 20
1078.2092
 11
1078.5217
 21
1077.9481000000001
  0
LINE
  8
_0-0_LAYER001
  6
CONTINUOUS
 62
    2
 10
1078.2257
 20
1076.2752
 11
1078.5217
 21
1077.9492
  0
LINE
  8
_0-0_LAYER001
  6
CONTINUOUS
 62
    2
 10
1079.8997999999999
 20
1075.9802999999999
 11
1080.1958
 21
1077.6542999999999
  0
LINE
  8
_0-0_LAYER001
  6
CONTINUOUS
 62
    2
 10
1082.5587
 20
1075.5111999999999
 11
1082.8547000000001
 21
1077.1853000000001
  0
LINE
  8
_0-0_LAYER001
  6
CONTINUOUS
 62
    2
 10
1084.2327
 20
1075.2163
 11
1084.5288
 21
1076.8902
  0
LINE
  8
_0-0_LAYER001
  6
CONTINUOUS
 62
    2
 10
1086.8916999999999
 20
1074.7473
 11
1087.1877999999999
 21
1076.4212
  0
LINE
  8
_0-0_LAYER001
  6
CONTINUOUS
 62
    2
 10
1088.5658000000001
 20
1074.4521999999999
 11
1088.8619000000001
 21
1076.1261999999999
  0
LINE
  8
_0-0_LAYER001
  6
CONTINUOUS
 62
    2
 10
1080.0746999999999
 20
1064.5942
 11
1078.4006999999999
 21
1064.2991999999999
  0
LINE
  8
_0-0_LAYER001
  6
CONTINUOUS
 62
    2
 10
1084.4077
 20
1065.3583000000001
 11
1082.7337
 21
1065.0633
  0
LINE
  8
_0-0_LAYER001
  6
CONTINUOUS
 62
    2
 10
1088.7407000000001
 20
1066.1222
 11
1087.0668000000001
 21
1065.8271999999999
  0
LINE
  8
_0-0_LAYER001
  6
CONTINUOUS
 62
    2
 10
1088.7397000000001
 20
1066.1222
 11
1089.0358000000001
 21
1064.4493
  0
LINE
  8
_0-0_LAYER001
  6
CONTINUOUS
 62
    2
 10
1087.0658000000001
 20
1065.8271999999999
 11
1087.3619000000001
 21
1064.1541999999999
  0
LINE
  8
_0-0_LAYER001
  6
CONTINUOUS
 62
    2
 10
1084.4067
 20
1065.3583000000001
 11
1084.7027
 21
1063.6851999999999
  0
LINE
  8
_0-0_LAYER001
  6
CONTINUOUS
 62
    2
 10
1082.7327
 20
1065.0633
 11
1083.0288
 21
1063.3903
  0
LINE
  8
_0-0_LAYER001
  6
CONTINUOUS
 62
    2
 10
1080.0737999999999
 20
1064.5942
 11
1080.3697
 21
1062.9212
  0
LINE
  8
_0-0_LAYER001
  6
CONTINUOUS
 62
    2
 10
1078.3996999999999
 20
1064.2991999999999
 11
1078.6958
 21
1062.6262999999999
  0
LINE
  8
_0-0_LAYER001
  6
CONTINUOUS
 62
    2
 10
1089.0358000000001
 20
1064.4493
 11
1097.9558
 21
1066.0211999999999
  0
LINE
  8
_0-0_LAYER001
  6
CONTINUOUS
 62
    2
 10
1084.7027
 20
1063.6851999999999
 11
1087.3619000000001
 21
1064.1541999999999
  0
LINE
  8
_0-0_LAYER001
  6
CONTINUOUS
 62
    2
 10
1080.3697
 20
1062.9212
 11
1083.0288
 21
1063.3903
  0
LINE
  8
_0-0_LAYER001
  6
CONTINUOUS
 62
    2
 10
1077.2186999999999
 20
1062.3652
 11
1078.6958
 21
1062.6251999999999
  0
LINE
  8
_0-0_LAYER001
  6
CONTINUOUS
 62
    2
 10
1100.1796999999999
 20
1070.2723000000001
 11
1074.9067
 21
1074.7282
  0
LINE
  8
_0-0_LAYER001
  6
CONTINUOUS
 62
    2
 10
1100.1796999999999
 20
1070.2723000000001
 11
1075.0817999999999
 21
1065.8462
  0
LINE
  8
_0-0_LAYER001
  6
CONTINUOUS
 62
    2
 10
1116.1557
 20
1074.5211999999999
 11
1097.9558
 21
1074.5211999999999
  0
LINE
  8
_0-0_LAYER001
  6
CONTINUOUS
 62
    2
 10
1116.1557
 20
1066.0211999999999
 11
1097.9558
 21
1066.0211999999999
  0
LINE
  8
_0-0_LAYER001
  6
CONTINUOUS
 62
    2
 10
1116.1557
 20
1066.0211999999999
 11
1116.1557
 21
1074.5211999999999
  0
LINE
  8
_0-0_LAYER001
  6
CONTINUOUS
 62
    2
 10
1146.1557
 20
1050.2711999999999
 11
1116.1557
 21
1050.2711999999999
  0
LINE
  8
_0-0_LAYER001
  6
CONTINUOUS
 62
    2
 10
1116.1557
 20
1073.2711999999999
 11
1140.1558
 21
1073.2711999999999
  0
LINE
  8
_0-0_LAYER001
  6
CONTINUOUS
 62
    2
 10
1116.1557
 20
1067.2713000000001
 11
1140.1558
 21
1067.2713000000001
  0
LINE
  8
_0-0_LAYER001
  6
CONTINUOUS
 62
    2
 10
1131.5455999999999
 20
1067.2713000000001
 11
1128.0826
 21
1073.2711999999999
  0
LINE
  8
_0-0_LAYER001
  6
CONTINUOUS
 62
    2
 10
1125.8225
 20
1067.2713000000001
 11
1122.3594000000001
 21
1073.2711999999999
  0
LINE
  8
_0-0_LAYER001
  6
CONTINUOUS
 62
    2
 10
1120.0994000000001
 20
1067.2713000000001
 11
1116.6362999999999
 21
1073.2711999999999
  0
LINE
  8
_0-0_LAYER001
  6
CONTINUOUS
 62
    2
 10
1146.1557
 20
1050.2711999999999
 11
1146.1557
 21
1087.8082999999999
  0
LINE
  8
_0-0_LAYER001
  6
CONTINUOUS
 62
    2
 10
1116.1557
 20
1050.2711999999999
 11
1144.4168
 21
1087.9527
  0
ARC
  8
_0-0_LAYER001
  6
CONTINUOUS
 62
    2
 10
1076.7917
 20
1076.7273
 40
1.5049999999999999
 50
80.362472000000011
 51
169.54873000000001
  0
ARC
  8
_0-0_LAYER001
  6
CONTINUOUS
 62
    2
 10
1076.9597000000001
 20
1063.8442
 40
1.4969999999999999
 50
189.85266999999999
 51
280.16100999999998
  0
LINE
  8
_0-0_LAYER001
  6
CONTINUOUS
 62
    2
 10
1148.6457
 20
1100.0659000000001
 11
1140.575
 21
1103.8286000000001
  0
LINE
  8
_0-0_LAYER001
  6
CONTINUOUS
 62
    2
 10
1134.2059999999999
 20
1075.2448999999999
 11
1128.7497000000001
 21
1068.1769999999999
  0
LINE
  8
_0-0_LAYER001
  6
CONTINUOUS
 62
    2
 10
1142.2574999999999
 20
1101.2840000000001
 11
1130.8468
 21
1076.8112000000001
  0
LINE
  8
_0-0_LAYER001
  6
CONTINUOUS
 62
    2
 10
1128.7497000000001
 20
1068.1769999999999
 11
1130.8468
 21
1076.8112000000001
  0
LINE
  8
_0-0_LAYER001
  6
CONTINUOUS
 62
    2
 10
1145.6169
 20
1099.7192
 11
1148.6457
 21
1100.0659000000001
  0
LINE
  8
_0-0_LAYER001
  6
CONTINUOUS
 62
    2
 10
1142.2574999999999
 20
1101.2840000000001
 11
1140.575
 21
1103.8286000000001
  0
LINE
  8
_0-0_LAYER001
  6
CONTINUOUS
 62
    2
 10
1145.6169
 20
1099.7192
 11
1134.2059999999999
 21
1075.2448999999999
  0
LINE
  8
_0-0_LAYER001
  6
CONTINUOUS
 62
    2
 10
1121.6405999999999
 20
1048.3886
 11
1127.1481000000001
 21
1040.9193
  0
LINE
  8
_0-0_LAYER001
  6
CONTINUOUS
 62
    2
 10
893.75150000000008
 20
933.3886
 11
946.25150000000008
 21
933.3886
  0
CIRCLE
  8
_0-0_LAYER001
  6
CONTINUOUS
 62
    2
 10
896.25150000000008
 20
933.3886
 40
1.6999999999999997
  0
LINE
  8
_0-0_LAYER001
  6
CONTINUOUS
 62
    2
 10
896.25150000000008
 20
933.3886
 11
896.25150000000008
 21
1048.3886
  0
CIRCLE
  8
_0-0_LAYER001
  6
CONTINUOUS
 62
    2
 10
896.25150000000008
 20
1048.3886
 40
1.6999999999999997
  0
LINE
  8
_0-0_LAYER001
  6
CONTINUOUS
 62
    2
 10
893.75150000000008
 20
1048.3886
 11
946.25150000000008
 21
1048.3886
  0
CIRCLE
  8
_0-0_LAYER001
  6
CONTINUOUS
 62
    2
 10
896.25150000000008
 20
1048.3886
 40
1.6999999999999997
  0
LINE
  8
_0-0_LAYER001
  6
CONTINUOUS
 62
    2
 10
896.25150000000008
 20
1048.3886
 11
896.25150000000008
 21
1105.3886
  0
CIRCLE
  8
_0-0_LAYER001
  6
CONTINUOUS
 62
    2
 10
896.25150000000008
 20
1105.3886
 40
1.6999999999999997
  0
LINE
  8
_0-0_LAYER001
  6
CONTINUOUS
 62
    2
 10
893.75150000000008
 20
1105.3886
 11
946.25150000000008
 21
1105.3886
  0
CIRCLE
  8
_0-0_LAYER001
  6
CONTINUOUS
 62
    2
 10
896.25150000000008
 20
1105.3886
 40
1.6999999999999997
  0
LINE
  8
_0-0_LAYER001
  6
CONTINUOUS
 62
    2
 10
896.25150000000008
 20
1105.3886
 11
896.25150000000008
 21
1205.3886
  0
CIRCLE
  8
_0-0_LAYER001
  6
CONTINUOUS
 62
    2
 10
896.25150000000008
 20
1205.3886
 40
1.6999999999999997
  0
LINE
  8
_0-0_LAYER001
  6
CONTINUOUS
 62
    2
 10
893.75150000000008
 20
1205.3886
 11
946.25150000000008
 21
1205.3886
  0
CIRCLE
  8
_0-0_LAYER001
  6
CONTINUOUS
 62
    2
 10
896.25150000000008
 20
1205.3886
 40
1.6999999999999997
  0
LINE
  8
_0-0_LAYER001
  6
CONTINUOUS
 62
    2
 10
896.25150000000008
 20
1205.3886
 11
896.25150000000008
 21
1225.3886
  0
CIRCLE
  8
_0-0_LAYER001
  6
CONTINUOUS
 62
    2
 10
896.25150000000008
 20
1225.3886
 40
1.6999999999999997
  0
LINE
  8
_0-0_LAYER001
  6
CONTINUOUS
 62
    2
 10
893.75150000000008
 20
1225.3886
 11
946.25150000000008
 21
1225.3886
  0
LINE
  8
_0-1_LAYER003
  6
CONTINUOUS
 62
    2
 10
1230.9695999999999
 20
1146.731
 11
1230.9695999999999
 21
1119.231
  0
CIRCLE
  8
_0-1_LAYER003
  6
CONTINUOUS
 62
    2
 10
1230.9695999999999
 20
1144.231
 40
1.6999999999999997
  0
LINE
  8
_0-1_LAYER003
  6
CONTINUOUS
 62
    2
 10
1230.9695999999999
 20
1144.231
 11
1140.9695999999999
 21
1144.231
  0
CIRCLE
  8
_0-1_LAYER003
  6
CONTINUOUS
 62
    2
 10
1140.9695999999999
 20
1144.231
 40
1.6999999999999997
  0
LINE
  8
_0-1_LAYER003
  6
CONTINUOUS
 62
    2
 10
1140.9695999999999
 20
1132.8886
 11
1140.9695999999999
 21
1105.3886
  0
LINE
  8
_0-1_LAYER003
  6
CONTINUOUS
 62
    2
 10
1242.3575000000001
 20
1052.8610000000001
 11
1237.0542
 21
1047.5577000000001
  0
LINE
  8
_0-1_LAYER003
  6
CONTINUOUS
 62
    2
 10
1237.0542
 20
1047.5577000000001
 11
1238.9954
 21
1054.8021000000001
  0
LINE
  8
_0-1_LAYER003
  6
CONTINUOUS
 62
    2
 10
1237.0542
 20
1047.5577000000001
 11
1297.9908
 21
1153.1030000000001
  0
LINE
  8
_0-1_LAYER003
  6
CONTINUOUS
 62
    2
 10
1297.9908
 20
1153.1030000000001
 11
1411.9908
 21
1153.1030000000001
  0
LINE
  8
_0-1_LAYER003
  6
CONTINUOUS
 62
    2
 10
1189.1125999999999
 20
1103.5141000000001
 11
1183.8092999999999
 21
1098.2108000000001
  0
LINE
  8
_0-1_LAYER003
  6
CONTINUOUS
 62
    2
 10
1183.8092999999999
 20
1098.2108000000001
 11
1185.7503999999999
 21
1105.4553000000001
  0
LINE
  8
_0-1_LAYER003
  6
CONTINUOUS
 62
    2
 10
1183.8092999999999
 20
1098.2108000000001
 11
1267.5387000000001
 21
1243.2345
  0
LINE
  8
_0-1_LAYER003
  6
CONTINUOUS
 62
    2
 10
1267.5387000000001
 20
1243.2345
 11
1501.5387000000001
 21
1243.2345
  0
LINE
  8
_0-0_LAYER001
  6
CONTINUOUS
 62
    2
 10
1133.4322
 20
935.35339999999997
 11
1138.7355
 21
940.6567
  0
LINE
  8
_0-0_LAYER001
  6
CONTINUOUS
 62
    2
 10
1138.7355
 20
940.6567
 11
1136.7943
 21
933.41229999999996
  0
LINE
  8
_0-0_LAYER001
  6
CONTINUOUS
 62
    2
 10
1138.7355
 20
940.6567
 11
1086.6469
 21
850.43669999999997
  0
LINE
  8
_0-0_LAYER001
  6
CONTINUOUS
 62
    2
 10
1086.6469
 20
850.43669999999997
 11
852.64689999999996
 21
850.43669999999997
  0
LINE
  8
_0-1_LAYER003
  6
DASHED3
 62
    2
 10
1118.2926
 20
935.88560000000007
 11
2204.6369
 21
935.88560000000007
  0
LINE
  8
_0-0_LAYER001
  6
CONTINUOUS
 62
    2
 10
1117.7807
 20
1090.8842
 11
1119.7219
 21
1083.6396999999999
  0
LINE
  8
_0-0_LAYER001
  6
CONTINUOUS
 62
    2
 10
1119.7219
 20
1083.6396999999999
 11
1114.4186
 21
1088.943
  0
LINE
  8
_0-0_LAYER001
  6
CONTINUOUS
 62
    2
 10
1119.7219
 20
1083.6396999999999
 11
1091.6187
 21
1132.3158000000001
  0
LINE
  8
_0-0_LAYER001
  6
CONTINUOUS
 62
    2
 10
1091.6187
 20
1132.3158000000001
 11
1010.6187
 21
1132.3158000000001
  0
ARC
  8
_0-0_LAYER001
  6
CONTINUOUS
 62
    2
 10
1157.7886000000001
 20
1214.0211999999999
 40
20.694040000000001
 50
146.68045000000001
 51
204.50830999999999
  0
LINE
  8
_0-0_LAYER001
  6
CONTINUOUS
 62
    2
 10
1125.4866
 20
1225.3886
 11
1125.4866
 21
1205.3886
  0
LINE
  8
_0-2_LAYER004
  6
CONTINUOUS
 62
    2
 10
1120.0246
 20
1225.3886
 11
1125.4866
 21
1205.3886
  0
LINE
  8
_0-2_LAYER004
  6
CONTINUOUS
 62
    2
 10
1120.0246
 20
1205.3886
 11
1125.4866
 21
1225.3886
  0
LINE
  8
_0-2_LAYER004
  6
CONTINUOUS
 62
    2
 10
1117.9627
 20
1205.4902
 11
1117.9627
 21
1222.433
  0
LINE
  8
_0-3_LAYER005
  6
CONTINUOUS
 62
    2
 10
1140.9695999999999
 20
1225.3886
 11
1115.9695999999999
 21
1225.3886
  0
LINE
  8
_0-3_LAYER005
  6
CONTINUOUS
 62
    2
 10
1140.9695999999999
 20
1205.3886
 11
1115.9695999999999
 21
1205.3886
  0
LINE
  8
_0-3_LAYER005
  6
CONTINUOUS
 62
    2
 10
1120.0246
 20
1205.3886
 11
1120.0246
 21
1225.3886
  0
LINE
  8
_0-3_LAYER005
  6
CONTINUOUS
 62
    2
 10
1131.7945999999999
 20
1205.3886
 11
1125.4866
 21
1211.6966
  0
LINE
  8
_0-3_LAYER005
  6
CONTINUOUS
 62
    2
 10
1136.0376000000001
 20
1205.3886
 11
1125.4866
 21
1215.9395999999999
  0
LINE
  8
_0-3_LAYER005
  6
CONTINUOUS
 62
    2
 10
1138.1388999999999
 20
1207.5305000000001
 11
1125.4866
 21
1220.1819
  0
LINE
  8
_0-3_LAYER005
  6
CONTINUOUS
 62
    2
 10
1137.1319000000001
 20
1212.7792999999999
 11
1125.4866
 21
1224.4246000000001
  0
LINE
  8
_0-3_LAYER005
  6
CONTINUOUS
 62
    2
 10
1137.2905000000001
 20
1216.8624
 11
1128.7656999999999
 21
1225.3886
  0
LINE
  8
_0-3_LAYER005
  6
CONTINUOUS
 62
    2
 10
1138.076
 20
1220.3184000000001
 11
1133.0092
 21
1225.3886
  0
LINE
  8
_0-2_LAYER004
  6
CONTINUOUS
 62
    2
 10
1140.9695999999999
 20
1205.3886
 11
1140.9695999999999
 21
1126.9340999999999
  0
LINE
  8
_0-0_LAYER001
  6
CONTINUOUS
 62
    2
 10
1141.1148000000001
 20
1220.5707
 11
1135.8115
 21
1215.2674
  0
LINE
  8
_0-0_LAYER001
  6
CONTINUOUS
 62
    2
 10
1135.8115
 20
1215.2674
 11
1137.7526
 21
1222.5119
  0
LINE
  8
_0-0_LAYER001
  6
CONTINUOUS
 62
    2
 10
1135.8115
 20
1215.2674
 11
1186.5494000000001
 21
1303.1479999999999
  0
LINE
  8
_0-0_LAYER001
  6
CONTINUOUS
 62
    2
 10
1186.5494000000001
 20
1303.1479999999999
 11
1267.5494000000001
 21
1303.1479999999999
  0
LINE
  8
_0-0_LAYER001
  6
CONTINUOUS
 62
    2
 10
1150.0703000000001
 20
1017.1111000000001
 11
1155.3735999999999
 21
1022.4143999999999
  0
LINE
  8
_0-0_LAYER001
  6
CONTINUOUS
 62
    2
 10
1155.3735999999999
 20
1022.4143999999999
 11
1153.4324999999999
 21
1015.1699000000001
  0
LINE
  8
_0-0_LAYER001
  6
CONTINUOUS
 62
    2
 10
1155.3735999999999
 20
1022.4143999999999
 11
1078.4929999999999
 21
889.25320000000011
  0
LINE
  8
_0-0_LAYER001
  6
CONTINUOUS
 62
    2
 10
1078.4929999999999
 20
889.25320000000011
 11
1004.5006000000001
 21
889.25320000000011
  0
LINE
  8
_0-1_LAYER003
  6
CONTINUOUS
 62
    2
 10
1207.384
 20
1091.6231
 11
1202.0807
 21
1086.3198
  0
LINE
  8
_0-1_LAYER003
  6
CONTINUOUS
 62
    2
 10
1202.0807
 20
1086.3198
 11
1204.0218
 21
1093.5642
  0
LINE
  8
_0-1_LAYER003
  6
CONTINUOUS
 62
    2
 10
1202.0807
 20
1086.3198
 11
1271.8267000000001
 21
1207.1233999999999
  0
LINE
  8
_0-1_LAYER003
  6
CONTINUOUS
 62
    2
 10
1271.8267000000001
 20
1207.1233999999999
 11
1402.3267000000001
 21
1207.1233999999999
  0
LINE
  8
_0-0_LAYER001
  6
CONTINUOUS
 62
    2
 10
1792.5603999999998
 20
662.15650000000005
 11
1997.3831
 21
662.15650000000005
  0
LINE
  8
_0-0_LAYER001
  6
CONTINUOUS
 62
    2
 10
1717.7507999999998
 20
935.28790000000004
 11
1717.7507999999998
 21
942.78790000000004
  0
LINE
  8
_0-0_LAYER001
  6
CONTINUOUS
 62
    2
 10
1717.7507999999998
 20
942.78790000000004
 11
1721.5007999999998
 21
936.29269999999997
  0
LINE
  8
_0-0_LAYER001
  6
CONTINUOUS
 62
    2
 10
1717.7507999999998
 20
942.78790000000004
 11
1800.8928999999998
 21
632.4973
  0
LINE
  8
_0-2_LAYER004
  6
CONTINUOUS
 62
    2
 10
1221.6233999999999
 20
954.83130000000006
 11
1221.6233999999999
 21
939.83130000000006
  0
LINE
  8
_0-2_LAYER004
  6
CONTINUOUS
 62
    2
 10
1216.3484000000001
 20
938.26060000000007
 11
1216.3484000000001
 21
954.83130000000006
  0
LINE
  8
_0-2_LAYER004
  6
CONTINUOUS
 62
    2
 10
1216.3484000000001
 20
954.83130000000006
 11
1195.8044
 21
954.83130000000006
  0
LINE
  8
_0-2_LAYER004
  6
CONTINUOUS
 62
    2
 10
1136.6405999999999
 20
1083.3886
 11
1136.6405999999999
 21
1065.8696
  0
LINE
  8
_0-2_LAYER004
  6
CONTINUOUS
 62
    2
 10
1136.6405999999999
 20
1083.3886
 11
1121.6405999999999
 21
1083.3886
  0
LINE
  8
_0-2_LAYER004
  6
CONTINUOUS
 62
    2
 10
1121.6405999999999
 20
938.26060000000007
 11
1121.6405999999999
 21
1083.3886
  0
LINE
  8
_0-2_LAYER004
  6
CONTINUOUS
 62
    2
 10
1216.3484000000001
 20
938.26060000000007
 11
1121.6405999999999
 21
938.26060000000007
  0
LINE
  8
_0-2_LAYER004
  6
CONTINUOUS
 62
    2
 10
1213.9906000000001
 20
1074.8222000000001
 11
1216.6936000000001
 21
1089.5762
  0
LINE
  8
_0-2_LAYER004
  6
CONTINUOUS
 62
    2
 10
1216.6936000000001
 20
1089.5762
 11
1128.1666
 21
1105.7922000000001
  0
LINE
  8
_0-2_LAYER004
  6
CONTINUOUS
 62
    2
 10
1128.1666
 20
1105.7922000000001
 11
1125.4636
 21
1091.0372
  0
LINE
  8
_0-2_LAYER004
  6
CONTINUOUS
 62
    2
 10
1216.6936000000001
 20
1089.5762
 11
1125.4636
 21
1091.0372
  0
LINE
  8
_0-2_LAYER004
  6
CONTINUOUS
 62
    2
 10
1230.9695999999999
 20
1088.9037000000001
 11
1231.5175999999999
 21
1070.8246999999999
  0
LINE
  8
_0-2_LAYER004
  6
CONTINUOUS
 62
    2
 10
2204.6369
 20
954.83130000000006
 11
1221.6233999999999
 21
954.83130000000006
  0
LINE
  8
_0-2_LAYER004
  6
CONTINUOUS
 62
    2
 10
1221.6233999999999
 20
939.83130000000006
 11
2204.6369
 21
939.83130000000006
  0
LINE
  8
_0-2_LAYER004
  6
CONTINUOUS
 62
    2
 10
2204.6369
 20
933.3886
 11
1115.9695999999999
 21
933.3886
  0
LINE
  8
_0-2_LAYER004
  6
CONTINUOUS
 62
    2
 10
1140.9695999999999
 20
1225.3886
 11
1140.9695999999999
 21
1467.5026
  0
LINE
  8
_0-2_LAYER004
  6
CONTINUOUS
 62
    2
 10
1230.9695999999999
 20
1088.9037000000001
 11
1140.9695999999999
 21
1105.3886
  0
LINE
  8
_0-2_LAYER004
  6
DASHED3
 62
    2
 10
1118.2926
 20
935.88560000000007
 11
1118.2926
 21
1183.3886
  0
LINE
  8
_0-2_LAYER004
  6
CONTINUOUS
 62
    2
 10
1115.9695999999999
 20
1225.3886
 11
1115.9695999999999
 21
933.3886
  0
LINE
  8
_0-2_LAYER004
  6
CONTINUOUS
 62
    2
 10
2204.6369
 20
813.3886
 11
1115.9695999999999
 21
813.3886
  0
LINE
  8
_0-4_LAYER007
  6
CONTINUOUS
 62
    2
 10
1455.1466
 20
933.3886
 11
1335.1466
 21
813.3886
  0
LINE
  8
_0-4_LAYER007
  6
CONTINUOUS
 62
    2
 10
1443.8326000000002
 20
933.3886
 11
1323.8326000000002
 21
813.3886
  0
LINE
  8
_0-4_LAYER007
  6
CONTINUOUS
 62
    2
 10
1466.4605999999999
 20
933.3886
 11
1346.4606000000001
 21
813.3886
  0
LINE
  8
_0-4_LAYER007
  6
CONTINUOUS
 62
    2
 10
2052.7636000000002
 20
933.3886
 11
1932.7636000000002
 21
813.3886
  0
LINE
  8
_0-4_LAYER007
  6
CONTINUOUS
 62
    2
 10
2041.4506000000001
 20
933.3886
 11
1921.4506000000001
 21
813.3886
  0
LINE
  8
_0-4_LAYER007
  6
CONTINUOUS
 62
    2
 10
2030.1365999999998
 20
933.3886
 11
1910.1365999999998
 21
813.3886
  0
LINE
  8
_0-4_LAYER007
  6
CONTINUOUS
 62
    2
 10
1021.6905999999999
 20
1274.0386000000001
 11
1140.9695999999999
 21
1393.3176000000001
  0
LINE
  8
_0-4_LAYER007
  6
CONTINUOUS
 62
    2
 10
1021.6905999999999
 20
1285.3525999999999
 11
1140.9695999999999
 21
1404.6315999999999
  0
LINE
  8
_0-4_LAYER007
  6
CONTINUOUS
 62
    2
 10
1021.6905999999999
 20
1296.6656
 11
1140.9695999999999
 21
1415.9456
  0
ARC
  8
_0-4_LAYER007
  6
CONTINUOUS
 62
    2
 10
1234.4348
 20
1038.6104
 40
11.497
 50
165.33239
 51
201.42179999999999
  0
CIRCLE
  8
_0-3_LAYER005
  6
CONTINUOUS
 62
    2
 10
1221.6874
 20
1007.9695999999999
 40
1.1619999999999999
  0
CIRCLE
  8
_0-3_LAYER005
  6
CONTINUOUS
 62
    2
 10
1214.6137000000001
 20
993.28539999999998
 40
1.1619999999999999
  0
CIRCLE
  8
_0-3_LAYER005
  6
CONTINUOUS
 62
    2
 10
1206.3957
 20
993.28539999999998
 40
1.1619999999999999
  0
CIRCLE
  8
_0-3_LAYER005
  6
CONTINUOUS
 62
    2
 10
1187.7485999999999
 20
1016.7706000000001
 40
1.1619999999999999
  0
CIRCLE
  8
_0-3_LAYER005
  6
CONTINUOUS
 62
    2
 10
1154.7606000000001
 20
1023.2046
 40
1.1619999999999999
  0
CIRCLE
  8
_0-3_LAYER005
  6
CONTINUOUS
 62
    2
 10
1162.6025999999999
 20
1007.5206000000001
 40
1.1619999999999999
  0
CIRCLE
  8
_0-3_LAYER005
  6
CONTINUOUS
 62
    2
 10
1202.7820999999999
 20
1016.4838
 40
1.1619999999999999
  0
CIRCLE
  8
_0-3_LAYER005
  6
CONTINUOUS
 62
    2
 10
1197.6106
 20
1045.5326
 40
1.1619999999999999
  0
CIRCLE
  8
_0-3_LAYER005
  6
CONTINUOUS
 62
    2
 10
1178.7095999999999
 20
1049.6415999999999
 40
1.1619999999999999
  0
CIRCLE
  8
_0-3_LAYER005
  6
CONTINUOUS
 62
    2
 10
1205.0065999999999
 20
1044.7116000000001
 40
1.1619999999999999
  0
CIRCLE
  8
_0-3_LAYER005
  6
CONTINUOUS
 62
    2
 10
1170.4916000000001
 20
1013.4836
 40
1.1619999999999999
  0
CIRCLE
  8
_0-3_LAYER005
  6
CONTINUOUS
 62
    2
 10
1161.4526000000001
 20
1018.4146000000001
 40
1.1619999999999999
  0
CIRCLE
  8
_0-3_LAYER005
  6
CONTINUOUS
 62
    2
 10
1186.9966999999999
 20
995.32140000000004
 40
1.1619999999999999
  0
CIRCLE
  8
_0-3_LAYER005
  6
CONTINUOUS
 62
    2
 10
1158.1656
 20
1042.2456
 40
1.1619999999999999
  0
CIRCLE
  8
_0-3_LAYER005
  6
CONTINUOUS
 62
    2
 10
1159.8086000000001
 20
1044.7116000000001
 40
1.1619999999999999
  0
CIRCLE
  8
_0-3_LAYER005
  6
CONTINUOUS
 62
    2
 10
1152.4126000000001
 20
1048.8196
 40
1.1619999999999999
  0
CIRCLE
  8
_0-3_LAYER005
  6
CONTINUOUS
 62
    2
 10
1149.9476
 20
1057.0376000000001
 40
1.1619999999999999
  0
CIRCLE
  8
_0-3_LAYER005
  6
CONTINUOUS
 62
    2
 10
1188.5706
 20
1041.4236000000001
 40
1.1619999999999999
  0
CIRCLE
  8
_0-3_LAYER005
  6
CONTINUOUS
 62
    2
 10
1207.4716000000001
 20
1039.7806
 40
1.1619999999999999
  0
CIRCLE
  8
_0-3_LAYER005
  6
CONTINUOUS
 62
    2
 10
1216.2577000000001
 20
985.88940000000002
 40
1.1619999999999999
  0
CIRCLE
  8
_0-3_LAYER005
  6
CONTINUOUS
 62
    2
 10
1180.3535999999999
 20
1019.2366
 40
1.1619999999999999
  0
CIRCLE
  8
_0-3_LAYER005
  6
CONTINUOUS
 62
    2
 10
1211.0044
 20
1005.5046
 40
1.1619999999999999
  0
CIRCLE
  8
_0-3_LAYER005
  6
CONTINUOUS
 62
    2
 10
1182.8186000000001
 20
1052.1066000000001
 40
1.1619999999999999
  0
CIRCLE
  8
_0-3_LAYER005
  6
CONTINUOUS
 62
    2
 10
1194.3235999999999
 20
1047.9985999999999
 40
1.1619999999999999
  0
CIRCLE
  8
_0-3_LAYER005
  6
CONTINUOUS
 62
    2
 10
1153.9395999999999
 20
1018.2736
 40
1.1619999999999999
  0
CIRCLE
  8
_0-3_LAYER005
  6
CONTINUOUS
 62
    2
 10
1169.5455999999999
 20
1002.4336000000001
 40
1.1619999999999999
  0
CIRCLE
  8
_0-3_LAYER005
  6
CONTINUOUS
 62
    2
 10
1179.5316
 20
1013.4836
 40
1.1619999999999999
  0
CIRCLE
  8
_0-3_LAYER005
  6
CONTINUOUS
 62
    2
 10
1171.3136
 20
1017.5925999999999
 40
1.1619999999999999
  0
CIRCLE
  8
_0-3_LAYER005
  6
CONTINUOUS
 62
    2
 10
1162.2746
 20
1023.3456000000001
 40
1.1619999999999999
  0
CIRCLE
  8
_0-3_LAYER005
  6
CONTINUOUS
 62
    2
 10
1174.8082999999999
 20
1044.0888
 40
1.1619999999999999
  0
CIRCLE
  8
_0-3_LAYER005
  6
CONTINUOUS
 62
    2
 10
1163.9176
 20
1047.9985999999999
 40
1.1619999999999999
  0
CIRCLE
  8
_0-3_LAYER005
  6
CONTINUOUS
 62
    2
 10
1165.5616
 20
1049.6415999999999
 40
1.1619999999999999
  0
CIRCLE
  8
_0-3_LAYER005
  6
CONTINUOUS
 62
    2
 10
1170.4916000000001
 20
1049.6415999999999
 40
1.1619999999999999
  0
CIRCLE
  8
_0-3_LAYER005
  6
CONTINUOUS
 62
    2
 10
1185.2836
 20
1045.5326
 40
1.1619999999999999
  0
CIRCLE
  8
_0-3_LAYER005
  6
CONTINUOUS
 62
    2
 10
1207.0724
 20
985.721
 40
1.1619999999999999
  0
CIRCLE
  8
_0-3_LAYER005
  6
CONTINUOUS
 62
    2
 10
1193.1713
 20
1004.8521000000001
 40
1.1619999999999999
  0
CIRCLE
  8
_0-3_LAYER005
  6
CONTINUOUS
 62
    2
 10
1208.5383999999999
 20
1006.3266000000001
 40
1.1619999999999999
  0
CIRCLE
  8
_0-3_LAYER005
  6
CONTINUOUS
 62
    2
 10
1208.5341000000001
 20
1011.5527999999999
 40
1.1619999999999999
  0
CIRCLE
  8
_0-3_LAYER005
  6
CONTINUOUS
 62
    2
 10
1153.1176
 20
1037.1746000000001
 40
1.1619999999999999
  0
CIRCLE
  8
_0-3_LAYER005
  6
CONTINUOUS
 62
    2
 10
1155.5826
 20
1028.9566
 40
1.1619999999999999
  0
CIRCLE
  8
_0-3_LAYER005
  6
CONTINUOUS
 62
    2
 10
1158.0476000000001
 20
1017.4516000000001
 40
1.1619999999999999
  0
ARC
  8
_0-4_LAYER007
  6
CONTINUOUS
 62
    2
 10
1322.9143999999999
 20
994.74610000000007
 40
96.859999999999999
 50
169.12774000000002
 51
193.33345
  0
CIRCLE
  8
_0-3_LAYER005
  6
CONTINUOUS
 62
    2
 10
1147.7836
 20
1067.1695999999999
 40
1.1619999999999999
  0
CIRCLE
  8
_0-3_LAYER005
  6
CONTINUOUS
 62
    2
 10
1147.2336
 20
1025.9426000000001
 40
1.1619999999999999
  0
LINE
  8
_0-0_LAYER001
  6
CONTINUOUS
 62
    2
 10
1341.5884000000001
 20
723.13679999999999
 11
1341.5884000000001
 21
775.63679999999999
  0
CIRCLE
  8
_0-0_LAYER001
  6
CONTINUOUS
 62
    2
 10
1341.5884000000001
 20
725.63679999999999
 40
1.6999999999999997
  0
LINE
  8
_0-0_LAYER001
  6
CONTINUOUS
 62
    2
 10
1341.5884000000001
 20
725.63679999999999
 11
1596.8714
 21
725.63679999999999
  0
CIRCLE
  8
_0-0_LAYER001
  6
CONTINUOUS
 62
    2
 10
1596.8714
 20
725.63679999999999
 40
1.6999999999999997
  0
LINE
  8
_0-0_LAYER001
  6
CONTINUOUS
 62
    2
 10
1596.8714
 20
723.13679999999999
 11
1596.8714
 21
775.63679999999999
  0
CIRCLE
  8
_0-0_LAYER001
  6
CONTINUOUS
 62
    2
 10
1596.8714
 20
725.63679999999999
 40
1.6999999999999997
  0
LINE
  8
_0-0_LAYER001
  6
CONTINUOUS
 62
    2
 10
1596.8714
 20
725.63679999999999
 11
1851.1673000000001
 21
725.63679999999999
  0
CIRCLE
  8
_0-0_LAYER001
  6
CONTINUOUS
 62
    2
 10
1851.1673000000001
 20
725.63679999999999
 40
1.6999999999999997
  0
LINE
  8
_0-0_LAYER001
  6
CONTINUOUS
 62
    2
 10
1851.1673000000001
 20
723.13679999999999
 11
1851.1673000000001
 21
775.63679999999999
  0
CIRCLE
  8
_0-0_LAYER001
  6
CONTINUOUS
 62
    2
 10
1851.1673000000001
 20
725.63679999999999
 40
1.6999999999999997
  0
LINE
  8
_0-0_LAYER001
  6
CONTINUOUS
 62
    2
 10
1851.1673000000001
 20
725.63679999999999
 11
2106.8714
 21
725.63679999999999
  0
CIRCLE
  8
_0-0_LAYER001
  6
CONTINUOUS
 62
    2
 10
2106.8714
 20
725.63679999999999
 40
1.6999999999999997
  0
LINE
  8
_0-0_LAYER001
  6
CONTINUOUS
 62
    2
 10
2106.8714
 20
723.13679999999999
 11
2106.8714
 21
775.63679999999999
  0
ARC
  8
_0-0_LAYER001
  6
CONTINUOUS
 62
    4
 10
1270.0521000000001
 20
1169.4254000000001
 40
214.38050999999999
 50
231.7756
 51
268.38173
  0
ARC
  8
_0-0_LAYER001
  6
CONTINUOUS
 62
    4
 10
1324.5213000000001
 20
985.92290000000003
 40
52.178303999999997
 50
215.53766999999999
 51
234.46232000000001
  0
ARC
  8
_0-0_LAYER001
  6
CONTINUOUS
 62
    4
 10
1298.1926000000001
 20
948.21910000000003
 40
6.2695089999999993
 50
234.10575000000003
 51
303.29033000000004
  0
ARC
  8
_0-0_LAYER001
  6
CONTINUOUS
 62
    4
 10
1266.7318
 20
992.22520000000009
 40
58.841383
 50
213.2508
 51
234.31144
  0
ARC
  8
_0-0_LAYER001
  6
CONTINUOUS
 62
    4
 10
1236.8561999999999
 20
951.06780000000003
 40
7.947610000000001
 50
234.52014000000003
 51
301.23766000000001
  0
ARC
  8
_0-0_LAYER001
  6
CONTINUOUS
 62
    4
 10
1220.3547000000001
 20
983.53710000000001
 40
44.132803000000003
 50
297.62160999999998
 51
318.23129999999998
  0
ARC
  8
_0-0_LAYER001
  6
CONTINUOUS
 62
    4
 10
1270.0521000000001
 20
1169.4254000000001
 40
199.38050999999999
 50
231.7756
 51
268.38173
  0
ARC
  8
_0-0_LAYER001
  6
CONTINUOUS
 62
    4
 10
1270.0521000000001
 20
1169.4254000000001
 40
199.38050999999999
 50
231.7756
 51
268.38173
  0
ARC
  8
_0-0_LAYER001
  6
CONTINUOUS
 62
    4
 10
1270.0521000000001
 20
1169.4254000000001
 40
197.38050999999999
 50
231.7756
 51
268.38173
  0
ARC
  8
_0-0_LAYER001
  6
CONTINUOUS
 62
    4
 10
1270.0521000000001
 20
1169.4254000000001
 40
182.38050999999999
 50
231.7756
 51
268.38173
  0
ARC
  8
_0-0_LAYER001
  6
CONTINUOUS
 62
    4
 10
1270.0521000000001
 20
1169.4254000000001
 40
214.38050999999999
 50
231.7756
 51
268.38173
  0
ARC
  8
_0-0_LAYER001
  6
CONTINUOUS
 62
    4
 10
1246.6636000000001
 20
986.04019999999991
 40
69.674484000000007
 50
321.65733
 51
337.34946000000002
  0
ARC
  8
_0-0_LAYER001
  6
CONTINUOUS
 62
    4
 10
1260.5084999999999
 20
1262.3126999999999
 40
307.27562
 50
270.90795000000003
 51
293.21983
  0
ARC
  8
_0-0_LAYER001
  6
CONTINUOUS
 62
    4
 10
1260.5084999999999
 20
1262.3126999999999
 40
275.27562
 50
270.90795000000003
 51
287.11988000000002
  0
ARC
  8
_0-0_LAYER001
  6
CONTINUOUS
 62
    4
 10
1260.5084999999999
 20
1262.3126999999999
 40
292.27562
 50
270.90795000000003
 51
292.69346000000002
  0
LINE
  8
_0-0_LAYER001
  6
CONTINUOUS
 62
    4
 10
1373.2687000000001
 20
995.08919999999989
 11
1373.2687000000001
 21
992.66450000000009
  0
LINE
  8
_0-0_LAYER001
  6
CONTINUOUS
 62
    4
 10
1381.6550000000002
 20
979.92679999999996
 11
1381.6550000000002
 21
998.2340999999999
  0
LINE
  8
_0-0_LAYER001
  6
CONTINUOUS
 62
    4
 10
1373.2687000000001
 20
995.08919999999989
 11
1381.6550000000002
 21
998.2340999999999
  0
ARC
  8
_0-0_LAYER001
  6
CONTINUOUS
 62
    4
 10
1260.5084999999999
 20
1262.3126999999999
 40
290.27562
 50
270.90795000000003
 51
286.23334
  0
LINE
  8
_0-0_LAYER001
  6
CONTINUOUS
 62
    4
 10
1341.6550000000002
 20
983.6101000000001
 11
1341.6550000000002
 21
999.26919999999996
  0
ARC
  8
_0-0_LAYER001
  6
CONTINUOUS
 62
    4
 10
1524.8069
 20
1167.7871
 40
214.38050999999999
 50
231.7756
 51
268.38173
  0
LINE
  8
_0-0_LAYER001
  6
CONTINUOUS
 62
    4
 10
1345.4151999999999
 20
983.38190000000009
 11
1381.6052
 21
999.53809999999999
  0
ARC
  8
_0-0_LAYER001
  6
CONTINUOUS
 62
    4
 10
1579.2761
 20
984.28459999999995
 40
52.178303999999997
 50
215.53766999999999
 51
234.46232000000001
  0
ARC
  8
_0-0_LAYER001
  6
CONTINUOUS
 62
    4
 10
1552.9472999999998
 20
946.58079999999995
 40
6.2695089999999993
 50
234.10575000000003
 51
303.29033000000004
  0
ARC
  8
_0-0_LAYER001
  6
CONTINUOUS
 62
    4
 10
1521.4866000000002
 20
990.58690000000001
 40
58.841383
 50
213.2508
 51
234.31144
  0
ARC
  8
_0-0_LAYER001
  6
CONTINUOUS
 62
    4
 10
1491.6109000000001
 20
949.42949999999996
 40
7.947610000000001
 50
234.52014000000003
 51
301.23766000000001
  0
ARC
  8
_0-0_LAYER001
  6
CONTINUOUS
 62
    4
 10
1475.1093999999998
 20
981.89879999999994
 40
44.132803000000003
 50
297.62160999999998
 51
318.23129999999998
  0
LINE
  8
_0-0_LAYER001
  6
CONTINUOUS
 62
    4
 10
1345.4151999999999
 20
981.96199999999999
 11
1341.4097999999999
 21
980.07999999999993
  0
LINE
  8
_0-0_LAYER001
  6
CONTINUOUS
 62
    4
 10
1345.4151999999999
 20
983.38190000000009
 11
1345.4151999999999
 21
981.96199999999999
  0
LINE
  8
_0-0_LAYER001
  6
CONTINUOUS
 62
    4
 10
1344.8896999999999
 20
1000.1258
 11
1341.5266999999999
 21
998.79960000000005
  0
LINE
  8
_0-0_LAYER001
  6
CONTINUOUS
 62
    4
 10
1344.8896999999999
 20
1001.6144999999999
 11
1344.8896999999999
 21
1000.1258
  0
ARC
  8
_0-0_LAYER001
  6
CONTINUOUS
 62
    4
 10
1524.8069
 20
1167.7871
 40
199.38050999999999
 50
231.7756
 51
268.38173
  0
ARC
  8
_0-0_LAYER001
  6
CONTINUOUS
 62
    4
 10
1524.8069
 20
1167.7871
 40
199.38050999999999
 50
231.7756
 51
268.38173
  0
ARC
  8
_0-0_LAYER001
  6
CONTINUOUS
 62
    4
 10
1524.8069
 20
1167.7871
 40
197.38050999999999
 50
231.7756
 51
268.38173
  0
LINE
  8
_0-0_LAYER001
  6
CONTINUOUS
 62
    4
 10
1345.1447000000003
 20
1001.8389
 11
1375.4246000000001
 21
1015.8862999999999
  0
LINE
  8
_0-0_LAYER001
  6
CONTINUOUS
 62
    4
 10
1376.6732999999999
 20
1014.3254999999999
 11
1342.0229999999997
 21
998.71730000000002
  0
ARC
  8
_0-0_LAYER001
  6
CONTINUOUS
 62
    4
 10
1524.8069
 20
1167.7871
 40
182.38050999999999
 50
231.7756
 51
268.38173
  0
LINE
  8
_0-0_LAYER001
  6
CONTINUOUS
 62
    4
 10
1341.4097999999999
 20
980.07999999999993
 11
1341.4097999999999
 21
1016.6418000000001
  0
LINE
  8
_0-0_LAYER001
  6
CONTINUOUS
 62
    4
 10
1341.4097999999999
 20
1016.6418000000001
 11
1369.1121000000001
 21
1029.4934000000001
  0
ARC
  8
_0-0_LAYER001
  6
CONTINUOUS
 62
    4
 10
1524.8069
 20
1167.7871
 40
214.38050999999999
 50
231.7756
 51
268.38173
  0
ARC
  8
_0-0_LAYER001
  6
CONTINUOUS
 62
    4
 10
1386.2209000000003
 20
990.39409999999998
 40
27.732966999999999
 50
54.176177000000003
 51
112.93031000000001
  0
ARC
  8
_0-0_LAYER001
  6
CONTINUOUS
 62
    4
 10
1386.5688
 20
992.66750000000002
 40
40.679594999999999
 50
51.535313000000002
 51
115.27963000000001
  0
ARC
  8
_0-0_LAYER001
  6
CONTINUOUS
 62
    4
 10
1386.2074000000002
 20
989.89630000000011
 40
26.213477999999995
 50
54.56426900000001
 51
111.2666
  0
ARC
  8
_0-0_LAYER001
  6
CONTINUOUS
 62
    4
 10
1386.7182
 20
987.43489999999997
 40
13.076713
 50
65.553432000000001
 51
112.83269999999999
  0
ARC
  8
_0-0_LAYER001
  6
CONTINUOUS
 62
    4
 10
1501.4182999999998
 20
984.40190000000007
 40
69.674484000000007
 50
321.65733
 51
337.34946000000002
  0
ARC
  8
_0-0_LAYER001
  6
CONTINUOUS
 62
    4
 10
1515.2633000000001
 20
1260.6744000000001
 40
307.27562
 50
270.90795000000003
 51
293.21983
  0
ARC
  8
_0-0_LAYER001
  6
CONTINUOUS
 62
    4
 10
1515.2633000000001
 20
1260.6744000000001
 40
275.27562
 50
270.90795000000003
 51
287.11988000000002
  0
ARC
  8
_0-0_LAYER001
  6
CONTINUOUS
 62
    4
 10
1515.2633000000001
 20
1260.6744000000001
 40
292.27562
 50
270.90795000000003
 51
292.69346000000002
  0
LINE
  8
_0-0_LAYER001
  6
CONTINUOUS
 62
    4
 10
1628.0234999999998
 20
993.45090000000005
 11
1628.0234999999998
 21
991.02620000000002
  0
LINE
  8
_0-0_LAYER001
  6
CONTINUOUS
 62
    4
 10
1636.4097999999999
 20
978.28850000000011
 11
1636.4097999999999
 21
996.59580000000005
  0
LINE
  8
_0-0_LAYER001
  6
CONTINUOUS
 62
    4
 10
1628.0234999999998
 20
993.45090000000005
 11
1636.4097999999999
 21
996.59580000000005
  0
ARC
  8
_0-0_LAYER001
  6
CONTINUOUS
 62
    4
 10
1515.2633000000001
 20
1260.6744000000001
 40
290.27562
 50
270.90795000000003
 51
286.23334
  0
ARC
  8
_0-0_LAYER001
  6
CONTINUOUS
 62
    4
 10
1780.3807999999999
 20
1167.7871
 40
214.38050999999999
 50
231.7756
 51
268.38173
  0
LINE
  8
_0-0_LAYER001
  6
CONTINUOUS
 62
    4
 10
1600.9892
 20
983.38190000000009
 11
1637.1792
 21
999.53809999999999
  0
ARC
  8
_0-0_LAYER001
  6
CONTINUOUS
 62
    4
 10
1834.8499999999999
 20
984.28459999999995
 40
52.178303999999997
 50
215.53766999999999
 51
234.46232000000001
  0
ARC
  8
_0-0_LAYER001
  6
CONTINUOUS
 62
    4
 10
1808.5212999999999
 20
946.58079999999995
 40
6.2695089999999993
 50
234.10575000000003
 51
303.29033000000004
  0
ARC
  8
_0-0_LAYER001
  6
CONTINUOUS
 62
    4
 10
1777.0605
 20
990.58690000000001
 40
58.841383
 50
213.2508
 51
234.31144
  0
ARC
  8
_0-0_LAYER001
  6
CONTINUOUS
 62
    4
 10
1747.1849000000002
 20
949.42949999999996
 40
7.947610000000001
 50
234.52014000000003
 51
301.23766000000001
  0
ARC
  8
_0-0_LAYER001
  6
CONTINUOUS
 62
    4
 10
1730.6833999999999
 20
981.89879999999994
 40
44.132803000000003
 50
297.62160999999998
 51
318.23129999999998
  0
LINE
  8
_0-0_LAYER001
  6
CONTINUOUS
 62
    4
 10
1600.9892
 20
981.96199999999999
 11
1596.9837000000002
 21
980.07999999999993
  0
LINE
  8
_0-0_LAYER001
  6
CONTINUOUS
 62
    4
 10
1600.9892
 20
983.38190000000009
 11
1600.9892
 21
981.96199999999999
  0
LINE
  8
_0-0_LAYER001
  6
CONTINUOUS
 62
    4
 10
1600.4636
 20
1000.1258
 11
1597.1007
 21
998.79960000000005
  0
LINE
  8
_0-0_LAYER001
  6
CONTINUOUS
 62
    4
 10
1600.4636
 20
1001.6144999999999
 11
1600.4636
 21
1000.1258
  0
ARC
  8
_0-0_LAYER001
  6
CONTINUOUS
 62
    4
 10
1780.3807999999999
 20
1167.7871
 40
199.38050999999999
 50
231.7756
 51
268.38173
  0
ARC
  8
_0-0_LAYER001
  6
CONTINUOUS
 62
    4
 10
1780.3807999999999
 20
1167.7871
 40
199.38050999999999
 50
231.7756
 51
268.38173
  0
ARC
  8
_0-0_LAYER001
  6
CONTINUOUS
 62
    4
 10
1780.3807999999999
 20
1167.7871
 40
197.38050999999999
 50
231.7756
 51
268.38173
  0
LINE
  8
_0-0_LAYER001
  6
CONTINUOUS
 62
    4
 10
1600.7186000000002
 20
1001.8389
 11
1630.9985999999999
 21
1015.8862999999999
  0
LINE
  8
_0-0_LAYER001
  6
CONTINUOUS
 62
    4
 10
1632.2471999999998
 20
1014.3254999999999
 11
1597.5970000000002
 21
998.71730000000002
  0
ARC
  8
_0-0_LAYER001
  6
CONTINUOUS
 62
    4
 10
1780.3807999999999
 20
1167.7871
 40
182.38050999999999
 50
231.7756
 51
268.38173
  0
LINE
  8
_0-0_LAYER001
  6
CONTINUOUS
 62
    4
 10
1596.9837000000002
 20
980.07999999999993
 11
1596.9837000000002
 21
1016.6418000000001
  0
LINE
  8
_0-0_LAYER001
  6
CONTINUOUS
 62
    4
 10
1596.9837000000002
 20
1016.6418000000001
 11
1624.6860000000001
 21
1029.4934000000001
  0
ARC
  8
_0-0_LAYER001
  6
CONTINUOUS
 62
    4
 10
1780.3807999999999
 20
1167.7871
 40
214.38050999999999
 50
231.7756
 51
268.38173
  0
ARC
  8
_0-0_LAYER001
  6
CONTINUOUS
 62
    4
 10
1641.7948999999999
 20
990.39409999999998
 40
27.732966999999999
 50
54.176177000000003
 51
112.93031000000001
  0
ARC
  8
_0-0_LAYER001
  6
CONTINUOUS
 62
    4
 10
1642.1428000000001
 20
992.66750000000002
 40
40.679594999999999
 50
51.535313000000002
 51
115.27963000000001
  0
ARC
  8
_0-0_LAYER001
  6
CONTINUOUS
 62
    4
 10
1641.7813000000001
 20
989.89630000000011
 40
26.213477999999995
 50
54.56426900000001
 51
111.2666
  0
ARC
  8
_0-0_LAYER001
  6
CONTINUOUS
 62
    4
 10
1642.2921000000001
 20
987.43489999999997
 40
13.076713
 50
65.553432000000001
 51
112.83269999999999
  0
ARC
  8
_0-0_LAYER001
  6
CONTINUOUS
 62
    4
 10
1756.9922999999999
 20
984.40190000000007
 40
69.674484000000007
 50
321.65733
 51
337.34946000000002
  0
ARC
  8
_0-0_LAYER001
  6
CONTINUOUS
 62
    4
 10
1770.8371999999999
 20
1260.6744000000001
 40
307.27562
 50
270.90795000000003
 51
293.21983
  0
ARC
  8
_0-0_LAYER001
  6
CONTINUOUS
 62
    4
 10
1770.8371999999999
 20
1260.6744000000001
 40
275.27562
 50
270.90795000000003
 51
287.11988000000002
  0
ARC
  8
_0-0_LAYER001
  6
CONTINUOUS
 62
    4
 10
1770.8371999999999
 20
1260.6744000000001
 40
292.27562
 50
270.90795000000003
 51
292.69346000000002
  0
LINE
  8
_0-0_LAYER001
  6
CONTINUOUS
 62
    4
 10
1883.5974000000001
 20
993.45090000000005
 11
1883.5974000000001
 21
991.02620000000002
  0
LINE
  8
_0-0_LAYER001
  6
CONTINUOUS
 62
    4
 10
1891.9837000000002
 20
978.28850000000011
 11
1891.9837000000002
 21
996.59580000000005
  0
LINE
  8
_0-0_LAYER001
  6
CONTINUOUS
 62
    4
 10
1883.5974000000001
 20
993.45090000000005
 11
1891.9837000000002
 21
996.59580000000005
  0
ARC
  8
_0-0_LAYER001
  6
CONTINUOUS
 62
    4
 10
1770.8371999999999
 20
1260.6744000000001
 40
290.27562
 50
270.90795000000003
 51
286.23334
  0
LINE
  8
_0-0_LAYER001
  6
CONTINUOUS
 62
    4
 10
1851.9837000000002
 20
981.97180000000003
 11
1851.9837000000002
 21
997.63090000000011
  0
ARC
  8
_0-0_LAYER001
  6
CONTINUOUS
 62
    4
 10
2035.2676999999999
 20
1167.3907999999999
 40
214.38050999999999
 50
231.7756
 51
268.38173
  0
LINE
  8
_0-0_LAYER001
  6
CONTINUOUS
 62
    4
 10
1855.8761
 20
982.9855
 11
1892.0661
 21
999.1418000000001
  0
ARC
  8
_0-0_LAYER001
  6
CONTINUOUS
 62
    4
 10
2089.7368999999999
 20
983.88830000000007
 40
52.178303999999997
 50
215.53766999999999
 51
234.46232000000001
  0
ARC
  8
_0-0_LAYER001
  6
CONTINUOUS
 62
    4
 10
2063.4081999999999
 20
946.18450000000007
 40
6.2695089999999993
 50
234.10575000000003
 51
303.29033000000004
  0
ARC
  8
_0-0_LAYER001
  6
CONTINUOUS
 62
    4
 10
2031.9475000000002
 20
990.19049999999993
 40
58.841383
 50
213.2508
 51
234.31144
  0
ARC
  8
_0-0_LAYER001
  6
CONTINUOUS
 62
    4
 10
2002.0718000000002
 20
949.03320000000008
 40
7.947610000000001
 50
234.52014000000003
 51
301.23766000000001
  0
ARC
  8
_0-0_LAYER001
  6
CONTINUOUS
 62
    4
 10
1985.5702999999999
 20
981.50250000000005
 40
44.132803000000003
 50
297.62160999999998
 51
318.23129999999998
  0
LINE
  8
_0-0_LAYER001
  6
CONTINUOUS
 62
    4
 10
1855.8761
 20
981.56570000000011
 11
1851.8706999999999
 21
979.68360000000007
  0
LINE
  8
_0-0_LAYER001
  6
CONTINUOUS
 62
    4
 10
1855.8761
 20
982.9855
 11
1855.8761
 21
981.56570000000011
  0
LINE
  8
_0-0_LAYER001
  6
CONTINUOUS
 62
    4
 10
1855.3505
 20
999.72949999999992
 11
1851.9875999999999
 21
998.40319999999997
  0
LINE
  8
_0-0_LAYER001
  6
CONTINUOUS
 62
    4
 10
1855.3505
 20
1001.2181
 11
1855.3505
 21
999.72949999999992
  0
ARC
  8
_0-0_LAYER001
  6
CONTINUOUS
 62
    4
 10
2035.2676999999999
 20
1167.3907999999999
 40
199.38050999999999
 50
231.7756
 51
268.38173
  0
ARC
  8
_0-0_LAYER001
  6
CONTINUOUS
 62
    4
 10
2035.2676999999999
 20
1167.3907999999999
 40
199.38050999999999
 50
231.7756
 51
268.38173
  0
ARC
  8
_0-0_LAYER001
  6
CONTINUOUS
 62
    4
 10
2035.2676999999999
 20
1167.3907999999999
 40
197.38050999999999
 50
231.7756
 51
268.38173
  0
LINE
  8
_0-0_LAYER001
  6
CONTINUOUS
 62
    4
 10
1855.6055000000001
 20
1001.4426000000001
 11
1885.8854999999999
 21
1015.49
  0
LINE
  8
_0-0_LAYER001
  6
CONTINUOUS
 62
    4
 10
1887.1341000000002
 20
1013.9292
 11
1852.4839000000002
 21
998.32089999999994
  0
ARC
  8
_0-0_LAYER001
  6
CONTINUOUS
 62
    4
 10
2035.2676999999999
 20
1167.3907999999999
 40
182.38050999999999
 50
231.7756
 51
268.38173
  0
LINE
  8
_0-0_LAYER001
  6
CONTINUOUS
 62
    4
 10
1851.8706999999999
 20
979.68360000000007
 11
1851.8706999999999
 21
1016.2455
  0
LINE
  8
_0-0_LAYER001
  6
CONTINUOUS
 62
    4
 10
1851.8706999999999
 20
1016.2455
 11
1879.5729000000001
 21
1029.097
  0
ARC
  8
_0-0_LAYER001
  6
CONTINUOUS
 62
    4
 10
2035.2676999999999
 20
1167.3907999999999
 40
214.38050999999999
 50
231.7756
 51
268.38173
  0
ARC
  8
_0-0_LAYER001
  6
CONTINUOUS
 62
    4
 10
1896.6817999999998
 20
989.9978000000001
 40
27.732966999999999
 50
54.176177000000003
 51
112.93031000000001
  0
ARC
  8
_0-0_LAYER001
  6
CONTINUOUS
 62
    4
 10
1897.0297
 20
992.27119999999991
 40
40.679594999999999
 50
51.535313000000002
 51
115.27963000000001
  0
ARC
  8
_0-0_LAYER001
  6
CONTINUOUS
 62
    4
 10
1896.6682999999998
 20
989.49990000000003
 40
26.213477999999995
 50
54.56426900000001
 51
111.2666
  0
ARC
  8
_0-0_LAYER001
  6
CONTINUOUS
 62
    4
 10
1897.1790999999998
 20
987.03850000000011
 40
13.076713
 50
65.553432000000001
 51
112.83269999999999
  0
ARC
  8
_0-0_LAYER001
  6
CONTINUOUS
 62
    4
 10
2011.8791999999999
 20
984.00549999999998
 40
69.674484000000007
 50
321.65733
 51
337.34946000000002
  0
ARC
  8
_0-0_LAYER001
  6
CONTINUOUS
 62
    4
 10
2025.7240999999999
 20
1260.2781
 40
307.27562
 50
270.90795000000003
 51
293.21983
  0
ARC
  8
_0-0_LAYER001
  6
CONTINUOUS
 62
    4
 10
2025.7240999999999
 20
1260.2781
 40
275.27562
 50
270.90795000000003
 51
287.11988000000002
  0
ARC
  8
_0-0_LAYER001
  6
CONTINUOUS
 62
    4
 10
2025.7240999999999
 20
1260.2781
 40
292.27562
 50
270.90795000000003
 51
292.69346000000002
  0
ARC
  8
_0-0_LAYER001
  6
CONTINUOUS
 62
    4
 10
2025.7240999999999
 20
1260.2781
 40
290.27562
 50
270.90795000000003
 51
286.23334
  0
ARC
  8
_0-0_LAYER001
  6
CONTINUOUS
 62
    4
 10
2289.9036000000001
 20
1169.8271
 40
214.38050999999999
 50
231.7756
 51
246.56332
  0
LINE
  8
_0-0_LAYER001
  6
CONTINUOUS
 62
    4
 10
2110.5119
 20
985.42180000000008
 11
2146.7019
 21
1001.5780999999999
  0
LINE
  8
_0-0_LAYER001
  6
CONTINUOUS
 62
    4
 10
2110.5119
 20
984.00199999999995
 11
2106.5065
 21
982.11989999999992
  0
LINE
  8
_0-0_LAYER001
  6
CONTINUOUS
 62
    4
 10
2110.5119
 20
985.42180000000008
 11
2110.5119
 21
984.00199999999995
  0
LINE
  8
_0-0_LAYER001
  6
CONTINUOUS
 62
    4
 10
2109.9863999999998
 20
1002.1658
 11
2106.6233999999999
 21
1000.8395
  0
LINE
  8
_0-0_LAYER001
  6
CONTINUOUS
 62
    4
 10
2109.9863999999998
 20
1003.6543999999999
 11
2109.9863999999998
 21
1002.1658
  0
ARC
  8
_0-0_LAYER001
  6
CONTINUOUS
 62
    4
 10
2289.9036000000001
 20
1169.8271
 40
199.38050999999999
 50
231.7756
 51
244.68097
  0
ARC
  8
_0-0_LAYER001
  6
CONTINUOUS
 62
    4
 10
2289.9036000000001
 20
1169.8271
 40
199.38050999999999
 50
231.7756
 51
244.68097
  0
ARC
  8
_0-0_LAYER001
  6
CONTINUOUS
 62
    4
 10
2289.9036000000001
 20
1169.8271
 40
197.38050999999999
 50
231.7756
 51
244.40598999999997
  0
LINE
  8
_0-0_LAYER001
  6
CONTINUOUS
 62
    4
 10
2110.2413999999999
 20
1003.8788999999999
 11
2140.5212999999999
 21
1017.9263000000001
  0
LINE
  8
_0-0_LAYER001
  6
CONTINUOUS
 62
    4
 10
2141.77
 20
1016.3653999999999
 11
2107.1197000000002
 21
1000.7572
  0
ARC
  8
_0-0_LAYER001
  6
CONTINUOUS
 62
    4
 10
2289.9036000000001
 20
1169.8271
 40
182.38050999999999
 50
231.7756
 51
242.12649999999996
  0
LINE
  8
_0-0_LAYER001
  6
CONTINUOUS
 62
    4
 10
2106.5065
 20
982.11989999999992
 11
2106.5065
 21
1018.6817000000001
  0
LINE
  8
_0-0_LAYER001
  6
CONTINUOUS
 62
    4
 10
2106.5065
 20
1018.6817000000001
 11
2134.2087999999999
 21
1031.5333000000001
  0
ARC
  8
_0-0_LAYER001
  6
CONTINUOUS
 62
    4
 10
2289.9036000000001
 20
1169.8271
 40
214.38050999999999
 50
231.7756
 51
246.56332
  0
ARC
  8
_0-0_LAYER001
  6
CONTINUOUS
 62
    4
 10
2151.3175999999999
 20
992.43409999999994
 40
27.732966999999999
 50
54.176177000000003
 51
112.93031000000001
  0
ARC
  8
_0-0_LAYER001
  6
CONTINUOUS
 62
    4
 10
2151.6655000000001
 20
994.70749999999998
 40
40.679594999999999
 50
51.535313000000002
 51
115.27963000000001
  0
ARC
  8
_0-0_LAYER001
  6
CONTINUOUS
 62
    4
 10
2151.3040999999998
 20
991.9362000000001
 40
26.213477999999995
 50
54.56426900000001
 51
111.2666
  0
ARC
  8
_0-0_LAYER001
  6
CONTINUOUS
 62
    4
 10
2151.8148999999999
 20
989.47479999999996
 40
13.076713
 50
65.553432000000001
 51
112.83269999999999
  0
LINE
  8
_0-0_LAYER001
  6
CONTINUOUS
 62
    4
 10
2138.6212999999998
 20
993.11519999999996
 11
2138.6212999999998
 21
990.93000000000006
  0
LINE
  8
_0-0_LAYER001
  6
CONTINUOUS
 62
    4
 10
2138.6212999999998
 20
993.73949999999991
 11
2138.6212999999998
 21
990.93000000000006
  0
LINE
  8
_0-0_LAYER001
  6
CONTINUOUS
 62
    4
 10
2138.6212999999998
 20
994.05169999999998
 11
2146.7375999999999
 21
997.17329999999993
  0
LINE
  8
_0-0_LAYER001
  6
CONTINUOUS
 62
    4
 10
2146.7375999999999
 20
978.44340000000011
 11
2146.7375999999999
 21
997.17329999999993
  0
ARC
  8
_0-0_LAYER001
  6
CONTINUOUS
 62
    4
 10
1131.9634000000001
 20
989.07320000000004
 40
13.076713
 50
65.553432000000001
 51
117.42375
  0
ARC
  8
_0-0_LAYER001
  6
CONTINUOUS
 62
    4
 10
1131.8141000000001
 20
994.30580000000009
 40
40.679594999999999
 50
51.535313000000002
 51
98.827657000000002
  0
ARC
  8
_0-0_LAYER001
  6
CONTINUOUS
 62
    4
 10
1131.4662000000001
 20
992.03240000000005
 40
27.732966999999999
 50
54.176177000000003
 51
102.20569
  0
ARC
  8
_0-0_LAYER001
  6
CONTINUOUS
 62
    4
 10
1131.4526000000001
 20
991.53449999999998
 40
26.213477999999995
 50
54.56426900000001
 51
102.77263000000001
  0
LINE
  8
_0-0_LAYER001
  6
CONTINUOUS
 62
    4
 10
1125.9407000000001
 20
1034.2916
 11
1125.9407000000001
 21
1005.0007000000001
  0
LINE
  8
_0-0_LAYER001
  6
CONTINUOUS
 62
    4
 10
1125.9407000000001
 20
1005.0007000000001
 11
1125.9407000000001
 21
1000.6804
  0
LINE
  8
_0-0_LAYER001
  6
CONTINUOUS
 62
    4
 10
1125.4902999999999
 20
1000.5691999999999
 11
1126.8505
 21
1001.1764000000001
  0
LINE
  8
_0-1_LAYER003
  6
CONTINUOUS
 62
    7
 10
830.86300000000006
 20
933.3886
 11
780.86300000000006
 21
933.3886
  0
LINE
  8
_0-1_LAYER003
  6
CONTINUOUS
 62
    7
 10
780.86300000000006
 20
933.3886
 11
780.86300000000006
 21
1183.3886
  0
LINE
  8
_0-1_LAYER003
  6
CONTINUOUS
 62
    7
 10
780.86300000000006
 20
1183.3886
 11
830.86300000000006
 21
1183.3886
  0
LINE
  8
_0-1_LAYER003
  6
CONTINUOUS
 62
    7
 10
946.25150000000008
 20
933.3886
 11
894.55150000000003
 21
933.3886
  0
LINE
  8
_0-1_LAYER003
  6
CONTINUOUS
 62
    7
 10
896.25150000000008
 20
933.3886
 11
896.25150000000008
 21
1223.6886
  0
LINE
  8
_0-1_LAYER003
  6
CONTINUOUS
 62
    7
 10
896.25150000000008
 20
1223.6886
 11
896.25150000000008
 21
1225.3886
  0
LINE
  8
_0-1_LAYER003
  6
CONTINUOUS
 62
    7
 10
894.55150000000003
 20
1225.3886
 11
946.25150000000008
 21
1225.3886
  0
LINE
  8
_0-1_LAYER003
  6
CONTINUOUS
 62
    7
 10
894.55150000000003
 20
1205.3886
 11
946.25150000000008
 21
1205.3886
  0
LINE
  8
_0-1_LAYER003
  6
CONTINUOUS
 62
    7
 10
894.55150000000003
 20
1105.3886
 11
946.25150000000008
 21
1105.3886
  0
LINE
  8
_0-1_LAYER003
  6
CONTINUOUS
 62
    7
 10
896.25150000000008
 20
1048.3886
 11
894.55150000000003
 21
1048.3886
  0
LINE
  8
_0-1_LAYER003
  6
CONTINUOUS
 62
    7
 10
894.55150000000003
 20
1048.3886
 11
946.25150000000008
 21
1048.3886
  0
LINE
  8
_0-1_LAYER003
  6
CONTINUOUS
 62
    7
 10
1010.6187
 20
1132.3158000000001
 11
1091.6187
 21
1132.3158000000001
  0
LINE
  8
_0-1_LAYER003
  6
CONTINUOUS
 62
    7
 10
1140.9695999999999
 20
1467.5026
 11
1140.9695999999999
 21
1225.3886
  0
LINE
  8
_0-1_LAYER003
  6
CONTINUOUS
 62
    7
 10
1140.4962467170371
 20
1225.3886011743584
 11
1115.9695999999999
 21
1225.3886011743584
  0
LINE
  8
_0-1_LAYER003
  6
CONTINUOUS
 62
    7
 10
1115.9695999999999
 20
1225.3886
 11
1115.9695999999999
 21
933.3886
  0
LINE
  8
_0-1_LAYER003
  6
CONTINUOUS
 62
    7
 10
1115.9695999999999
 20
933.3886
 11
2204.6369
 21
933.3886
  0
LINE
  8
_0-1_LAYER003
  6
CONTINUOUS
 62
    7
 10
2204.6369
 20
935.88560000000007
 11
1118.2926
 21
935.88560000000007
  0
LINE
  8
_0-1_LAYER003
  6
CONTINUOUS
 62
    7
 10
1118.2926
 20
935.88560000000007
 11
1118.2926
 21
1183.3886
  0
LINE
  8
_0-1_LAYER003
  6
CONTINUOUS
 62
    7
 10
1115.9695999999999
 20
1205.3886
 11
1138.9590699198027
 21
1205.3886
  0
LINE
  8
_0-1_LAYER003
  6
CONTINUOUS
 62
    7
 10
1138.9590699198027
 20
1205.4367903825282
 11
1140.9695999999999
 21
1205.4367903825282
  0
LINE
  8
_0-1_LAYER003
  6
CONTINUOUS
 62
    7
 10
1140.9695999999999
 20
1205.4367903825282
 11
1140.9695999999999
 21
1105.3886
  0
LINE
  8
_0-1_LAYER003
  6
CONTINUOUS
 62
    7
 10
1140.9695999999999
 20
1105.3886
 11
1140.9695999999999
 21
1145.931
  0
LINE
  8
_0-1_LAYER003
  6
CONTINUOUS
 62
    7
 10
1140.9695999999999
 20
1144.231
 11
1230.9695999999999
 21
1144.231
  0
LINE
  8
_0-1_LAYER003
  6
CONTINUOUS
 62
    7
 10
1230.9695999999999
 20
1145.931
 11
1230.9695999999999
 21
1119.231
  0
LINE
  8
_0-1_LAYER003
  6
CONTINUOUS
 62
    7
 10
1116.1557
 20
1090.2711999999999
 11
1127.8554999999999
 21
1090.2711999999999
  0
LINE
  8
_0-1_LAYER003
  6
CONTINUOUS
 62
    7
 10
1121.6405999999999
 20
1083.3886
 11
1136.6405999999999
 21
1083.3886
  0
LINE
  8
_0-1_LAYER003
  6
CONTINUOUS
 62
    7
 10
1136.6405999999999
 20
1083.3886
 11
1136.6405999999999
 21
1067.2713000000001
  0
LINE
  8
_0-1_LAYER003
  6
CONTINUOUS
 62
    7
 10
1121.6405999999999
 20
1083.3886
 11
1121.6405999999999
 21
938.26060000000007
  0
LINE
  8
_0-1_LAYER003
  6
CONTINUOUS
 62
    7
 10
1121.6405999999999
 20
938.26060000000007
 11
1216.3484000000001
 21
938.26060000000007
  0
LINE
  8
_0-1_LAYER003
  6
CONTINUOUS
 62
    7
 10
1216.3484000000001
 20
938.26060000000007
 11
1216.3484000000001
 21
954.83130000000006
  0
LINE
  8
_0-1_LAYER003
  6
CONTINUOUS
 62
    7
 10
1216.3484000000001
 20
954.83130000000006
 11
1195.8044
 21
954.83130000000006
  0
LINE
  8
_0-1_LAYER003
  6
CONTINUOUS
 62
    7
 10
1221.6233999999999
 20
954.83130000000006
 11
1221.6233999999999
 21
939.83130000000006
  0
LINE
  8
_0-1_LAYER003
  6
CONTINUOUS
 62
    7
 10
2204.6369
 20
939.83130000000006
 11
1221.6233999999999
 21
939.83130000000006
  0
LINE
  8
_0-1_LAYER003
  6
CONTINUOUS
 62
    7
 10
1221.6233999999999
 20
954.44239170320088
 11
2204.6369
 21
954.44239170320088
  0
LINE
  8
_0-1_LAYER003
  6
CONTINUOUS
 62
    7
 10
2204.6369
 20
813.3886
 11
1115.9695999999999
 21
813.3886
  0
LINE
  8
_0-1_LAYER003
  6
CONTINUOUS
 62
    7
 10
1341.5884000000001
 20
775.63679999999999
 11
1341.5884000000001
 21
725.63679999999999
  0
LINE
  8
_0-1_LAYER003
  6
CONTINUOUS
 62
    7
 10
1341.5884000000001
 20
723.93679999999995
 11
1341.5884000000001
 21
725.63679999999999
  0
LINE
  8
_0-1_LAYER003
  6
CONTINUOUS
 62
    7
 10
1341.5884000000001
 20
725.63679999999999
 11
2106.8714
 21
725.63679999999999
  0
LINE
  8
_0-1_LAYER003
  6
CONTINUOUS
 62
    7
 10
2106.8714
 20
723.93679999999995
 11
2106.8714
 21
775.63679999999999
  0
LINE
  8
_0-1_LAYER003
  6
CONTINUOUS
 62
    7
 10
1851.1673000000001
 20
723.93679999999995
 11
1851.1673000000001
 21
775.63679999999999
  0
LINE
  8
_0-1_LAYER003
  6
CONTINUOUS
 62
    7
 10
1596.8714
 20
723.93679999999995
 11
1596.8714
 21
775.63679999999999
  0
LINE
  8
_0-1_LAYER003
  6
CONTINUOUS
 62
    7
 10
1792.9457428114804
 20
662.15650000000005
 11
1997.3831
 21
662.15650000000005
  0
LINE
  8
_0-1_LAYER003
  6
CONTINUOUS
 62
    7
 10
1618.2037
 20
1098.8224
 11
1658.7037
 21
1098.8224
  0
LINE
  8
_0-1_LAYER003
  6
CONTINUOUS
 62
    7
 10
1297.9908
 20
1153.1030000000001
 11
1411.9908
 21
1153.1030000000001
  0
LINE
  8
_0-1_LAYER003
  6
CONTINUOUS
 62
    7
 10
1186.5494000000001
 20
1303.1479999999999
 11
1267.5494000000001
 21
1303.1479999999999
  0
LINE
  8
_0-1_LAYER003
  6
CONTINUOUS
 62
    7
 10
1267.5387000000001
 20
1243.2345
 11
1501.5387000000001
 21
1243.2345
  0
LINE
  8
_0-1_LAYER003
  6
CONTINUOUS
 62
    7
 10
1271.8267000000001
 20
1207.1233999999999
 11
1402.3267000000001
 21
1207.1233999999999
  0
LINE
  8
_0-1_LAYER003
  6
CONTINUOUS
 62
    7
 10
1004.5006000000001
 20
889.25320000000011
 11
1078.4929999999999
 21
889.25320000000011
  0
LINE
  8
_0-1_LAYER003
  6
CONTINUOUS
 62
    7
 10
852.64689999999996
 20
850.43669999999997
 11
1086.6469
 21
850.43669999999997
  0
LINE
  8
_0-1_LAYER003
  6
CONTINUOUS
 62
    7
 10
1120.0246
 20
1205.3886
 11
1120.0246
 21
1225.3886
  0
LINE
  8
_0-1_LAYER003
  6
CONTINUOUS
 62
    7
 10
1125.4866
 20
1205.3886
 11
1125.4866
 21
1225.3886
  0
LINE
  8
_0-1_LAYER003
  6
CONTINUOUS
 62
    7
 10
1137.7526
 20
1222.5119
 11
1135.8115
 21
1215.2674
  0
LINE
  8
_0-1_LAYER003
  6
CONTINUOUS
 62
    7
 10
1135.8115
 20
1215.2674
 11
1141.1148000000001
 21
1220.5707
  0
LINE
  8
_0-1_LAYER003
  6
CONTINUOUS
 62
    7
 10
1125.4866
 20
1225.3886
 11
1120.0246
 21
1205.3886
  0
LINE
  8
_0-1_LAYER003
  6
CONTINUOUS
 62
    7
 10
1120.0246
 20
1225.3886
 11
1125.4866
 21
1205.3886
  0
ARC
  8
_0-1_LAYER003
  6
CONTINUOUS
 62
    7
 10
1155.9171727435855
 20
1213.8051387418222
 40
18.910486658055333
 50
142.22648928730032
 51
206.26504755275104
  0
LINE
  8
_0-1_LAYER003
  6
CONTINUOUS
 62
    7
 10
1135.8115
 20
1215.2674
 11
1186.5494000000001
 21
1303.1479999999999
  0
LINE
  8
_0-1_LAYER003
  6
CONTINUOUS
 62
    7
 10
1267.5387000000001
 20
1243.2345
 11
1183.8092999999999
 21
1098.2108000000001
  0
LINE
  8
_0-1_LAYER003
  6
CONTINUOUS
 62
    7
 10
1183.8092999999999
 20
1098.2108000000001
 11
1185.7503999999999
 21
1105.4553000000001
  0
LINE
  8
_0-1_LAYER003
  6
CONTINUOUS
 62
    7
 10
1183.8092999999999
 20
1098.2108000000001
 11
1189.1125999999999
 21
1103.5141000000001
  0
LINE
  8
_0-1_LAYER003
  6
CONTINUOUS
 62
    7
 10
1140.9695999999999
 20
1105.3886
 11
1230.9695999999999
 21
1088.9037000000001
  0
LINE
  8
_0-1_LAYER003
  6
CONTINUOUS
 62
    7
 10
1230.9695999999999
 20
1088.9037000000001
 11
1231.5175999999999
 21
1070.8246999999999
  0
LINE
  8
_0-1_LAYER003
  6
CONTINUOUS
 62
    7
 10
1231.5175999999999
 20
1070.8246999999999
 11
1227.5237999999999
 21
1076.8088
  0
LINE
  8
_0-1_LAYER003
  6
CONTINUOUS
 62
    7
 10
1204.0218
 20
1093.5642
 11
1202.0807
 21
1086.3198
  0
LINE
  8
_0-1_LAYER003
  6
CONTINUOUS
 62
    7
 10
1202.0807
 20
1086.3198
 11
1207.0952795824064
 21
1091.3343795824064
  0
LINE
  8
_0-1_LAYER003
  6
CONTINUOUS
 62
    7
 10
1202.0807
 20
1086.3198
 11
1271.8267000000001
 21
1207.1233999999999
  0
LINE
  8
_0-1_LAYER003
  6
CONTINUOUS
 62
    7
 10
1297.9908
 20
1153.1030000000001
 11
1237.0542
 21
1047.5577000000001
  0
LINE
  8
_0-1_LAYER003
  6
CONTINUOUS
 62
    7
 10
1237.0542
 20
1047.5577000000001
 11
1238.9954
 21
1054.8021000000001
  0
LINE
  8
_0-1_LAYER003
  6
CONTINUOUS
 62
    7
 10
1237.0542
 20
1047.5577000000001
 11
1242.3575000000001
 21
1052.8610000000001
  0
LINE
  8
_0-1_LAYER003
  6
CONTINUOUS
 62
    7
 10
1213.9906000000001
 20
1074.8222000000001
 11
1216.6936000000001
 21
1089.5762
  0
LINE
  8
_0-1_LAYER003
  6
CONTINUOUS
 62
    7
 10
1216.6936000000001
 20
1089.5762
 11
1128.1666
 21
1105.7922000000001
  0
LINE
  8
_0-1_LAYER003
  6
CONTINUOUS
 62
    7
 10
1125.9351999999999
 20
1090.9037000000001
 11
1213.9906000000001
 21
1074.8222000000001
  0
LINE
  8
_0-1_LAYER003
  6
CONTINUOUS
 62
    7
 10
1216.6936000000001
 20
1089.5762
 11
1125.9540310776406
 21
1091.0293460067473
  0
LINE
  8
_0-1_LAYER003
  6
CONTINUOUS
 62
    7
 10
1125.9540310776406
 20
1091.0293460067473
 11
1125.4636
 21
1091.0372
  0
LINE
  8
_0-1_LAYER003
  6
CONTINUOUS
 62
    7
 10
1125.4636
 20
1091.0372
 11
1128.1666
 21
1105.7922000000001
  0
LINE
  8
_0-1_LAYER003
  6
CONTINUOUS
 62
    7
 10
1125.4636
 20
1091.0372
 11
1213.9906000000001
 21
1074.8222000000001
  0
LINE
  8
_0-1_LAYER003
  6
CONTINUOUS
 62
    7
 10
1142.2574999999999
 20
1101.2840000000001
 11
1140.575
 21
1103.8286000000001
  0
LINE
  8
_0-1_LAYER003
  6
CONTINUOUS
 62
    7
 10
1140.575
 20
1103.8286000000001
 11
1148.6457
 21
1100.0659000000001
  0
LINE
  8
_0-1_LAYER003
  6
CONTINUOUS
 62
    7
 10
1148.6457
 20
1100.0659000000001
 11
1145.6169
 21
1099.7192
  0
LINE
  8
_0-1_LAYER003
  6
CONTINUOUS
 62
    7
 10
1145.6169
 20
1099.7192
 11
1134.2059999999999
 21
1075.2448999999999
  0
LINE
  8
_0-1_LAYER003
  6
CONTINUOUS
 62
    7
 10
1134.2059999999999
 20
1075.2448999999999
 11
1128.7497000000001
 21
1068.1769999999999
  0
LINE
  8
_0-1_LAYER003
  6
CONTINUOUS
 62
    7
 10
1128.7497000000001
 20
1068.1769999999999
 11
1130.8468
 21
1076.8112000000001
  0
LINE
  8
_0-1_LAYER003
  6
CONTINUOUS
 62
    7
 10
1130.8468
 20
1076.8112000000001
 11
1142.2574999999999
 21
1101.2840000000001
  0
LINE
  8
_0-1_LAYER003
  6
CONTINUOUS
 62
    7
 10
1146.1557
 20
1087.2108433353321
 11
1146.1557
 21
1050.2711999999999
  0
LINE
  8
_0-1_LAYER003
  6
CONTINUOUS
 62
    7
 10
1146.1557
 20
1050.2711999999999
 11
1116.1557
 21
1050.2711999999999
  0
LINE
  8
_0-1_LAYER003
  6
CONTINUOUS
 62
    7
 10
1116.1557
 20
1050.2711999999999
 11
1144.1369236064759
 21
1087.5795311451934
  0
LINE
  8
_0-1_LAYER003
  6
CONTINUOUS
 62
    7
 10
1140.1558
 20
1073.2711999999999
 11
1146.1557
 21
1076.2713000000001
  0
LINE
  8
_0-1_LAYER003
  6
CONTINUOUS
 62
    7
 10
1140.1558
 20
1067.2713000000001
 11
1146.1557
 21
1064.2710999999999
  0
LINE
  8
_0-1_LAYER003
  6
CONTINUOUS
 62
    7
 10
1140.1558
 20
1073.2711999999999
 11
1140.1558
 21
1067.2713000000001
  0
LINE
  8
_0-1_LAYER003
  6
CONTINUOUS
 62
    7
 10
1116.1557
 20
1067.2713000000001
 11
1140.1558
 21
1067.2713000000001
  0
LINE
  8
_0-1_LAYER003
  6
CONTINUOUS
 62
    7
 10
1140.1558
 20
1073.2711999999999
 11
1116.6362999999999
 21
1073.2711999999999
  0
LINE
  8
_0-1_LAYER003
  6
CONTINUOUS
 62
    7
 10
1116.6362999999999
 20
1073.2711999999999
 11
1116.1557
 21
1073.2711999999999
  0
LINE
  8
_0-1_LAYER003
  6
CONTINUOUS
 62
    7
 10
1116.1557
 20
1066.0211999999999
 11
1116.1557
 21
1074.5211999999999
  0
LINE
  8
_0-1_LAYER003
  6
CONTINUOUS
 62
    7
 10
1116.1557
 20
1074.5211999999999
 11
1097.9558
 21
1074.5211999999999
  0
LINE
  8
_0-1_LAYER003
  6
CONTINUOUS
 62
    7
 10
1097.9558
 20
1074.5211999999999
 11
1088.8619000000001
 21
1076.1261999999999
  0
LINE
  8
_0-1_LAYER003
  6
CONTINUOUS
 62
    7
 10
1088.8619000000001
 20
1076.1261999999999
 11
1088.5658000000001
 21
1074.4521999999999
  0
LINE
  8
_0-1_LAYER003
  6
CONTINUOUS
 62
    7
 10
1088.5658000000001
 20
1074.4521999999999
 11
1086.8916999999999
 21
1074.7473
  0
LINE
  8
_0-1_LAYER003
  6
CONTINUOUS
 62
    7
 10
1086.8916999999999
 20
1074.7473
 11
1087.1876284598729
 21
1076.4202302566077
  0
LINE
  8
_0-1_LAYER003
  6
CONTINUOUS
 62
    7
 10
1087.1876284598729
 20
1076.4202302566077
 11
1084.5288
 21
1076.8902
  0
LINE
  8
_0-1_LAYER003
  6
CONTINUOUS
 62
    7
 10
1084.5288
 20
1076.8902
 11
1084.2327
 21
1075.2163
  0
LINE
  8
_0-1_LAYER003
  6
CONTINUOUS
 62
    7
 10
1084.2327
 20
1075.2163
 11
1082.5598
 21
1075.5111999999999
  0
LINE
  8
_0-1_LAYER003
  6
CONTINUOUS
 62
    7
 10
1082.5598
 20
1075.5111999999999
 11
1082.8547000000001
 21
1077.1842999999999
  0
LINE
  8
_0-1_LAYER003
  6
CONTINUOUS
 62
    7
 10
1082.8547000000001
 20
1077.1842999999999
 11
1080.1958
 21
1077.6542999999999
  0
LINE
  8
_0-1_LAYER003
  6
CONTINUOUS
 62
    7
 10
1080.1958
 20
1077.6542999999999
 11
1079.8997999999999
 21
1075.9802999999999
  0
LINE
  8
_0-1_LAYER003
  6
CONTINUOUS
 62
    7
 10
1079.8997999999999
 20
1075.9802999999999
 11
1078.2257
 21
1076.2752
  0
LINE
  8
_0-1_LAYER003
  6
CONTINUOUS
 62
    7
 10
1078.2257
 20
1076.2752
 11
1078.5217
 21
1077.9481000000001
  0
LINE
  8
_0-1_LAYER003
  6
CONTINUOUS
 62
    7
 10
1078.5217
 20
1077.9481000000001
 11
1077.0436588610928
 21
1078.211059324256
  0
LINE
  8
_0-1_LAYER003
  6
CONTINUOUS
 62
    7
 10
1077.0436588610928
 20
1078.211059324256
 11
1075.3116686377107
 21
1077.0003057996453
  0
LINE
  8
_0-1_LAYER003
  6
CONTINUOUS
 62
    7
 10
1075.3116686377107
 20
1077.0003057996453
 11
1074.9067
 21
1074.7282
  0
LINE
  8
_0-1_LAYER003
  6
CONTINUOUS
 62
    7
 10
1074.9067
 20
1074.7282
 11
1100.1796999999999
 21
1070.2723000000001
  0
LINE
  8
_0-1_LAYER003
  6
CONTINUOUS
 62
    7
 10
1100.1796999999999
 20
1070.2723000000001
 11
1075.0817999999999
 21
1065.8462
  0
LINE
  8
_0-1_LAYER003
  6
CONTINUOUS
 62
    7
 10
1075.0817999999999
 20
1065.8462
 11
1075.4797000000001
 21
1063.5813000000001
  0
LINE
  8
_0-1_LAYER003
  6
CONTINUOUS
 62
    7
 10
1075.4797000000001
 20
1063.5813000000001
 11
1077.2237931808136
 21
1062.3706791172679
  0
LINE
  8
_0-1_LAYER003
  6
CONTINUOUS
 62
    7
 10
1077.2237931808136
 20
1062.3706791172679
 11
1078.6958
 21
1062.6251999999999
  0
LINE
  8
_0-1_LAYER003
  6
CONTINUOUS
 62
    7
 10
1078.6958
 20
1062.6251999999999
 11
1078.4006999999999
 21
1064.2991999999999
  0
LINE
  8
_0-1_LAYER003
  6
CONTINUOUS
 62
    7
 10
1078.4006999999999
 20
1064.2991999999999
 11
1080.0746999999999
 21
1064.5942
  0
LINE
  8
_0-1_LAYER003
  6
CONTINUOUS
 62
    7
 10
1080.0746999999999
 20
1064.5942
 11
1080.3697
 21
1062.9212
  0
LINE
  8
_0-1_LAYER003
  6
CONTINUOUS
 62
    7
 10
1080.3697
 20
1062.9212
 11
1083.0288
 21
1063.3903
  0
LINE
  8
_0-1_LAYER003
  6
CONTINUOUS
 62
    7
 10
1083.0288
 20
1063.3903
 11
1082.7337
 21
1065.0633
  0
LINE
  8
_0-1_LAYER003
  6
CONTINUOUS
 62
    7
 10
1082.7337
 20
1065.0633
 11
1084.4067
 21
1065.3583000000001
  0
LINE
  8
_0-1_LAYER003
  6
CONTINUOUS
 62
    7
 10
1084.4067
 20
1065.3583000000001
 11
1084.7027
 21
1063.6851999999999
  0
LINE
  8
_0-1_LAYER003
  6
CONTINUOUS
 62
    7
 10
1084.7027
 20
1063.6851999999999
 11
1087.3619000000001
 21
1064.1541999999999
  0
LINE
  8
_0-1_LAYER003
  6
CONTINUOUS
 62
    7
 10
1087.3619000000001
 20
1064.1541999999999
 11
1087.0668000000001
 21
1065.8271999999999
  0
LINE
  8
_0-1_LAYER003
  6
CONTINUOUS
 62
    7
 10
1087.0668000000001
 20
1065.8271999999999
 11
1088.7397000000001
 21
1066.1222
  0
LINE
  8
_0-1_LAYER003
  6
CONTINUOUS
 62
    7
 10
1088.7397302496854
 20
1066.1220290959179
 11
1089.0358000000001
 21
1064.4493
  0
LINE
  8
_0-1_LAYER003
  6
CONTINUOUS
 62
    7
 10
1089.0358000000001
 20
1064.4493
 11
1097.9558
 21
1066.0211999999999
  0
LINE
  8
_0-1_LAYER003
  6
CONTINUOUS
 62
    7
 10
1097.9558
 20
1066.0211999999999
 11
1116.1557
 21
1066.0211999999999
  0
LINE
  8
_0-1_LAYER003
  6
CONTINUOUS
 62
    7
 10
1140.9695999999999
 20
1415.9456
 11
1021.6905999999999
 21
1296.6656
  0
LINE
  8
_0-1_LAYER003
  6
CONTINUOUS
 62
    7
 10
1021.6905999999999
 20
1285.3525999999999
 11
1140.9695999999999
 21
1404.6315999999999
  0
LINE
  8
_0-1_LAYER003
  6
CONTINUOUS
 62
    7
 10
1140.9695999999999
 20
1393.3176000000001
 11
1021.6905999999999
 21
1274.0386000000001
  0
LINE
  8
_0-1_LAYER003
  6
CONTINUOUS
 62
    7
 10
1091.6187
 20
1132.3158000000001
 11
1119.7219
 21
1083.6396999999999
  0
LINE
  8
_0-1_LAYER003
  6
CONTINUOUS
 62
    7
 10
1119.7219
 20
1083.6396999999999
 11
1117.7807
 21
1090.8842
  0
LINE
  8
_0-1_LAYER003
  6
CONTINUOUS
 62
    7
 10
1114.4186
 20
1088.943
 11
1119.7219
 21
1083.6396999999999
  0
LINE
  8
_0-1_LAYER003
  6
CONTINUOUS
 62
    7
 10
1155.211512180003
 20
1022.1336554608547
 11
1150.0703000000001
 21
1017.1111000000001
  0
LINE
  8
_0-1_LAYER003
  6
CONTINUOUS
 62
    7
 10
1155.3111423536561
 20
1022.181297934708
 11
1153.4324999999999
 21
1015.1699000000001
  0
LINE
  8
_0-1_LAYER003
  6
CONTINUOUS
 62
    7
 10
1155.211512180003
 20
1022.1336554608547
 11
1078.4929999999999
 21
889.25320000000011
  0
LINE
  8
_0-1_LAYER003
  6
CONTINUOUS
 62
    7
 10
1133.4322
 20
935.35339999999997
 11
1138.7355
 21
940.6567
  0
LINE
  8
_0-1_LAYER003
  6
CONTINUOUS
 62
    7
 10
1138.7355
 20
940.6567
 11
1136.7943
 21
933.41229999999996
  0
LINE
  8
_0-1_LAYER003
  6
CONTINUOUS
 62
    7
 10
1138.7355
 20
940.6567
 11
1086.6469
 21
850.43669999999997
  0
ARC
  8
_0-1_LAYER003
  6
CONTINUOUS
 62
    7
 10
1270.9252743019508
 20
994.78757096324534
 40
46.825854911565145
 50
157.09043507354684
 51
202.81815693947834
  0
ARC
  8
_0-1_LAYER003
  6
CONTINUOUS
 62
    7
 10
1231.9264173665476
 20
1038.4623808980039
 40
9.1410407523269015
 50
160.44782749786492
 51
206.3063625021349
  0
LINE
  8
_0-1_LAYER003
  6
CONTINUOUS
 62
    7
 10
1221.6233999999999
 20
954.83130000000006
 11
2204.6369
 21
954.83130000000006
  0
LINE
  8
_0-1_LAYER003
  6
CONTINUOUS
 62
    7
 10
1618.2037
 20
1098.8224
 11
1549.6358
 21
980.0594000000001
  0
LINE
  8
_0-1_LAYER003
  6
CONTINUOUS
 62
    7
 10
1549.6358
 20
980.0594000000001
 11
1551.5770000000002
 21
987.30390000000011
  0
LINE
  8
_0-1_LAYER003
  6
CONTINUOUS
 62
    7
 10
1549.6358
 20
980.0594000000001
 11
1554.9391000000001
 21
985.3626999999999
  0
LINE
  8
_0-1_LAYER003
  6
CONTINUOUS
 62
    7
 10
1717.7507999999998
 20
935.28790000000004
 11
1717.7507999999998
 21
942.78790000000004
  0
LINE
  8
_0-1_LAYER003
  6
CONTINUOUS
 62
    7
 10
1717.7507999999998
 20
942.78790000000004
 11
1721.5007999999998
 21
936.29269999999997
  0
LINE
  8
_0-1_LAYER003
  6
CONTINUOUS
 62
    7
 10
1717.7507999999998
 20
942.78790000000004
 11
1800.8928999999998
 21
632.4973
  0
LINE
  8
_0-1_LAYER003
  6
CONTINUOUS
 62
    7
 10
2030.1365999999998
 20
933.3886
 11
1910.1365999999998
 21
813.3886
  0
LINE
  8
_0-1_LAYER003
  6
CONTINUOUS
 62
    7
 10
1921.4506000000001
 20
813.3886
 11
2041.4506000000001
 21
933.3886
  0
LINE
  8
_0-1_LAYER003
  6
CONTINUOUS
 62
    7
 10
2052.7636000000002
 20
933.3886
 11
1932.7636000000002
 21
813.3886
  0
LINE
  8
_0-1_LAYER003
  6
CONTINUOUS
 62
    7
 10
1346.4606000000001
 20
813.3886
 11
1466.4605999999999
 21
933.3886
  0
LINE
  8
_0-1_LAYER003
  6
CONTINUOUS
 62
    7
 10
1455.1466
 20
933.3886
 11
1335.1466
 21
813.3886
  0
LINE
  8
_0-1_LAYER003
  6
CONTINUOUS
 62
    7
 10
1323.8326000000002
 20
813.3886
 11
1443.8326000000002
 21
933.3886
  0
TEXT
  8
_0-2_LAYER004
 62
    7
 10
1181.4618327858805
 20
1312.7036068658208
 40
20
 41
1
 50
0
  1
シーリング
  0
TEXT
  8
_0-2_LAYER004
 62
    7
 10
1178.6499885045337
 20
1149.6166385477047
 40
20
 41
1
 50
0
  1
90
  0
TEXT
  8
_0-2_LAYER004
 62
    7
 10
984.63273309160263
 20
1141.1811057036643
 40
20
 41
1
 50
0
  1
下地：40x30
  0
TEXT
  8
_0-2_LAYER004
 62
    7
 10
990.25642165429622
 20
895.14473108581706
 40
20
 41
1
 50
0
  1
葺　土　
  0
TEXT
  8
_0-2_LAYER004
 62
    7
 10
759.68519058385652
 20
857.184833287635
 40
20
 41
1
 50
0
  1
捨谷水切カラー鋼板0.35ｍｍ以上
  0
TEXT
  8
_0-2_LAYER004
 62
    7
 10
813.11023192944617
 20
1051.2020887005658
 40
20
 41
1
 50
90
  1
250
  0
TEXT
  8
_0-2_LAYER004
 62
    7
 10
766.71480128722362
 20
959.81714955679411
 40
20
 41
1
 50
90
  1
下葺き材立上がり寸法
  0
TEXT
  8
_0-2_LAYER004
 62
    7
 10
887.624105385137
 20
987.93559237026238
 40
20
 41
1
 50
90
  1
水切り立上がり寸法
  0
TEXT
  8
_0-2_LAYER004
 62
    7
 10
945.26691315274707
 20
1201.6357577526212
 40
20
 41
1
 50
90
  1
20
  0
TEXT
  8
_0-2_LAYER004
 62
    7
 10
935.42545816803317
 20
1139.7751835629911
 40
20
 41
1
 50
90
  1
100
  0
TEXT
  8
_0-2_LAYER004
 62
    7
 10
932.61361388668638
 20
975.28229310420159
 40
20
 41
1
 50
90
  1
115
  0
TEXT
  8
_0-2_LAYER004
 62
    7
 10
931.20769174601287
 20
1065.2613101073002
 40
20
 41
1
 50
90
  1
57
  0
TEXT
  8
_0-2_LAYER004
 62
    7
 10
1621.5154628166583
 20
1106.0330521868291
 40
20
 41
1
 50
0
  1
桟　瓦
  0
TEXT
  8
_0-2_LAYER004
 62
    7
 10
1797.2557304008351
 20
671.60311071874446
 40
20
 41
1
 50
0
  1
瓦桟：１５ｘ３０以上
  0
TEXT
  8
_0-2_LAYER004
 62
    7
 10
1964.5604651409712
 20
739.0873734710683
 40
20
 41
1
 50
0
  1
255
  0
TEXT
  8
_0-2_LAYER004
 62
    7
 10
1710.0885576790836
 20
734.86960704904823
 40
20
 41
1
 50
0
  1
255
  0
TEXT
  8
_0-2_LAYER004
 62
    7
 10
1473.89363804595
 20
736.27552918972151
 40
20
 41
1
 50
0
  1
255
  0
TEXT
  8
_0-2_LAYER004
 62
    7
 10
1281.2823047736927
 20
1211.4772127373349
 40
20
 41
1
 50
0
  1
笠木：15x90
  0
TEXT
  8
_0-2_LAYER004
 62
    7
 10
1302.371136883794
 20
1159.4580935324186
 40
20
 41
1
 50
0
  1
熨斗瓦２段積み
  0
LINE
  8
_0-2_LAYER004
  6
CONTINUOUS
 62
    7
 10
1010.6187
 20
1132.3158000000001
 11
991.6623437949695
 21
1132.3158000000001
  0
LINE
  8
_0-2_LAYER004
  6
CONTINUOUS
 62
    7
 10
1658.7037
 20
1098.8224
 11
1710.0885576790836
 21
1098.8224
  0
LINE
  8
_0-2_LAYER004
  6
CONTINUOUS
 62
    7
 10
1004.5006000000001
 20
889.25320000000011
 11
993.06826593564313
 21
889.25320000000011
  0
LINE
  8
_0-2_LAYER004
  6
CONTINUOUS
 62
    7
 10
1997.3831
 20
662.15650000000005
 11
2008.1440515018471
 21
662.15650000000005
  0
LINE
  8
_0-2_LAYER004
  6
CONTINUOUS
 62
    7
 10
1411.9908
 20
1153.1030000000001
 11
1455.6166502171959
 21
1153.1030000000001
  0
TEXT
  8
_0-2_LAYER004
 62
    7
 10
1270.0349276483055
 20
1248.0311883948436
 40
20
 41
1
 50
0
  1
捨谷水切カラー鋼板0.35ｍｍ以上
  0
LINE
  8
_0-2_LAYER004
  6
CONTINUOUS
 62
    7
 10
1501.5387000000001
 20
1243.2345
 11
1591.9910978625169
 21
1243.2345
  0
LINE
  8
_0-2_LAYER004
  6
CONTINUOUS
 62
    7
 10
852.64689999999996
 20
850.43669999999997
 11
763.90295700587671
 21
850.43669999999997
  0
TEXT
  8
_0-2_LAYER004
 62
    7
 10
1802.8794189635289
 20
635.0491350612358
 40
20
 41
1
 50
0
  1
下葺材：ルーフィング
  0
LINE
  8
_0-2_LAYER004
  6
CONTINUOUS
 62
    7
 10
1800.8928999999998
 20
632.4973
 11
2015.6016376613206
 21
632.4973
  0
ENDSEC
  0
EOF
