  0
SECTION
  2
HEADER
  9
$ACADVER
  1
AC1009
  9
$INSBASE
 10
0
 20
0
 30
0
  9
$EXTMIN
 10
0
 20
0
  9
$EXTMAX
 10
2970
 20
2100
  9
$LIMMIN
 10
0
 20
0
  9
$LIMMAX
 10
2970
 20
2100
  9
$LTSCALE
 40
10
  0
ENDSEC
  0
SECTION
  2
TABLES
  0
TABLE
  2
LTYPE
 70
     9
  0
LTYPE
  2
CONTINUOUS
 70
    64
  3
実線
 72
    65
 73
     0
 40
0.0
  0
LTYPE
  2
DASHED1
 70
    64
  3
--  --  --  --  --  --  --  --  
 72
    65
 73
     2
 40
2.5
 49
1.25
 49
-1.25
  0
LTYPE
  2
DASHED2
 70
    64
  3
----    ----    ----    ----    
 72
    65
 73
     2
 40
5.0
 49
2.5
 49
-2.5
  0
LTYPE
  2
DASHED3
 70
    64
  3
------  ------  ------  ------  
 72
    65
 73
     2
 40
5.0
 49
3.75
 49
-1.25
  0
LTYPE
  2
CENTER1
 70
    64
  3
----- - ----- - ----- - ----- - 
 72
    65
 73
     4
 40
10.0
 49
6.25
 49
-1.25
 49
1.25
 49
-1.25
  0
LTYPE
  2
CENTER2
 70
    64
  3
----------  --  ----------  --  
 72
    65
 73
     4
 40
20.0
 49
12.5
 49
-2.5
 49
2.5
 49
-2.5
  0
LTYPE
  2
PHANTOM1
 70
    64
  3
--- - - --- - - --- - - --- - - 
 72
    65
 73
     6
 40
10.0
 49
3.25
 49
-1.25
 49
1.25
 49
-1.25
 49
1.25
 49
-1.25
  0
LTYPE
  2
PHANTOM2
 70
    64
  3
--------  -  -  --------  -  -  
 72
    65
 73
     6
 40
20.0
 49
10.0
 49
-2.5
 49
1.25
 49
-2.5
 49
1.25
 49
-2.5
  0
LTYPE
  2
DOT
 70
    64
  3
-   -   -   -   -   -   -   -   
 72
    65
 73
     2
 40
2.5
 49
0.625
 49
-1.875
  0
LTYPE
  2
DUMMY
 70
    64
  3
ダミー
 72
    65
 73
     0
 40
0.0
  0
LTYPE
  2
RAND1
 70
    64
  3
ランダム線1
 72
    65
 73
     4
 40
10.0
 49
1.0
 49
-2.0
 49
3.0
 49
-4.0
  0
LTYPE
  2
RAND2
 70
    64
  3
ランダム線2
 72
    65
 73
     4
 40
14.0
 49
2.0
 49
-3.0
 49
4.0
 49
-5.0
  0
LTYPE
  2
RAND3
 70
    64
  3
ランダム線3
 72
    65
 73
     4
 40
18.0
 49
3.0
 49
-4.0
 49
5.0
 49
-6.0
  0
LTYPE
  2
RAND4
 70
    64
  3
ランダム線4
 72
    65
 73
     4
 40
22.0
 49
4.0
 49
-5.0
 49
6.0
 49
-7.0
  0
LTYPE
  2
RAND5
 70
    64
  3
ランダム線5
 72
    65
 73
     4
 40
26.0
 49
5.0
 49
-6.0
 49
7.0
 49
-8.0
  0
LTYPE
  2
LONG1
 70
    64
  3
----------  --  ----------  --  
 72
    65
 73
     4
 40
40.0
 49
32.5
 49
-2.5
 49
2.5
 49
-2.5
  0
LTYPE
  2
LONG2
 70
    64
  3
--------  -  -  --------  -  -  
 72
    65
 73
     6
 40
40.0
 49
30.0
 49
-2.5
 49
1.25
 49
-2.5
 49
1.25
 49
-2.5
  0
LTYPE
  2
LONG3
 70
    64
  3
+++++++++++++++..+++++++++++++++
 72
    65
 73
     2
 40
40.0
 49
37.5
 49
-2.5
  0
LTYPE
  2
LONG4
 70
    64
  3
+++++++++++++++..+++++++++++++++
 72
    65
 73
     2
 40
80.0
 49
75.0
 49
-5.0
  0
LTYPE
  2
LONG5
 70
    64
  3
----------  --  ----------  --  
 72
    65
 73
     4
 40
60.0
 49
37.5
 49
-7.5
 49
7.5
 49
-7.5
  0
LTYPE
  2
dashed
 70
   64
  3
-------   -------------   ------
 72
   65
 73
    2
 40
7.5
 49
6
 49
-1.5
  0
LTYPE
  2
dashed_spaced
 70
   64
  3
----        --------        ----
 72
   65
 73
    2
 40
12
 49
6
 49
-6
  0
LTYPE
  2
long_dashed_dotted
 70
   64
  3
------------- --- --------------
 72
   65
 73
    4
 40
15.25
 49
12
 49
-1.5
 49
0.25
 49
-1.5
  0
LTYPE
  2
long_dashed_double-dotted
 70
   64
  3
----------- --- --- ------------
 72
   65
 73
    6
 40
17
 49
12
 49
-1.5
 49
0.25
 49
-1.5
 49
0.25
 49
-1.5
  0
LTYPE
  2
long_dashed_triplicate-dotted
 70
   64
  3
--------- --- --- --- ----------
 72
   65
 73
    8
 40
18.75
 49
12
 49
-1.5
 49
0.25
 49
-1.5
 49
0.25
 49
-1.5
 49
0.25
 49
-1.5
  0
LTYPE
  2
dotted
 70
   64
  3
   -       -       -       -    
 72
   65
 73
    2
 40
1.75
 49
0.25
 49
-1.5
  0
LTYPE
  2
chain
 70
   64
  3
-------------- -- --------------
 72
   65
 73
    4
 40
18.5
 49
12
 49
-1.5
 49
3.5
 49
-1.5
  0
LTYPE
  2
chain_double_dash
 70
   64
  3
------------ -- -- -------------
 72
   65
 73
    6
 40
23.5
 49
12
 49
-1.5
 49
3.5
 49
-1.5
 49
3.5
 49
-1.5
  0
LTYPE
  2
dashed_dotted
 70
   64
  3
-----------     -     ----------
 72
   65
 73
    4
 40
9.25
 49
6
 49
-1.5
 49
0.25
 49
-1.5
  0
LTYPE
  2
double-dashed_dotted
 70
   64
  3
------   -----------   -   -----
 72
   65
 73
    6
 40
16.75
 49
6
 49
-1.5
 49
6
 49
-1.5
 49
0.25
 49
-1.5
  0
LTYPE
  2
dashed_double-dotted
 70
   64
  3
---------    -    -    ---------
 72
   65
 73
    6
 40
11
 49
6
 49
-1.5
 49
0.25
 49
-1.5
 49
0.25
 49
-1.5
  0
LTYPE
  2
double-dashed_double-dotted
 70
   64
  3
-----   ---------   -   -   ----
 72
   65
 73
    8
 40
18.5
 49
6
 49
-1.5
 49
6
 49
-1.5
 49
0.25
 49
-1.5
 49
0.25
 49
-1.5
  0
LTYPE
  2
dashed_triplicate-dotted
 70
   64
  3
-------    -    -    -    ------
 72
   65
 73
    8
 40
12.75
 49
6
 49
-1.5
 49
0.25
 49
-1.5
 49
0.25
 49
-1.5
 49
0.25
 49
-1.5
  0
LTYPE
  2
double-dashed_triplicate-dotted
 70
   64
  3
-----  ---------  -  -  -  -----
 72
   65
 73
   10
 40
20.25
 49
6
 49
-1.5
 49
6
 49
-1.5
 49
0.25
 49
-1.5
 49
0.25
 49
-1.5
 49
0.25
 49
-1.5
  0
LTYPE
  2
undefined
 70
   64
  3
--------------------------------
 72
   65
 73
    0
 40
0
  0
ENDTAB
  0
TABLE
  2
STYLE
  5
3
100
AcDbSymbolTable
 70
     1
  0
STYLE
  5
10
100
AcDbSymbolTableRecord
100
AcDbTextStyleTableRecord
  2
STANDARD
 70
     0
 40
0.0
 41
1.0
 50
0.0
 71
     0
 42
0.2
  3
txt
  4
bigfont.shx
  0
STYLE
  5
26
100
AcDbSymbolTableRecord
100
AcDbTextStyleTableRecord
  2
TATEGAKI
 70
    68
 40
0.0
 41
1.0
 50
0.0
 71
     0
 42
1.0
  3
txt
  4
bigfont.shx
  0
ENDTAB
  0
TABLE
  2
LAYER
 70
    6
  0
LAYER
  2
_0-0_LAYER001
 70
   64
 62
    7
  6
CONTINUOUS
  0
LAYER
  2
_0-1_LAYER003
 70
   64
 62
    7
  6
CONTINUOUS
  0
LAYER
  2
_0-2_LAYER004
 70
   64
 62
    7
  6
CONTINUOUS
  0
LAYER
  2
_0-3_LAYER005
 70
   64
 62
    7
  6
CONTINUOUS
  0
LAYER
  2
_0-4_LAYER007
 70
   64
 62
    7
  6
CONTINUOUS
  0
LAYER
  2
ADD_LINE
 70
   64
 62
    7
  6
CONTINUOUS
  0
ENDTAB
  0
ENDSEC
  0
SECTION
  2
BLOCKS
  0
ENDSEC
  0
SECTION
  2
ENTITIES
  0
LINE
  8
_0-0_LAYER001
  6
CONTINUOUS
 62
    2
 10
840.74279999999999
 20
940.49050000000011
 11
1869.6628000000001
 21
940.49050000000011
  0
LINE
  8
_0-0_LAYER001
  6
CONTINUOUS
 62
    1
 10
1857.9470999999999
 20
940.49050000000011
 11
1869.6628000000001
 21
952.20620000000008
  0
LINE
  8
_0-0_LAYER001
  6
CONTINUOUS
 62
    1
 10
1843.8049999999998
 20
940.49050000000011
 11
1869.6628000000001
 21
966.34840000000008
  0
LINE
  8
_0-0_LAYER001
  6
CONTINUOUS
 62
    1
 10
1829.6628000000001
 20
940.49050000000011
 11
1869.6628000000001
 21
980.49050000000011
  0
LINE
  8
_0-0_LAYER001
  6
CONTINUOUS
 62
    1
 10
1815.5207
 20
940.49050000000011
 11
1855.5207
 21
980.49050000000011
  0
LINE
  8
_0-0_LAYER001
  6
CONTINUOUS
 62
    1
 10
1801.3786
 20
940.49050000000011
 11
1841.3786
 21
980.49050000000011
  0
LINE
  8
_0-0_LAYER001
  6
CONTINUOUS
 62
    1
 10
1787.2363999999998
 20
940.49050000000011
 11
1827.2363999999998
 21
980.49050000000011
  0
LINE
  8
_0-0_LAYER001
  6
CONTINUOUS
 62
    1
 10
1773.0943000000002
 20
940.49050000000011
 11
1813.0943000000002
 21
980.49050000000011
  0
LINE
  8
_0-0_LAYER001
  6
CONTINUOUS
 62
    1
 10
1758.9522000000002
 20
940.49050000000011
 11
1798.9522000000002
 21
980.49050000000011
  0
LINE
  8
_0-0_LAYER001
  6
CONTINUOUS
 62
    1
 10
1744.8099999999999
 20
940.49050000000011
 11
1784.8099999999999
 21
980.49050000000011
  0
LINE
  8
_0-0_LAYER001
  6
CONTINUOUS
 62
    1
 10
1730.6678999999999
 20
940.49050000000011
 11
1770.6678999999999
 21
980.49050000000011
  0
LINE
  8
_0-0_LAYER001
  6
CONTINUOUS
 62
    1
 10
1716.5257000000001
 20
940.49050000000011
 11
1756.5257000000001
 21
980.49050000000011
  0
LINE
  8
_0-0_LAYER001
  6
CONTINUOUS
 62
    1
 10
1702.3836000000001
 20
940.49050000000011
 11
1742.3836000000001
 21
980.49050000000011
  0
LINE
  8
_0-0_LAYER001
  6
CONTINUOUS
 62
    1
 10
1688.2415000000001
 20
940.49050000000011
 11
1728.2415000000001
 21
980.49050000000011
  0
LINE
  8
_0-0_LAYER001
  6
CONTINUOUS
 62
    1
 10
1674.0992999999999
 20
940.49050000000011
 11
1714.0992999999999
 21
980.49050000000011
  0
LINE
  8
_0-0_LAYER001
  6
CONTINUOUS
 62
    1
 10
1659.9571999999998
 20
940.49050000000011
 11
1699.9571999999998
 21
980.49050000000011
  0
LINE
  8
_0-0_LAYER001
  6
CONTINUOUS
 62
    1
 10
1645.8150999999998
 20
940.49050000000011
 11
1685.8150999999998
 21
980.49050000000011
  0
LINE
  8
_0-0_LAYER001
  6
CONTINUOUS
 62
    1
 10
1631.6729
 20
940.49050000000011
 11
1671.6729
 21
980.49050000000011
  0
LINE
  8
_0-0_LAYER001
  6
CONTINUOUS
 62
    1
 10
1617.5308
 20
940.49050000000011
 11
1657.5308
 21
980.49050000000011
  0
LINE
  8
_0-0_LAYER001
  6
CONTINUOUS
 62
    1
 10
1603.3887
 20
940.49050000000011
 11
1643.3887
 21
980.49050000000011
  0
LINE
  8
_0-0_LAYER001
  6
CONTINUOUS
 62
    1
 10
1589.2465000000002
 20
940.49050000000011
 11
1629.2465000000002
 21
980.49050000000011
  0
LINE
  8
_0-0_LAYER001
  6
CONTINUOUS
 62
    1
 10
1575.1044000000002
 20
940.49050000000011
 11
1615.1044000000002
 21
980.49050000000011
  0
LINE
  8
_0-0_LAYER001
  6
CONTINUOUS
 62
    1
 10
1560.9623000000001
 20
940.49050000000011
 11
1600.9623000000001
 21
980.49050000000011
  0
LINE
  8
_0-0_LAYER001
  6
CONTINUOUS
 62
    1
 10
1546.8200999999999
 20
940.49050000000011
 11
1586.8200999999999
 21
980.49050000000011
  0
LINE
  8
_0-0_LAYER001
  6
CONTINUOUS
 62
    1
 10
1532.6779999999999
 20
940.49050000000011
 11
1572.6779999999999
 21
980.49050000000011
  0
LINE
  8
_0-0_LAYER001
  6
CONTINUOUS
 62
    1
 10
1518.5358999999999
 20
940.49050000000011
 11
1558.5358999999999
 21
980.49050000000011
  0
LINE
  8
_0-0_LAYER001
  6
CONTINUOUS
 62
    1
 10
1504.3937000000001
 20
940.49050000000011
 11
1544.3937000000001
 21
980.49050000000011
  0
LINE
  8
_0-0_LAYER001
  6
CONTINUOUS
 62
    1
 10
1490.2516000000001
 20
940.49050000000011
 11
1530.2516000000001
 21
980.49050000000011
  0
LINE
  8
_0-0_LAYER001
  6
CONTINUOUS
 62
    1
 10
1476.1093999999998
 20
940.49050000000011
 11
1516.1093999999998
 21
980.49050000000011
  0
LINE
  8
_0-0_LAYER001
  6
CONTINUOUS
 62
    1
 10
1461.9672999999998
 20
940.49050000000011
 11
1501.9672999999998
 21
980.49050000000011
  0
LINE
  8
_0-0_LAYER001
  6
CONTINUOUS
 62
    1
 10
1447.8252000000002
 20
940.49050000000011
 11
1487.8252000000002
 21
980.49050000000011
  0
LINE
  8
_0-0_LAYER001
  6
CONTINUOUS
 62
    1
 10
1433.683
 20
940.49050000000011
 11
1473.683
 21
980.49050000000011
  0
LINE
  8
_0-0_LAYER001
  6
CONTINUOUS
 62
    1
 10
1419.5409
 20
940.49050000000011
 11
1459.5409
 21
980.49050000000011
  0
LINE
  8
_0-0_LAYER001
  6
CONTINUOUS
 62
    1
 10
1405.3987999999999
 20
940.49050000000011
 11
1445.3987999999999
 21
980.49050000000011
  0
LINE
  8
_0-0_LAYER001
  6
CONTINUOUS
 62
    1
 10
1391.2565999999997
 20
940.49050000000011
 11
1431.2566000000002
 21
980.49050000000011
  0
LINE
  8
_0-0_LAYER001
  6
CONTINUOUS
 62
    1
 10
1377.1144999999999
 20
940.49050000000011
 11
1417.1144999999999
 21
980.49050000000011
  0
LINE
  8
_0-0_LAYER001
  6
CONTINUOUS
 62
    1
 10
1362.9724000000001
 20
940.49050000000011
 11
1402.9724000000001
 21
980.49050000000011
  0
LINE
  8
_0-0_LAYER001
  6
CONTINUOUS
 62
    1
 10
1348.8302000000001
 20
940.49050000000011
 11
1388.8302000000001
 21
980.49050000000011
  0
LINE
  8
_0-0_LAYER001
  6
CONTINUOUS
 62
    1
 10
1334.6881000000003
 20
940.49050000000011
 11
1374.6881000000003
 21
980.49050000000011
  0
LINE
  8
_0-0_LAYER001
  6
CONTINUOUS
 62
    1
 10
1320.5459999999998
 20
940.49050000000011
 11
1360.5459999999998
 21
980.49050000000011
  0
LINE
  8
_0-0_LAYER001
  6
CONTINUOUS
 62
    1
 10
1306.4038
 20
940.49050000000011
 11
1346.4038
 21
980.49050000000011
  0
LINE
  8
_0-0_LAYER001
  6
CONTINUOUS
 62
    1
 10
1292.2617
 20
940.49050000000011
 11
1332.2617
 21
980.49050000000011
  0
LINE
  8
_0-0_LAYER001
  6
CONTINUOUS
 62
    1
 10
1278.1195
 20
940.49050000000011
 11
1318.1195
 21
980.49050000000011
  0
LINE
  8
_0-0_LAYER001
  6
CONTINUOUS
 62
    1
 10
1263.9774
 20
940.49050000000011
 11
1303.9774
 21
980.49050000000011
  0
LINE
  8
_0-0_LAYER001
  6
CONTINUOUS
 62
    1
 10
1249.8353
 20
940.49050000000011
 11
1289.8353
 21
980.49050000000011
  0
LINE
  8
_0-0_LAYER001
  6
CONTINUOUS
 62
    1
 10
1235.6931
 20
940.49050000000011
 11
1275.6931
 21
980.49050000000011
  0
LINE
  8
_0-0_LAYER001
  6
CONTINUOUS
 62
    1
 10
1221.5509999999999
 20
940.49050000000011
 11
1261.5509999999999
 21
980.49050000000011
  0
LINE
  8
_0-0_LAYER001
  6
CONTINUOUS
 62
    1
 10
1207.4088999999999
 20
940.49050000000011
 11
1247.4088999999999
 21
980.49050000000011
  0
LINE
  8
_0-0_LAYER001
  6
CONTINUOUS
 62
    1
 10
1193.2666999999999
 20
940.49050000000011
 11
1233.2666999999999
 21
980.49050000000011
  0
LINE
  8
_0-0_LAYER001
  6
CONTINUOUS
 62
    1
 10
1179.1246000000001
 20
940.49050000000011
 11
1219.1246000000001
 21
980.49050000000011
  0
LINE
  8
_0-0_LAYER001
  6
CONTINUOUS
 62
    1
 10
1164.9825000000001
 20
940.49050000000011
 11
1204.9825000000001
 21
980.49050000000011
  0
LINE
  8
_0-0_LAYER001
  6
CONTINUOUS
 62
    1
 10
1150.8403000000001
 20
940.49050000000011
 11
1190.8403000000001
 21
980.49050000000011
  0
LINE
  8
_0-0_LAYER001
  6
CONTINUOUS
 62
    1
 10
1136.6982
 20
940.49050000000011
 11
1176.6982
 21
980.49050000000011
  0
LINE
  8
_0-0_LAYER001
  6
CONTINUOUS
 62
    1
 10
1122.5561
 20
940.49050000000011
 11
1162.5561
 21
980.49050000000011
  0
LINE
  8
_0-0_LAYER001
  6
CONTINUOUS
 62
    1
 10
1108.4139
 20
940.49050000000011
 11
1148.4139
 21
980.49050000000011
  0
LINE
  8
_0-0_LAYER001
  6
CONTINUOUS
 62
    1
 10
1094.2718
 20
940.49050000000011
 11
1134.2718
 21
980.49050000000011
  0
LINE
  8
_0-0_LAYER001
  6
CONTINUOUS
 62
    1
 10
1080.1296
 20
940.49050000000011
 11
1120.1296
 21
980.49050000000011
  0
LINE
  8
_0-0_LAYER001
  6
CONTINUOUS
 62
    1
 10
1065.9875
 20
940.49050000000011
 11
1105.9875
 21
980.49050000000011
  0
LINE
  8
_0-0_LAYER001
  6
CONTINUOUS
 62
    1
 10
1051.8453999999999
 20
940.49050000000011
 11
1091.8453999999999
 21
980.49050000000011
  0
LINE
  8
_0-0_LAYER001
  6
CONTINUOUS
 62
    1
 10
1037.7031999999999
 20
940.49050000000011
 11
1077.7031999999999
 21
980.49050000000011
  0
LINE
  8
_0-0_LAYER001
  6
CONTINUOUS
 62
    1
 10
1023.5610999999999
 20
940.49050000000011
 11
1063.5610999999999
 21
980.49050000000011
  0
LINE
  8
_0-0_LAYER001
  6
CONTINUOUS
 62
    1
 10
1009.4190000000001
 20
940.49050000000011
 11
1049.4190000000001
 21
980.49050000000011
  0
LINE
  8
_0-0_LAYER001
  6
CONTINUOUS
 62
    1
 10
995.27680000000009
 20
940.49050000000011
 11
1035.2768000000001
 21
980.49050000000011
  0
LINE
  8
_0-0_LAYER001
  6
CONTINUOUS
 62
    1
 10
981.13470000000007
 20
940.49050000000011
 11
1021.1347000000001
 21
980.49050000000011
  0
LINE
  8
_0-0_LAYER001
  6
CONTINUOUS
 62
    1
 10
966.99260000000004
 20
940.49050000000011
 11
1006.9926
 21
980.49050000000011
  0
LINE
  8
_0-0_LAYER001
  6
CONTINUOUS
 62
    1
 10
952.85040000000004
 20
940.49050000000011
 11
992.85040000000004
 21
980.49050000000011
  0
LINE
  8
_0-0_LAYER001
  6
CONTINUOUS
 62
    1
 10
938.70830000000001
 20
940.49050000000011
 11
978.70830000000001
 21
980.49050000000011
  0
LINE
  8
_0-0_LAYER001
  6
CONTINUOUS
 62
    1
 10
924.56619999999998
 20
940.49050000000011
 11
964.56619999999998
 21
980.49050000000011
  0
LINE
  8
_0-0_LAYER001
  6
CONTINUOUS
 62
    1
 10
910.42399999999998
 20
940.49050000000011
 11
950.42399999999998
 21
980.49050000000011
  0
LINE
  8
_0-0_LAYER001
  6
CONTINUOUS
 62
    1
 10
896.28189999999995
 20
940.49050000000011
 11
936.28189999999995
 21
980.49050000000011
  0
LINE
  8
_0-0_LAYER001
  6
CONTINUOUS
 62
    1
 10
882.13969999999995
 20
940.49050000000011
 11
922.13969999999995
 21
980.49050000000011
  0
LINE
  8
_0-0_LAYER001
  6
CONTINUOUS
 62
    1
 10
867.99759999999992
 20
940.49050000000011
 11
907.99759999999992
 21
980.49050000000011
  0
LINE
  8
_0-0_LAYER001
  6
CONTINUOUS
 62
    1
 10
853.85549999999989
 20
940.49050000000011
 11
893.85549999999989
 21
980.49050000000011
  0
LINE
  8
_0-0_LAYER001
  6
CONTINUOUS
 62
    1
 10
840.74279999999999
 20
941.51999999999998
 11
879.71329999999989
 21
980.49050000000011
  0
LINE
  8
_0-0_LAYER001
  6
CONTINUOUS
 62
    1
 10
840.74279999999999
 20
955.66210000000001
 11
865.57120000000009
 21
980.49050000000011
  0
LINE
  8
_0-0_LAYER001
  6
CONTINUOUS
 62
    1
 10
840.74279999999999
 20
969.80430000000001
 11
851.42910000000006
 21
980.49050000000011
  0
LINE
  8
_0-0_LAYER001
  6
CONTINUOUS
 62
    1
 10
840.74279999999999
 20
948.75029999999992
 11
849.0027
 21
940.49050000000011
  0
LINE
  8
_0-0_LAYER001
  6
CONTINUOUS
 62
    1
 10
840.74279999999999
 20
962.89249999999993
 11
863.14480000000003
 21
940.49050000000011
  0
LINE
  8
_0-0_LAYER001
  6
CONTINUOUS
 62
    1
 10
840.74279999999999
 20
977.03459999999995
 11
877.28690000000006
 21
940.49050000000011
  0
LINE
  8
_0-0_LAYER001
  6
CONTINUOUS
 62
    1
 10
851.42910000000006
 20
980.49050000000011
 11
891.42910000000006
 21
940.49050000000011
  0
LINE
  8
_0-0_LAYER001
  6
CONTINUOUS
 62
    1
 10
865.57120000000009
 20
980.49050000000011
 11
905.57120000000009
 21
940.49050000000011
  0
LINE
  8
_0-0_LAYER001
  6
CONTINUOUS
 62
    1
 10
879.71329999999989
 20
980.49050000000011
 11
919.71329999999989
 21
940.49050000000011
  0
LINE
  8
_0-0_LAYER001
  6
CONTINUOUS
 62
    1
 10
893.85549999999989
 20
980.49050000000011
 11
933.85549999999989
 21
940.49050000000011
  0
LINE
  8
_0-0_LAYER001
  6
CONTINUOUS
 62
    1
 10
907.99759999999992
 20
980.49050000000011
 11
947.99759999999992
 21
940.49050000000011
  0
LINE
  8
_0-0_LAYER001
  6
CONTINUOUS
 62
    1
 10
922.13969999999995
 20
980.49050000000011
 11
962.13969999999995
 21
940.49050000000011
  0
LINE
  8
_0-0_LAYER001
  6
CONTINUOUS
 62
    1
 10
936.28189999999995
 20
980.49050000000011
 11
976.28189999999995
 21
940.49050000000011
  0
LINE
  8
_0-0_LAYER001
  6
CONTINUOUS
 62
    1
 10
950.42399999999998
 20
980.49050000000011
 11
990.42399999999998
 21
940.49050000000011
  0
LINE
  8
_0-0_LAYER001
  6
CONTINUOUS
 62
    1
 10
964.56619999999998
 20
980.49050000000011
 11
1004.5662
 21
940.49050000000011
  0
LINE
  8
_0-0_LAYER001
  6
CONTINUOUS
 62
    1
 10
978.70830000000001
 20
980.49050000000011
 11
1018.7083
 21
940.49050000000011
  0
LINE
  8
_0-0_LAYER001
  6
CONTINUOUS
 62
    1
 10
992.85040000000004
 20
980.49050000000011
 11
1032.8504
 21
940.49050000000011
  0
LINE
  8
_0-0_LAYER001
  6
CONTINUOUS
 62
    1
 10
1006.9926
 20
980.49050000000011
 11
1046.9926
 21
940.49050000000011
  0
LINE
  8
_0-0_LAYER001
  6
CONTINUOUS
 62
    1
 10
1021.1347000000001
 20
980.49050000000011
 11
1061.1347000000001
 21
940.49050000000011
  0
LINE
  8
_0-0_LAYER001
  6
CONTINUOUS
 62
    1
 10
1035.2768000000001
 20
980.49050000000011
 11
1075.2768000000001
 21
940.49050000000011
  0
LINE
  8
_0-0_LAYER001
  6
CONTINUOUS
 62
    1
 10
1049.4190000000001
 20
980.49050000000011
 11
1089.4190000000001
 21
940.49050000000011
  0
LINE
  8
_0-0_LAYER001
  6
CONTINUOUS
 62
    1
 10
1063.5610999999999
 20
980.49050000000011
 11
1103.5610999999999
 21
940.49050000000011
  0
LINE
  8
_0-0_LAYER001
  6
CONTINUOUS
 62
    1
 10
1077.7031999999999
 20
980.49050000000011
 11
1117.7031999999999
 21
940.49050000000011
  0
LINE
  8
_0-0_LAYER001
  6
CONTINUOUS
 62
    1
 10
1091.8453999999999
 20
980.49050000000011
 11
1131.8453999999999
 21
940.49050000000011
  0
LINE
  8
_0-0_LAYER001
  6
CONTINUOUS
 62
    1
 10
1105.9875
 20
980.49050000000011
 11
1145.9875
 21
940.49050000000011
  0
LINE
  8
_0-0_LAYER001
  6
CONTINUOUS
 62
    1
 10
1120.1296
 20
980.49050000000011
 11
1160.1296
 21
940.49050000000011
  0
LINE
  8
_0-0_LAYER001
  6
CONTINUOUS
 62
    1
 10
1134.2718
 20
980.49050000000011
 11
1174.2718
 21
940.49050000000011
  0
LINE
  8
_0-0_LAYER001
  6
CONTINUOUS
 62
    1
 10
1148.4139
 20
980.49050000000011
 11
1188.4139
 21
940.49050000000011
  0
LINE
  8
_0-0_LAYER001
  6
CONTINUOUS
 62
    1
 10
1162.5561
 20
980.49050000000011
 11
1202.5561
 21
940.49050000000011
  0
LINE
  8
_0-0_LAYER001
  6
CONTINUOUS
 62
    1
 10
1176.6982
 20
980.49050000000011
 11
1216.6982
 21
940.49050000000011
  0
LINE
  8
_0-0_LAYER001
  6
CONTINUOUS
 62
    1
 10
1190.8403000000001
 20
980.49050000000011
 11
1230.8403000000001
 21
940.49050000000011
  0
LINE
  8
_0-0_LAYER001
  6
CONTINUOUS
 62
    1
 10
1204.9825000000001
 20
980.49050000000011
 11
1244.9825000000001
 21
940.49050000000011
  0
LINE
  8
_0-0_LAYER001
  6
CONTINUOUS
 62
    1
 10
1219.1246000000001
 20
980.49050000000011
 11
1259.1246000000001
 21
940.49050000000011
  0
LINE
  8
_0-0_LAYER001
  6
CONTINUOUS
 62
    1
 10
1233.2666999999999
 20
980.49050000000011
 11
1273.2666999999999
 21
940.49050000000011
  0
LINE
  8
_0-0_LAYER001
  6
CONTINUOUS
 62
    1
 10
1247.4088999999999
 20
980.49050000000011
 11
1287.4088999999999
 21
940.49050000000011
  0
LINE
  8
_0-0_LAYER001
  6
CONTINUOUS
 62
    1
 10
1261.5509999999999
 20
980.49050000000011
 11
1301.5509999999999
 21
940.49050000000011
  0
LINE
  8
_0-0_LAYER001
  6
CONTINUOUS
 62
    1
 10
1275.6931
 20
980.49050000000011
 11
1315.6931
 21
940.49050000000011
  0
LINE
  8
_0-0_LAYER001
  6
CONTINUOUS
 62
    1
 10
1289.8353
 20
980.49050000000011
 11
1329.8353
 21
940.49050000000011
  0
LINE
  8
_0-0_LAYER001
  6
CONTINUOUS
 62
    1
 10
1303.9774
 20
980.49050000000011
 11
1343.9774
 21
940.49050000000011
  0
LINE
  8
_0-0_LAYER001
  6
CONTINUOUS
 62
    1
 10
1318.1195
 20
980.49050000000011
 11
1358.1195
 21
940.49050000000011
  0
LINE
  8
_0-0_LAYER001
  6
CONTINUOUS
 62
    1
 10
1332.2617
 20
980.49050000000011
 11
1372.2617
 21
940.49050000000011
  0
LINE
  8
_0-0_LAYER001
  6
CONTINUOUS
 62
    1
 10
1346.4038
 20
980.49050000000011
 11
1386.4038
 21
940.49050000000011
  0
LINE
  8
_0-0_LAYER001
  6
CONTINUOUS
 62
    1
 10
1360.5459999999998
 20
980.49050000000011
 11
1400.5459999999998
 21
940.49050000000011
  0
LINE
  8
_0-0_LAYER001
  6
CONTINUOUS
 62
    1
 10
1374.6881000000003
 20
980.49050000000011
 11
1414.6881000000003
 21
940.49050000000011
  0
LINE
  8
_0-0_LAYER001
  6
CONTINUOUS
 62
    1
 10
1388.8302000000001
 20
980.49050000000011
 11
1428.8302000000001
 21
940.49050000000011
  0
LINE
  8
_0-0_LAYER001
  6
CONTINUOUS
 62
    1
 10
1402.9724000000001
 20
980.49050000000011
 11
1442.9724000000001
 21
940.49050000000011
  0
LINE
  8
_0-0_LAYER001
  6
CONTINUOUS
 62
    1
 10
1417.1144999999999
 20
980.49050000000011
 11
1457.1145000000001
 21
940.49050000000011
  0
LINE
  8
_0-0_LAYER001
  6
CONTINUOUS
 62
    1
 10
1431.2566000000002
 20
980.49050000000011
 11
1471.2566000000002
 21
940.49050000000011
  0
LINE
  8
_0-0_LAYER001
  6
CONTINUOUS
 62
    1
 10
1445.3987999999999
 20
980.49050000000011
 11
1485.3987999999999
 21
940.49050000000011
  0
LINE
  8
_0-0_LAYER001
  6
CONTINUOUS
 62
    1
 10
1459.5409
 20
980.49050000000011
 11
1499.5409
 21
940.49050000000011
  0
LINE
  8
_0-0_LAYER001
  6
CONTINUOUS
 62
    1
 10
1473.683
 20
980.49050000000011
 11
1513.683
 21
940.49050000000011
  0
LINE
  8
_0-0_LAYER001
  6
CONTINUOUS
 62
    1
 10
1487.8252000000002
 20
980.49050000000011
 11
1527.8252000000002
 21
940.49050000000011
  0
LINE
  8
_0-0_LAYER001
  6
CONTINUOUS
 62
    1
 10
1501.9672999999998
 20
980.49050000000011
 11
1541.9672999999998
 21
940.49050000000011
  0
LINE
  8
_0-0_LAYER001
  6
CONTINUOUS
 62
    1
 10
1516.1093999999998
 20
980.49050000000011
 11
1556.1093999999998
 21
940.49050000000011
  0
LINE
  8
_0-0_LAYER001
  6
CONTINUOUS
 62
    1
 10
1530.2516000000001
 20
980.49050000000011
 11
1570.2516000000001
 21
940.49050000000011
  0
LINE
  8
_0-0_LAYER001
  6
CONTINUOUS
 62
    1
 10
1544.3937000000001
 20
980.49050000000011
 11
1584.3937000000001
 21
940.49050000000011
  0
LINE
  8
_0-0_LAYER001
  6
CONTINUOUS
 62
    1
 10
1558.5358999999999
 20
980.49050000000011
 11
1598.5358999999999
 21
940.49050000000011
  0
LINE
  8
_0-0_LAYER001
  6
CONTINUOUS
 62
    1
 10
1572.6779999999999
 20
980.49050000000011
 11
1612.6779999999999
 21
940.49050000000011
  0
LINE
  8
_0-0_LAYER001
  6
CONTINUOUS
 62
    1
 10
1586.8200999999999
 20
980.49050000000011
 11
1626.8200999999999
 21
940.49050000000011
  0
LINE
  8
_0-0_LAYER001
  6
CONTINUOUS
 62
    1
 10
1600.9623000000001
 20
980.49050000000011
 11
1640.9623000000001
 21
940.49050000000011
  0
LINE
  8
_0-0_LAYER001
  6
CONTINUOUS
 62
    1
 10
1615.1044000000002
 20
980.49050000000011
 11
1655.1044000000002
 21
940.49050000000011
  0
LINE
  8
_0-0_LAYER001
  6
CONTINUOUS
 62
    1
 10
1629.2465000000002
 20
980.49050000000011
 11
1669.2465000000002
 21
940.49050000000011
  0
LINE
  8
_0-0_LAYER001
  6
CONTINUOUS
 62
    1
 10
1643.3887
 20
980.49050000000011
 11
1683.3887
 21
940.49050000000011
  0
LINE
  8
_0-0_LAYER001
  6
CONTINUOUS
 62
    1
 10
1657.5308
 20
980.49050000000011
 11
1697.5308
 21
940.49050000000011
  0
LINE
  8
_0-0_LAYER001
  6
CONTINUOUS
 62
    1
 10
1671.6729
 20
980.49050000000011
 11
1711.6729
 21
940.49050000000011
  0
LINE
  8
_0-0_LAYER001
  6
CONTINUOUS
 62
    1
 10
1685.8150999999998
 20
980.49050000000011
 11
1725.8150999999998
 21
940.49050000000011
  0
LINE
  8
_0-0_LAYER001
  6
CONTINUOUS
 62
    1
 10
1699.9571999999998
 20
980.49050000000011
 11
1739.9571999999998
 21
940.49050000000011
  0
LINE
  8
_0-0_LAYER001
  6
CONTINUOUS
 62
    1
 10
1714.0992999999999
 20
980.49050000000011
 11
1754.0992999999999
 21
940.49050000000011
  0
LINE
  8
_0-0_LAYER001
  6
CONTINUOUS
 62
    1
 10
1728.2415000000001
 20
980.49050000000011
 11
1768.2415000000001
 21
940.49050000000011
  0
LINE
  8
_0-0_LAYER001
  6
CONTINUOUS
 62
    1
 10
1742.3836000000001
 20
980.49050000000011
 11
1782.3836000000001
 21
940.49050000000011
  0
LINE
  8
_0-0_LAYER001
  6
CONTINUOUS
 62
    1
 10
1756.5257000000001
 20
980.49050000000011
 11
1796.5257000000001
 21
940.49050000000011
  0
LINE
  8
_0-0_LAYER001
  6
CONTINUOUS
 62
    1
 10
1770.6678999999999
 20
980.49050000000011
 11
1810.6678999999999
 21
940.49050000000011
  0
LINE
  8
_0-0_LAYER001
  6
CONTINUOUS
 62
    1
 10
1784.8099999999999
 20
980.49050000000011
 11
1824.8099999999999
 21
940.49050000000011
  0
LINE
  8
_0-0_LAYER001
  6
CONTINUOUS
 62
    1
 10
1798.9522000000002
 20
980.49050000000011
 11
1838.9522000000002
 21
940.49050000000011
  0
LINE
  8
_0-0_LAYER001
  6
CONTINUOUS
 62
    1
 10
1813.0943000000002
 20
980.49050000000011
 11
1853.0943000000002
 21
940.49050000000011
  0
LINE
  8
_0-0_LAYER001
  6
CONTINUOUS
 62
    1
 10
1827.2363999999998
 20
980.49050000000011
 11
1867.2363999999998
 21
940.49050000000011
  0
LINE
  8
_0-0_LAYER001
  6
CONTINUOUS
 62
    1
 10
1841.3786
 20
980.49050000000011
 11
1869.6628000000001
 21
952.20620000000008
  0
LINE
  8
_0-0_LAYER001
  6
CONTINUOUS
 62
    1
 10
1855.5207
 20
980.49050000000011
 11
1869.6628000000001
 21
966.34840000000008
  0
LINE
  8
_0-1_LAYER003
  6
CONTINUOUS
 62
    2
 10
2093.0210999999999
 20
980.49050000000011
 11
2040.5210999999999
 21
980.49050000000011
  0
CIRCLE
  8
_0-1_LAYER003
  6
CONTINUOUS
 62
    2
 10
2090.5210999999999
 20
980.49050000000011
 40
1.6999999999999997
  0
LINE
  8
_0-1_LAYER003
  6
CONTINUOUS
 62
    2
 10
2090.5210999999999
 20
980.49050000000011
 11
2090.5210999999999
 21
1230.4905000000001
  0
CIRCLE
  8
_0-1_LAYER003
  6
CONTINUOUS
 62
    2
 10
2090.5210999999999
 20
1230.4905000000001
 40
1.6999999999999997
  0
LINE
  8
_0-1_LAYER003
  6
CONTINUOUS
 62
    2
 10
2093.0210999999999
 20
1230.4905000000001
 11
2040.5210999999999
 21
1230.4905000000001
  0
LINE
  8
_0-1_LAYER003
  6
CONTINUOUS
 62
    2
 10
1844.2078000000001
 20
1211.2771
 11
1844.2078000000001
 21
1183.7771
  0
CIRCLE
  8
_0-1_LAYER003
  6
CONTINUOUS
 62
    2
 10
1844.2078000000001
 20
1208.7771
 40
1.6999999999999997
  0
LINE
  8
_0-1_LAYER003
  6
CONTINUOUS
 62
    2
 10
1844.2078000000001
 20
1208.7771
 11
1754.2078000000001
 21
1208.7771
  0
CIRCLE
  8
_0-1_LAYER003
  6
CONTINUOUS
 62
    2
 10
1754.2078000000001
 20
1208.7771
 40
1.6999999999999997
  0
LINE
  8
_0-1_LAYER003
  6
CONTINUOUS
 62
    2
 10
1754.2078000000001
 20
1211.2771
 11
1754.2078000000001
 21
1183.7771
  0
LINE
  8
_0-0_LAYER001
  6
CONTINUOUS
 62
    3
 10
1835.9677999999999
 20
1121.3901000000001
 11
1835.9452000000001
 21
1120.9249
  0
LINE
  8
_0-0_LAYER001
  6
CONTINUOUS
 62
    3
 10
1835.9452000000001
 20
1120.9249
 11
1835.8836999999999
 21
1119.6621
  0
LINE
  8
_0-0_LAYER001
  6
CONTINUOUS
 62
    3
 10
1835.8836999999999
 20
1119.6621
 11
1835.7930999999999
 21
1117.8012000000001
  0
LINE
  8
_0-0_LAYER001
  6
CONTINUOUS
 62
    3
 10
1835.7930999999999
 20
1117.8012000000001
 11
1835.6831000000002
 21
1115.5415
  0
LINE
  8
_0-0_LAYER001
  6
CONTINUOUS
 62
    3
 10
1835.6831000000002
 20
1115.5415
 11
1835.5634
 21
1113.0824
  0
LINE
  8
_0-0_LAYER001
  6
CONTINUOUS
 62
    3
 10
1835.5634
 20
1113.0824
 11
1835.4436999999998
 21
1110.6233999999999
  0
LINE
  8
_0-0_LAYER001
  6
CONTINUOUS
 62
    3
 10
1835.4436999999998
 20
1110.6233999999999
 11
1835.3337000000001
 21
1108.3637000000001
  0
LINE
  8
_0-0_LAYER001
  6
CONTINUOUS
 62
    3
 10
1835.3337000000001
 20
1108.3637000000001
 11
1835.2431000000001
 21
1106.5028
  0
LINE
  8
_0-0_LAYER001
  6
CONTINUOUS
 62
    3
 10
1835.2431000000001
 20
1106.5028
 11
1835.1815999999999
 21
1105.24
  0
LINE
  8
_0-0_LAYER001
  6
CONTINUOUS
 62
    3
 10
1835.1815999999999
 20
1105.24
 11
1835.1590000000001
 21
1104.7747999999999
  0
LINE
  8
_0-0_LAYER001
  6
CONTINUOUS
 62
    3
 10
1835.1590000000001
 20
1104.7747999999999
 11
1834.0138000000002
 21
1104.8505
  0
LINE
  8
_0-0_LAYER001
  6
CONTINUOUS
 62
    3
 10
1834.0138000000002
 20
1104.8505
 11
1830.6385
 21
1104.9191000000001
  0
LINE
  8
_0-0_LAYER001
  6
CONTINUOUS
 62
    3
 10
1830.6385
 20
1104.9191000000001
 11
1825.1235000000001
 21
1104.7430999999999
  0
LINE
  8
_0-0_LAYER001
  6
CONTINUOUS
 62
    3
 10
1825.1235000000001
 20
1104.7430999999999
 11
1817.5590000000002
 21
1104.085
  0
LINE
  8
_0-0_LAYER001
  6
CONTINUOUS
 62
    3
 10
1817.5590000000002
 20
1104.085
 11
1808.0354000000002
 21
1102.7072000000001
  0
LINE
  8
_0-0_LAYER001
  6
CONTINUOUS
 62
    3
 10
1808.0354000000002
 20
1102.7072000000001
 11
1796.6428999999998
 21
1100.3721
  0
LINE
  8
_0-0_LAYER001
  6
CONTINUOUS
 62
    3
 10
1796.6428999999998
 20
1100.3721
 11
1783.4720000000002
 21
1096.8421000000001
  0
LINE
  8
_0-0_LAYER001
  6
CONTINUOUS
 62
    3
 10
1783.4720000000002
 20
1096.8421000000001
 11
1768.6129000000001
 21
1091.8797
  0
LINE
  8
_0-0_LAYER001
  6
CONTINUOUS
 62
    3
 10
1768.6129000000001
 20
1091.8797
 11
1752.1559000000002
 21
1085.2473
  0
LINE
  8
_0-0_LAYER001
  6
CONTINUOUS
 62
    3
 10
1752.1559000000002
 20
1085.2473
 11
1734.1914000000002
 21
1076.7074
  0
LINE
  8
_0-0_LAYER001
  6
CONTINUOUS
 62
    3
 10
1734.1914000000002
 20
1076.7074
 11
1734.2283000000002
 21
1077.4646
  0
LINE
  8
_0-0_LAYER001
  6
CONTINUOUS
 62
    3
 10
1734.2283000000002
 20
1077.4646
 11
1734.3283000000001
 21
1079.5197000000001
  0
LINE
  8
_0-0_LAYER001
  6
CONTINUOUS
 62
    3
 10
1734.3283000000001
 20
1079.5197000000001
 11
1734.4758000000002
 21
1082.5482999999999
  0
LINE
  8
_0-0_LAYER001
  6
CONTINUOUS
 62
    3
 10
1734.4758000000002
 20
1082.5482999999999
 11
1734.6547999999998
 21
1086.2257999999999
  0
LINE
  8
_0-0_LAYER001
  6
CONTINUOUS
 62
    3
 10
1734.6547999999998
 20
1086.2257999999999
 11
1734.8496
 21
1090.2279000000001
  0
LINE
  8
_0-0_LAYER001
  6
CONTINUOUS
 62
    3
 10
1734.8496
 20
1090.2279000000001
 11
1735.0445
 21
1094.2299
  0
LINE
  8
_0-0_LAYER001
  6
CONTINUOUS
 62
    3
 10
1735.0445
 20
1094.2299
 11
1735.2235000000001
 21
1097.9075
  0
LINE
  8
_0-0_LAYER001
  6
CONTINUOUS
 62
    3
 10
1735.2235000000001
 20
1097.9075
 11
1735.3708999999999
 21
1100.9360999999999
  0
LINE
  8
_0-0_LAYER001
  6
CONTINUOUS
 62
    3
 10
1735.3708999999999
 20
1100.9360999999999
 11
1735.471
 21
1102.9911999999999
  0
LINE
  8
_0-0_LAYER001
  6
CONTINUOUS
 62
    3
 10
1735.471
 20
1102.9911999999999
 11
1735.5077999999999
 21
1103.7483
  0
LINE
  8
_0-0_LAYER001
  6
CONTINUOUS
 62
    3
 10
1735.5077999999999
 20
1103.7483
 11
1737.2013999999999
 21
1104.2527
  0
LINE
  8
_0-0_LAYER001
  6
CONTINUOUS
 62
    3
 10
1737.2013999999999
 20
1104.2527
 11
1741.9760000000001
 21
1105.6201000000001
  0
LINE
  8
_0-0_LAYER001
  6
CONTINUOUS
 62
    3
 10
1741.9760000000001
 20
1105.6201000000001
 11
1749.3723
 21
1107.6318000000001
  0
LINE
  8
_0-0_LAYER001
  6
CONTINUOUS
 62
    3
 10
1749.3723
 20
1107.6318000000001
 11
1758.9308999999998
 21
1110.0693000000001
  0
LINE
  8
_0-0_LAYER001
  6
CONTINUOUS
 62
    3
 10
1758.9308999999998
 20
1110.0693000000001
 11
1770.1923999999999
 21
1112.7138
  0
LINE
  8
_0-0_LAYER001
  6
CONTINUOUS
 62
    3
 10
1770.1923999999999
 20
1112.7138
 11
1782.6976
 21
1115.3467000000001
  0
LINE
  8
_0-0_LAYER001
  6
CONTINUOUS
 62
    3
 10
1782.6976
 20
1115.3467000000001
 11
1795.9870999999998
 21
1117.7494999999999
  0
LINE
  8
_0-0_LAYER001
  6
CONTINUOUS
 62
    3
 10
1795.9870999999998
 20
1117.7494999999999
 11
1809.6015000000002
 21
1119.7034000000001
  0
LINE
  8
_0-0_LAYER001
  6
CONTINUOUS
 62
    3
 10
1809.6015000000002
 20
1119.7034000000001
 11
1823.0814999999998
 21
1120.9898000000001
  0
LINE
  8
_0-0_LAYER001
  6
CONTINUOUS
 62
    3
 10
1835.9677999999999
 20
1121.3901000000001
 11
1822.9684999999999
 21
1120.979
  0
LINE
  8
_0-2_LAYER004
  6
CONTINUOUS
 62
    2
 10
1754.1459
 20
1116.1677999999999
 11
1758.4400000000001
 21
1122.5382999999999
  0
LINE
  8
_0-0_LAYER001
  6
CONTINUOUS
 62
    2
 10
1853.1986999999999
 20
1135.3507
 11
1869.6628000000001
 21
1135.3507
  0
LINE
  8
_0-0_LAYER001
  6
CONTINUOUS
 62
    2
 10
1917.6628000000001
 20
1115.3507
 11
1912.6628000000001
 21
1118.3507
  0
LINE
  8
_0-0_LAYER001
  6
CONTINUOUS
 62
    2
 10
1912.6628000000001
 20
1112.3507999999999
 11
1917.6628000000001
 21
1115.3507
  0
LINE
  8
_0-0_LAYER001
  6
CONTINUOUS
 62
    2
 10
1911.5877999999998
 20
1112.3507999999999
 11
1914.4367999999999
 21
1117.2868000000001
  0
LINE
  8
_0-0_LAYER001
  6
CONTINUOUS
 62
    2
 10
1845.6626999999999
 20
1112.3507999999999
 11
1845.6626999999999
 21
1118.3507
  0
LINE
  8
_0-0_LAYER001
  6
CONTINUOUS
 62
    2
 10
1839.6628000000001
 20
1109.3507
 11
1839.6628000000001
 21
1121.3507999999999
  0
LINE
  8
_0-0_LAYER001
  6
CONTINUOUS
 62
    2
 10
1848.5497999999998
 20
1112.3507999999999
 11
1852.0128
 21
1118.3507
  0
LINE
  8
_0-0_LAYER001
  6
CONTINUOUS
 62
    2
 10
1839.6628000000001
 20
1109.3507
 11
1845.6626999999999
 21
1112.3507999999999
  0
LINE
  8
_0-0_LAYER001
  6
CONTINUOUS
 62
    2
 10
1845.6626999999999
 20
1118.3507
 11
1839.6628000000001
 21
1121.3507999999999
  0
LINE
  8
_0-0_LAYER001
  6
CONTINUOUS
 62
    2
 10
1912.6628000000001
 20
1118.3507
 11
1902.6478000000002
 21
1118.3507
  0
LINE
  8
_0-0_LAYER001
  6
CONTINUOUS
 62
    2
 10
1893.9958999999999
 20
1113.8779
 11
1895.8897999999999
 21
1117.1587999999999
  0
LINE
  8
_0-0_LAYER001
  6
CONTINUOUS
 62
    2
 10
1902.3798000000002
 20
1112.3997999999999
 11
1905.8148000000001
 21
1118.3507
  0
LINE
  8
_0-0_LAYER001
  6
CONTINUOUS
 62
    2
 10
1912.6628000000001
 20
1112.3507999999999
 11
1902.6559000000002
 21
1112.3507999999999
  0
LINE
  8
_0-0_LAYER001
  6
CONTINUOUS
 62
    2
 10
1910.5118000000002
 20
1122.0737999999999
 11
1910.9117999999999
 21
1119.8077000000001
  0
LINE
  8
_0-0_LAYER001
  6
CONTINUOUS
 62
    2
 10
1910.3388
 20
1108.6609000000001
 11
1910.7366999999999
 21
1110.9258
  0
LINE
  8
_0-0_LAYER001
  6
CONTINUOUS
 62
    2
 10
1905.9187000000002
 20
1121.0598
 11
1907.5927999999999
 21
1121.3547000000001
  0
LINE
  8
_0-0_LAYER001
  6
CONTINUOUS
 62
    2
 10
1901.5857999999998
 20
1120.2958000000001
 11
1903.2586999999999
 21
1120.5907999999999
  0
LINE
  8
_0-0_LAYER001
  6
CONTINUOUS
 62
    2
 10
1897.2528000000002
 20
1119.5317
 11
1898.9256999999998
 21
1119.8268
  0
LINE
  8
_0-0_LAYER001
  6
CONTINUOUS
 62
    2
 10
1896.9567000000002
 20
1121.2048
 11
1887.8627999999999
 21
1119.6018999999999
  0
LINE
  8
_0-0_LAYER001
  6
CONTINUOUS
 62
    2
 10
1901.2896999999998
 20
1121.9686999999999
 11
1898.6307000000002
 21
1121.4997000000001
  0
LINE
  8
_0-0_LAYER001
  6
CONTINUOUS
 62
    2
 10
1905.6228000000001
 20
1122.7329
 11
1902.9638
 21
1122.2638999999999
  0
LINE
  8
_0-0_LAYER001
  6
CONTINUOUS
 62
    2
 10
1908.7746999999999
 20
1123.2887000000001
 11
1907.2968999999998
 21
1123.0277000000001
  0
LINE
  8
_0-0_LAYER001
  6
CONTINUOUS
 62
    2
 10
1907.5927999999999
 20
1121.3547000000001
 11
1907.2968999999998
 21
1123.0288
  0
LINE
  8
_0-0_LAYER001
  6
CONTINUOUS
 62
    2
 10
1905.9187000000002
 20
1121.0598
 11
1905.6228000000001
 21
1122.7338
  0
LINE
  8
_0-0_LAYER001
  6
CONTINUOUS
 62
    2
 10
1903.2599
 20
1120.5907999999999
 11
1902.9638
 21
1122.2648999999999
  0
LINE
  8
_0-0_LAYER001
  6
CONTINUOUS
 62
    2
 10
1901.5857999999998
 20
1120.2958000000001
 11
1901.2896999999998
 21
1121.9697000000001
  0
LINE
  8
_0-0_LAYER001
  6
CONTINUOUS
 62
    2
 10
1898.9268000000002
 20
1119.8268
 11
1898.6307000000002
 21
1121.5007000000001
  0
LINE
  8
_0-0_LAYER001
  6
CONTINUOUS
 62
    2
 10
1897.2528000000002
 20
1119.5317
 11
1896.9567000000002
 21
1121.2058
  0
LINE
  8
_0-0_LAYER001
  6
CONTINUOUS
 62
    2
 10
1905.7438000000002
 20
1109.6737000000001
 11
1907.4178000000002
 21
1109.3788
  0
LINE
  8
_0-0_LAYER001
  6
CONTINUOUS
 62
    2
 10
1901.4108999999999
 20
1110.4377999999999
 11
1903.0848000000001
 21
1110.1428000000001
  0
LINE
  8
_0-0_LAYER001
  6
CONTINUOUS
 62
    2
 10
1897.0778
 20
1111.2018
 11
1898.7516999999998
 21
1110.9067
  0
LINE
  8
_0-0_LAYER001
  6
CONTINUOUS
 62
    2
 10
1897.0787999999998
 20
1111.2018
 11
1896.7827000000002
 21
1109.5288
  0
LINE
  8
_0-0_LAYER001
  6
CONTINUOUS
 62
    2
 10
1898.7527
 20
1110.9067
 11
1898.4567000000002
 21
1109.2338
  0
LINE
  8
_0-0_LAYER001
  6
CONTINUOUS
 62
    2
 10
1901.4119000000001
 20
1110.4377999999999
 11
1901.1158
 21
1108.7647999999999
  0
LINE
  8
_0-0_LAYER001
  6
CONTINUOUS
 62
    2
 10
1903.0857999999998
 20
1110.1428000000001
 11
1902.7896999999998
 21
1108.4698000000001
  0
LINE
  8
_0-0_LAYER001
  6
CONTINUOUS
 62
    2
 10
1905.7447999999999
 20
1109.6737000000001
 11
1905.4488000000001
 21
1108.0008
  0
LINE
  8
_0-0_LAYER001
  6
CONTINUOUS
 62
    2
 10
1907.4187999999999
 20
1109.3788
 11
1907.1228000000001
 21
1107.7058
  0
LINE
  8
_0-0_LAYER001
  6
CONTINUOUS
 62
    2
 10
1896.7827000000002
 20
1109.5288
 11
1887.8627999999999
 21
1111.1007
  0
LINE
  8
_0-0_LAYER001
  6
CONTINUOUS
 62
    2
 10
1901.1158
 20
1108.7647999999999
 11
1898.4567000000002
 21
1109.2338
  0
LINE
  8
_0-0_LAYER001
  6
CONTINUOUS
 62
    2
 10
1905.4488000000001
 20
1108.0008
 11
1902.7896999999998
 21
1108.4698000000001
  0
LINE
  8
_0-0_LAYER001
  6
CONTINUOUS
 62
    2
 10
1908.5999000000002
 20
1107.4448
 11
1907.1228000000001
 21
1107.7048
  0
LINE
  8
_0-0_LAYER001
  6
CONTINUOUS
 62
    2
 10
1885.6388000000002
 20
1115.3517999999999
 11
1910.9117999999999
 21
1119.8077000000001
  0
LINE
  8
_0-0_LAYER001
  6
CONTINUOUS
 62
    2
 10
1885.6388000000002
 20
1115.3517999999999
 11
1910.7366999999999
 21
1110.9258
  0
LINE
  8
_0-0_LAYER001
  6
CONTINUOUS
 62
    2
 10
1869.6628000000001
 20
1119.6007999999999
 11
1887.8627999999999
 21
1119.6007999999999
  0
LINE
  8
_0-0_LAYER001
  6
CONTINUOUS
 62
    2
 10
1869.6628000000001
 20
1111.1007
 11
1887.8627999999999
 21
1111.1007
  0
LINE
  8
_0-0_LAYER001
  6
CONTINUOUS
 62
    2
 10
1869.6628000000001
 20
1111.1007
 11
1869.6628000000001
 21
1119.6007999999999
  0
LINE
  8
_0-0_LAYER001
  6
CONTINUOUS
 62
    2
 10
1839.6628000000001
 20
1095.3507
 11
1869.6628000000001
 21
1095.3507
  0
LINE
  8
_0-0_LAYER001
  6
CONTINUOUS
 62
    2
 10
1869.6628000000001
 20
1118.3507
 11
1845.6626999999999
 21
1118.3507
  0
LINE
  8
_0-0_LAYER001
  6
CONTINUOUS
 62
    2
 10
1869.6628000000001
 20
1112.3507999999999
 11
1845.6626999999999
 21
1112.3507999999999
  0
LINE
  8
_0-0_LAYER001
  6
CONTINUOUS
 62
    2
 10
1854.2728999999999
 20
1112.3507999999999
 11
1857.7359999999999
 21
1118.3507
  0
LINE
  8
_0-0_LAYER001
  6
CONTINUOUS
 62
    2
 10
1859.9960000000001
 20
1112.3507999999999
 11
1863.4591
 21
1118.3507
  0
LINE
  8
_0-0_LAYER001
  6
CONTINUOUS
 62
    2
 10
1865.7192
 20
1112.3507999999999
 11
1869.1822000000002
 21
1118.3507
  0
LINE
  8
_0-0_LAYER001
  6
CONTINUOUS
 62
    2
 10
1839.6628000000001
 20
1095.3507
 11
1839.6628000000001
 21
1132.8715
  0
LINE
  8
_0-0_LAYER001
  6
CONTINUOUS
 62
    2
 10
1869.6628000000001
 20
1095.3507
 11
1843.1668
 21
1130.6787999999999
  0
ARC
  8
_0-0_LAYER001
  6
CONTINUOUS
 62
    2
 10
1909.0268000000001
 20
1121.8068000000001
 40
1.5049999999999999
 50
10.451269999999999
 51
99.637527999999989
  0
ARC
  8
_0-0_LAYER001
  6
CONTINUOUS
 62
    2
 10
1908.8588
 20
1108.9238
 40
1.4969999999999999
 50
259.83899000000008
 51
350.14733000000001
  0
LINE
  8
_0-0_LAYER001
  6
CONTINUOUS
 62
    2
 10
1837.1727999999998
 20
1145.1454000000001
 11
1845.2435
 21
1148.9081000000001
  0
LINE
  8
_0-0_LAYER001
  6
CONTINUOUS
 62
    2
 10
1851.6125000000002
 20
1120.3244
 11
1857.0688
 21
1113.2565
  0
LINE
  8
_0-0_LAYER001
  6
CONTINUOUS
 62
    2
 10
1843.5610999999999
 20
1146.3634999999999
 11
1854.9717000000001
 21
1121.8906999999999
  0
LINE
  8
_0-0_LAYER001
  6
CONTINUOUS
 62
    2
 10
1857.0688
 20
1113.2565
 11
1854.9717000000001
 21
1121.8906999999999
  0
LINE
  8
_0-0_LAYER001
  6
CONTINUOUS
 62
    2
 10
1840.2015999999999
 20
1144.7987000000001
 11
1837.1727999999998
 21
1145.1454000000001
  0
LINE
  8
_0-0_LAYER001
  6
CONTINUOUS
 62
    2
 10
1843.5610999999999
 20
1146.3634999999999
 11
1845.2435
 21
1148.9081000000001
  0
LINE
  8
_0-0_LAYER001
  6
CONTINUOUS
 62
    2
 10
1840.2015999999999
 20
1144.7987000000001
 11
1851.6125000000002
 21
1120.3244
  0
LINE
  8
_0-0_LAYER001
  6
CONTINUOUS
 62
    2
 10
1863.6707999999999
 20
1095.3507
 11
1856.5635000000002
 21
1086.1893
  0
ARC
  8
_0-0_LAYER001
  6
CONTINUOUS
 62
    2
 10
1748.1075000000001
 20
1091.0816
 40
23.681063000000002
 50
338.32092999999998
 51
6.5449780000000279
  0
ARC
  8
_0-0_LAYER001
  6
CONTINUOUS
 62
    2
 10
1691.4430000000002
 20
1058.2537
 40
77.282124999999994
 50
333.06542999999999
 51
3.8251930000000165
  0
LINE
  8
_0-0_LAYER001
  6
CONTINUOUS
 62
    3
 10
1824.8667999999998
 20
1089.2324000000001
 11
1824.8442
 21
1088.7672
  0
LINE
  8
_0-0_LAYER001
  6
CONTINUOUS
 62
    3
 10
1824.8442
 20
1088.7672
 11
1824.7827000000002
 21
1087.5044
  0
LINE
  8
_0-0_LAYER001
  6
CONTINUOUS
 62
    3
 10
1824.7827000000002
 20
1087.5044
 11
1824.6921000000002
 21
1085.6434999999999
  0
LINE
  8
_0-0_LAYER001
  6
CONTINUOUS
 62
    3
 10
1824.6921000000002
 20
1085.6434999999999
 11
1824.5821000000001
 21
1083.3838000000001
  0
LINE
  8
_0-0_LAYER001
  6
CONTINUOUS
 62
    3
 10
1824.5821000000001
 20
1083.3838000000001
 11
1824.4623999999999
 21
1080.9248
  0
LINE
  8
_0-0_LAYER001
  6
CONTINUOUS
 62
    3
 10
1824.4623999999999
 20
1080.9248
 11
1824.3427000000001
 21
1078.4657
  0
LINE
  8
_0-0_LAYER001
  6
CONTINUOUS
 62
    3
 10
1824.3427000000001
 20
1078.4657
 11
1824.2327
 21
1076.2059999999999
  0
LINE
  8
_0-0_LAYER001
  6
CONTINUOUS
 62
    3
 10
1824.2327
 20
1076.2059999999999
 11
1824.1421
 21
1074.3451
  0
LINE
  8
_0-0_LAYER001
  6
CONTINUOUS
 62
    3
 10
1824.1421
 20
1074.3451
 11
1824.0805999999998
 21
1073.0824
  0
LINE
  8
_0-0_LAYER001
  6
CONTINUOUS
 62
    3
 10
1824.0805999999998
 20
1073.0824
 11
1824.058
 21
1072.6170999999999
  0
LINE
  8
_0-0_LAYER001
  6
CONTINUOUS
 62
    3
 10
1824.058
 20
1072.6170999999999
 11
1822.9128000000001
 21
1072.6928
  0
LINE
  8
_0-0_LAYER001
  6
CONTINUOUS
 62
    3
 10
1822.9128000000001
 20
1072.6928
 11
1819.5374999999999
 21
1072.7614000000001
  0
LINE
  8
_0-0_LAYER001
  6
CONTINUOUS
 62
    3
 10
1819.5374999999999
 20
1072.7614000000001
 11
1814.0225
 21
1072.5854999999999
  0
LINE
  8
_0-0_LAYER001
  6
CONTINUOUS
 62
    3
 10
1814.0225
 20
1072.5854999999999
 11
1806.4580000000001
 21
1071.9274
  0
LINE
  8
_0-0_LAYER001
  6
CONTINUOUS
 62
    3
 10
1806.4580000000001
 20
1071.9274
 11
1796.9344000000001
 21
1070.5495000000001
  0
LINE
  8
_0-0_LAYER001
  6
CONTINUOUS
 62
    3
 10
1796.9344000000001
 20
1070.5495000000001
 11
1785.5419000000002
 21
1068.2144000000001
  0
LINE
  8
_0-0_LAYER001
  6
CONTINUOUS
 62
    3
 10
1785.5419000000002
 20
1068.2144000000001
 11
1772.3710000000001
 21
1064.6844000000001
  0
LINE
  8
_0-0_LAYER001
  6
CONTINUOUS
 62
    3
 10
1772.3710000000001
 20
1064.6844000000001
 11
1757.5119
 21
1059.722
  0
LINE
  8
_0-0_LAYER001
  6
CONTINUOUS
 62
    3
 10
1757.5119
 20
1059.722
 11
1741.0549000000001
 21
1053.0897
  0
LINE
  8
_0-0_LAYER001
  6
CONTINUOUS
 62
    3
 10
1741.0549000000001
 20
1053.0897
 11
1723.0904
 21
1044.5498
  0
LINE
  8
_0-0_LAYER001
  6
CONTINUOUS
 62
    3
 10
1723.0904
 20
1044.5498
 11
1723.1273000000001
 21
1045.3069
  0
LINE
  8
_0-0_LAYER001
  6
CONTINUOUS
 62
    3
 10
1723.1273000000001
 20
1045.3069
 11
1723.2273
 21
1047.3620000000001
  0
LINE
  8
_0-0_LAYER001
  6
CONTINUOUS
 62
    3
 10
1723.2273
 20
1047.3620000000001
 11
1723.3748000000001
 21
1050.3905999999999
  0
LINE
  8
_0-0_LAYER001
  6
CONTINUOUS
 62
    3
 10
1723.3748000000001
 20
1050.3905999999999
 11
1723.5538000000001
 21
1054.0681999999999
  0
LINE
  8
_0-0_LAYER001
  6
CONTINUOUS
 62
    3
 10
1723.5538000000001
 20
1054.0681999999999
 11
1723.7485999999999
 21
1058.0702000000001
  0
LINE
  8
_0-0_LAYER001
  6
CONTINUOUS
 62
    3
 10
1723.7485999999999
 20
1058.0702000000001
 11
1723.9434999999999
 21
1062.0723
  0
LINE
  8
_0-0_LAYER001
  6
CONTINUOUS
 62
    3
 10
1723.9434999999999
 20
1062.0723
 11
1724.1224999999999
 21
1065.7498000000001
  0
LINE
  8
_0-0_LAYER001
  6
CONTINUOUS
 62
    3
 10
1724.1224999999999
 20
1065.7498000000001
 11
1724.2698999999998
 21
1068.7783999999999
  0
LINE
  8
_0-0_LAYER001
  6
CONTINUOUS
 62
    3
 10
1724.2698999999998
 20
1068.7783999999999
 11
1724.3699999999999
 21
1070.8335
  0
LINE
  8
_0-0_LAYER001
  6
CONTINUOUS
 62
    3
 10
1724.3699999999999
 20
1070.8335
 11
1724.4068000000002
 21
1071.5907
  0
LINE
  8
_0-0_LAYER001
  6
CONTINUOUS
 62
    3
 10
1724.4068000000002
 20
1071.5907
 11
1726.1003999999998
 21
1072.0951
  0
LINE
  8
_0-0_LAYER001
  6
CONTINUOUS
 62
    3
 10
1726.1003999999998
 20
1072.0951
 11
1730.875
 21
1073.4623999999999
  0
LINE
  8
_0-0_LAYER001
  6
CONTINUOUS
 62
    3
 10
1730.875
 20
1073.4623999999999
 11
1738.2712999999999
 21
1075.4742000000001
  0
LINE
  8
_0-0_LAYER001
  6
CONTINUOUS
 62
    3
 10
1738.2712999999999
 20
1075.4742000000001
 11
1747.8299000000002
 21
1077.9115999999999
  0
LINE
  8
_0-0_LAYER001
  6
CONTINUOUS
 62
    3
 10
1747.8299000000002
 20
1077.9115999999999
 11
1759.0913999999998
 21
1080.5561
  0
LINE
  8
_0-0_LAYER001
  6
CONTINUOUS
 62
    3
 10
1759.0913999999998
 20
1080.5561
 11
1771.5965999999999
 21
1083.1891000000001
  0
LINE
  8
_0-0_LAYER001
  6
CONTINUOUS
 62
    3
 10
1771.5965999999999
 20
1083.1891000000001
 11
1784.8861000000002
 21
1085.5917999999999
  0
LINE
  8
_0-0_LAYER001
  6
CONTINUOUS
 62
    3
 10
1784.8861000000002
 20
1085.5917999999999
 11
1798.5005000000001
 21
1087.5456999999999
  0
LINE
  8
_0-0_LAYER001
  6
CONTINUOUS
 62
    3
 10
1798.5005000000001
 20
1087.5456999999999
 11
1811.9805000000001
 21
1088.8322000000001
  0
LINE
  8
_0-0_LAYER001
  6
CONTINUOUS
 62
    3
 10
1824.8667999999998
 20
1089.2324000000001
 11
1811.8674999999998
 21
1088.8214
  0
ARC
  8
_0-0_LAYER001
  6
CONTINUOUS
 62
    2
 10
1827.3888000000002
 20
1259.2752
 40
20.694040000000001
 50
335.49168000000003
 51
33.319545000000062
  0
LINE
  8
_0-0_LAYER001
  6
CONTINUOUS
 62
    2
 10
1859.6907999999999
 20
1270.6425999999999
 11
1859.6907999999999
 21
1250.6425999999999
  0
LINE
  8
_0-2_LAYER004
  6
CONTINUOUS
 62
    2
 10
1865.1527999999998
 20
1270.6425999999999
 11
1859.6907999999999
 21
1250.6425999999999
  0
LINE
  8
_0-2_LAYER004
  6
CONTINUOUS
 62
    2
 10
1865.1527999999998
 20
1250.6425999999999
 11
1859.6907999999999
 21
1270.6425999999999
  0
LINE
  8
_0-2_LAYER004
  6
CONTINUOUS
 62
    2
 10
1867.2147
 20
1250.7442000000001
 11
1867.2147
 21
1267.6869999999999
  0
LINE
  8
_0-3_LAYER005
  6
CONTINUOUS
 62
    2
 10
1844.2078000000001
 20
1250.6425999999999
 11
1869.2078000000001
 21
1250.6425999999999
  0
LINE
  8
_0-3_LAYER005
  6
CONTINUOUS
 62
    2
 10
1865.1527999999998
 20
1250.6425999999999
 11
1865.1527999999998
 21
1270.6425999999999
  0
LINE
  8
_0-3_LAYER005
  6
CONTINUOUS
 62
    2
 10
1853.3827999999999
 20
1250.6425999999999
 11
1859.6907999999999
 21
1256.9505999999999
  0
LINE
  8
_0-3_LAYER005
  6
CONTINUOUS
 62
    2
 10
1849.1397999999999
 20
1250.6425999999999
 11
1859.6907999999999
 21
1261.1936000000001
  0
LINE
  8
_0-3_LAYER005
  6
CONTINUOUS
 62
    2
 10
1847.0385000000001
 20
1252.7844
 11
1859.6907999999999
 21
1265.4358999999999
  0
LINE
  8
_0-3_LAYER005
  6
CONTINUOUS
 62
    2
 10
1848.0455000000002
 20
1258.0333000000001
 11
1859.6907999999999
 21
1269.6786
  0
LINE
  8
_0-3_LAYER005
  6
CONTINUOUS
 62
    2
 10
1847.8869
 20
1262.1162999999999
 11
1856.4117000000001
 21
1270.6425999999999
  0
LINE
  8
_0-3_LAYER005
  6
CONTINUOUS
 62
    2
 10
1847.1014
 20
1265.5724
 11
1852.1682000000001
 21
1270.6425999999999
  0
LINE
  8
_0-0_LAYER001
  6
CONTINUOUS
 62
    2
 10
1858.2538
 20
1134.3516
 11
1860.1950000000002
 21
1127.1071999999999
  0
LINE
  8
_0-0_LAYER001
  6
CONTINUOUS
 62
    2
 10
1860.1950000000002
 20
1127.1071999999999
 11
1854.8917000000001
 21
1132.4105
  0
LINE
  8
_0-0_LAYER001
  6
CONTINUOUS
 62
    2
 10
1860.1950000000002
 20
1127.1071999999999
 11
1751.6325999999999
 21
1315.1427000000001
  0
LINE
  8
_0-0_LAYER001
  6
CONTINUOUS
 62
    2
 10
1751.6325999999999
 20
1315.1427000000001
 11
1670.6325999999999
 21
1315.1427000000001
  0
LINE
  8
_0-1_LAYER003
  6
CONTINUOUS
 62
    2
 10
1801.3258999999998
 20
1151.1202000000001
 11
1803.2671
 21
1143.8757000000001
  0
LINE
  8
_0-1_LAYER003
  6
CONTINUOUS
 62
    2
 10
1803.2671
 20
1143.8757000000001
 11
1797.9638
 21
1149.1790000000001
  0
LINE
  8
_0-1_LAYER003
  6
CONTINUOUS
 62
    2
 10
1803.2671
 20
1143.8757000000001
 11
1724.9141
 21
1279.5871
  0
LINE
  8
_0-1_LAYER003
  6
CONTINUOUS
 62
    2
 10
1724.9141
 20
1279.5871
 11
1487.0781999999999
 21
1279.5871
  0
LINE
  8
_0-1_LAYER003
  6
CONTINUOUS
 62
    2
 10
1750.1376
 20
1103.4739
 11
1752.0787999999998
 21
1096.2293999999999
  0
LINE
  8
_0-1_LAYER003
  6
CONTINUOUS
 62
    2
 10
1752.0787999999998
 20
1096.2293999999999
 11
1746.7755000000002
 21
1101.5327
  0
LINE
  8
_0-1_LAYER003
  6
CONTINUOUS
 62
    2
 10
1752.0787999999998
 20
1096.2293999999999
 11
1693.6014
 21
1197.5151000000001
  0
LINE
  8
_0-1_LAYER003
  6
CONTINUOUS
 62
    2
 10
1693.6014
 20
1197.5151000000001
 11
1557.5646000000002
 21
1197.5151000000001
  0
LINE
  8
_0-0_LAYER001
  6
CONTINUOUS
 62
    2
 10
1825.0268999999998
 20
977.99600000000009
 11
1823.0857000000001
 21
985.24039999999991
  0
LINE
  8
_0-0_LAYER001
  6
CONTINUOUS
 62
    2
 10
1823.0857000000001
 20
985.24039999999991
 11
1828.3890000000001
 21
979.9371000000001
  0
LINE
  8
_0-0_LAYER001
  6
CONTINUOUS
 62
    2
 10
1823.0857000000001
 20
985.24039999999991
 11
1895.2570999999998
 21
860.2360000000001
  0
LINE
  8
_0-0_LAYER001
  6
CONTINUOUS
 62
    2
 10
1895.2570999999998
 20
860.2360000000001
 11
2129.2570999999998
 21
860.2360000000001
  0
LINE
  8
_0-0_LAYER001
  6
CONTINUOUS
 62
    2
 10
1998.4845
 20
980.49050000000011
 11
1945.9845
 21
980.49050000000011
  0
CIRCLE
  8
_0-0_LAYER001
  6
CONTINUOUS
 62
    2
 10
1995.9845
 20
980.49050000000011
 40
1.6999999999999997
  0
LINE
  8
_0-0_LAYER001
  6
CONTINUOUS
 62
    2
 10
1995.9845
 20
980.49050000000011
 11
1995.9845
 21
1095.3507
  0
CIRCLE
  8
_0-0_LAYER001
  6
CONTINUOUS
 62
    2
 10
1995.9845
 20
1095.3507
 40
1.6999999999999997
  0
LINE
  8
_0-0_LAYER001
  6
CONTINUOUS
 62
    2
 10
1998.4845
 20
1095.3507
 11
1945.9845
 21
1095.3507
  0
CIRCLE
  8
_0-0_LAYER001
  6
CONTINUOUS
 62
    2
 10
1995.9845
 20
1095.3507
 40
1.6999999999999997
  0
LINE
  8
_0-0_LAYER001
  6
CONTINUOUS
 62
    2
 10
1995.9845
 20
1095.3507
 11
1995.9845
 21
1150.6425999999999
  0
CIRCLE
  8
_0-0_LAYER001
  6
CONTINUOUS
 62
    2
 10
1995.9845
 20
1150.6425999999999
 40
1.6999999999999997
  0
LINE
  8
_0-0_LAYER001
  6
CONTINUOUS
 62
    2
 10
1998.4845
 20
1150.6425999999999
 11
1945.9845
 21
1150.6425999999999
  0
CIRCLE
  8
_0-0_LAYER001
  6
CONTINUOUS
 62
    2
 10
1995.9845
 20
1150.6425999999999
 40
1.6999999999999997
  0
LINE
  8
_0-0_LAYER001
  6
CONTINUOUS
 62
    2
 10
1995.9845
 20
1150.6425999999999
 11
1995.9845
 21
1250.6425999999999
  0
CIRCLE
  8
_0-0_LAYER001
  6
CONTINUOUS
 62
    2
 10
1995.9845
 20
1250.6425999999999
 40
1.6999999999999997
  0
LINE
  8
_0-0_LAYER001
  6
CONTINUOUS
 62
    2
 10
1998.4845
 20
1250.6425999999999
 11
1945.9845
 21
1250.6425999999999
  0
CIRCLE
  8
_0-0_LAYER001
  6
CONTINUOUS
 62
    2
 10
1995.9845
 20
1250.6425999999999
 40
1.6999999999999997
  0
LINE
  8
_0-0_LAYER001
  6
CONTINUOUS
 62
    2
 10
1995.9845
 20
1250.6425999999999
 11
1995.9845
 21
1270.6425999999999
  0
CIRCLE
  8
_0-0_LAYER001
  6
CONTINUOUS
 62
    2
 10
1995.9845
 20
1270.6425999999999
 40
1.6999999999999997
  0
LINE
  8
_0-0_LAYER001
  6
CONTINUOUS
 62
    2
 10
1998.4845
 20
1270.6425999999999
 11
1945.9845
 21
1270.6425999999999
  0
LINE
  8
_0-1_LAYER003
  6
CONTINUOUS
 62
    2
 10
1497.2321999999999
 20
1021.1660999999999
 11
1499.1734000000001
 21
1013.9217000000001
  0
LINE
  8
_0-1_LAYER003
  6
CONTINUOUS
 62
    2
 10
1499.1734000000001
 20
1013.9217000000001
 11
1493.8701000000001
 21
1019.2249999999999
  0
LINE
  8
_0-1_LAYER003
  6
CONTINUOUS
 62
    2
 10
1499.1734000000001
 20
1013.9217000000001
 11
1438.1596
 21
1119.6006
  0
LINE
  8
_0-1_LAYER003
  6
CONTINUOUS
 62
    2
 10
1438.1596
 20
1119.6006
 11
1397.6596
 21
1119.6006
  0
LINE
  8
_0-0_LAYER001
  6
CONTINUOUS
 62
    2
 10
1845.1603
 20
1268.1670999999999
 11
1847.1014
 21
1260.9226000000001
  0
LINE
  8
_0-0_LAYER001
  6
CONTINUOUS
 62
    2
 10
1847.1014
 20
1260.9226000000001
 11
1841.7981
 21
1266.2258999999999
  0
LINE
  8
_0-0_LAYER001
  6
CONTINUOUS
 62
    2
 10
1847.1014
 20
1260.9226000000001
 11
1798.2372999999998
 21
1345.5579
  0
LINE
  8
_0-0_LAYER001
  6
CONTINUOUS
 62
    2
 10
1798.2372999999998
 20
1345.5579
 11
1717.2372999999998
 21
1345.5579
  0
LINE
  8
_0-0_LAYER001
  6
CONTINUOUS
 62
    2
 10
1816.1545000000001
 20
1058.6061
 11
1814.2132999999999
 21
1065.8505
  0
LINE
  8
_0-0_LAYER001
  6
CONTINUOUS
 62
    2
 10
1814.2132999999999
 20
1065.8505
 11
1819.5165999999999
 21
1060.5472
  0
LINE
  8
_0-0_LAYER001
  6
CONTINUOUS
 62
    2
 10
1814.2132999999999
 20
1065.8505
 11
1906.1961000000001
 21
906.5317
  0
LINE
  8
_0-0_LAYER001
  6
CONTINUOUS
 62
    2
 10
1906.1961000000001
 20
906.5317
 11
1993.3912
 21
906.5317
  0
LINE
  8
_0-1_LAYER003
  6
CONTINUOUS
 62
    2
 10
1784.7872000000002
 20
1135.7422999999999
 11
1786.7283000000002
 21
1128.4979000000001
  0
LINE
  8
_0-1_LAYER003
  6
CONTINUOUS
 62
    2
 10
1786.7283000000002
 20
1128.4979000000001
 11
1781.4250000000002
 21
1133.8012000000001
  0
LINE
  8
_0-1_LAYER003
  6
CONTINUOUS
 62
    2
 10
1786.7283000000002
 20
1128.4979000000001
 11
1722.6801
 21
1239.4327000000001
  0
LINE
  8
_0-1_LAYER003
  6
CONTINUOUS
 62
    2
 10
1722.6801
 20
1239.4327000000001
 11
1570.1433000000002
 21
1239.4327000000001
  0
LINE
  8
_0-2_LAYER004
  6
CONTINUOUS
 62
    3
 10
1848.6684
 20
952.25369999999998
 11
858.51510000000007
 21
952.25369999999998
  0
CIRCLE
  8
_0-2_LAYER004
  6
CONTINUOUS
 62
    3
 10
1843.1950999999999
 20
953.47880000000009
 40
1.3049219999999999
  0
CIRCLE
  8
_0-2_LAYER004
  6
CONTINUOUS
 62
    3
 10
1693.1950999999999
 20
953.47880000000009
 40
1.3049219999999999
  0
CIRCLE
  8
_0-2_LAYER004
  6
CONTINUOUS
 62
    3
 10
1543.1950999999999
 20
953.47880000000009
 40
1.3049219999999999
  0
CIRCLE
  8
_0-2_LAYER004
  6
CONTINUOUS
 62
    3
 10
1393.1950999999999
 20
953.47880000000009
 40
1.3049219999999999
  0
CIRCLE
  8
_0-2_LAYER004
  6
CONTINUOUS
 62
    3
 10
1093.1950999999999
 20
953.47880000000009
 40
1.3049219999999999
  0
CIRCLE
  8
_0-2_LAYER004
  6
CONTINUOUS
 62
    3
 10
943.19509999999991
 20
953.47880000000009
 40
1.3049219999999999
  0
CIRCLE
  8
_0-2_LAYER004
  6
CONTINUOUS
 62
    3
 10
1243.1950999999999
 20
953.47880000000009
 40
1.3049219999999999
  0
LINE
  8
_0-2_LAYER004
  6
DASHED1
 62
    2
 10
1758.4202
 20
956.93270000000007
 11
1768.4202
 21
956.93270000000007
  0
LINE
  8
_0-2_LAYER004
  6
DASHED1
 62
    2
 10
1737.0502000000001
 20
902.91409999999996
 11
1737.0502000000001
 21
892.91409999999996
  0
LINE
  8
_0-2_LAYER004
  6
DASHED1
 62
    2
 10
1758.4202
 20
956.93270000000007
 11
1758.4202
 21
902.91409999999996
  0
LINE
  8
_0-2_LAYER004
  6
DASHED1
 62
    2
 10
1768.4202
 20
956.93270000000007
 11
1768.4202
 21
892.91409999999996
  0
LINE
  8
_0-2_LAYER004
  6
DASHED1
 62
    2
 10
1758.4202
 20
902.91409999999996
 11
1737.0502000000001
 21
902.91409999999996
  0
LINE
  8
_0-2_LAYER004
  6
DASHED1
 62
    2
 10
1768.4202
 20
892.91409999999996
 11
1737.0502000000001
 21
892.91409999999996
  0
LINE
  8
_0-2_LAYER004
  6
DASHED1
 62
    2
 10
1158.4202
 20
956.93270000000007
 11
1168.4202
 21
956.93270000000007
  0
LINE
  8
_0-2_LAYER004
  6
DASHED1
 62
    2
 10
1137.0501999999999
 20
902.91409999999996
 11
1137.0501999999999
 21
892.91409999999996
  0
LINE
  8
_0-2_LAYER004
  6
DASHED1
 62
    2
 10
1158.4202
 20
956.93270000000007
 11
1158.4202
 21
902.91409999999996
  0
LINE
  8
_0-2_LAYER004
  6
DASHED1
 62
    2
 10
1168.4202
 20
956.93270000000007
 11
1168.4202
 21
892.91409999999996
  0
LINE
  8
_0-2_LAYER004
  6
DASHED1
 62
    2
 10
1158.4202
 20
902.91409999999996
 11
1137.0501999999999
 21
902.91409999999996
  0
LINE
  8
_0-2_LAYER004
  6
DASHED1
 62
    2
 10
1168.4202
 20
892.91409999999996
 11
1137.0501999999999
 21
892.91409999999996
  0
LINE
  8
_0-2_LAYER004
  6
CONTINUOUS
 62
    2
 10
1165.4637
 20
908.94929999999999
 11
1163.5225
 21
916.19380000000001
  0
LINE
  8
_0-2_LAYER004
  6
CONTINUOUS
 62
    2
 10
1163.5225
 20
916.19380000000001
 11
1168.8258000000001
 21
910.89049999999997
  0
LINE
  8
_0-2_LAYER004
  6
CONTINUOUS
 62
    2
 10
1163.5225
 20
916.19380000000001
 11
1188.1507999999999
 21
873.53629999999998
  0
LINE
  8
_0-2_LAYER004
  6
CONTINUOUS
 62
    2
 10
1188.1507999999999
 20
873.53629999999998
 11
1248.1507999999999
 21
873.53629999999998
  0
LINE
  8
_0-2_LAYER004
  6
CONTINUOUS
 62
    2
 10
1473.3352
 20
944.72800000000007
 11
1471.3941
 21
951.97250000000008
  0
LINE
  8
_0-2_LAYER004
  6
CONTINUOUS
 62
    2
 10
1471.3941
 20
951.97250000000008
 11
1476.6974
 21
946.66920000000005
  0
LINE
  8
_0-2_LAYER004
  6
CONTINUOUS
 62
    2
 10
1471.3941
 20
951.97250000000008
 11
1508.8566999999998
 21
887.08529999999996
  0
LINE
  8
_0-2_LAYER004
  6
CONTINUOUS
 62
    2
 10
1508.8566999999998
 20
887.08529999999996
 11
1568.8566999999998
 21
887.08529999999996
  0
LINE
  8
_0-0_LAYER001
  6
CONTINUOUS
 62
    2
 10
1063.4983999999999
 20
982.04510000000005
 11
1063.4983999999999
 21
989.54510000000005
  0
LINE
  8
_0-0_LAYER001
  6
CONTINUOUS
 62
    2
 10
1063.4983999999999
 20
989.54510000000005
 11
1067.2483999999999
 21
983.04989999999998
  0
LINE
  8
_0-0_LAYER001
  6
CONTINUOUS
 62
    2
 10
1063.4983999999999
 20
989.54510000000005
 11
1161.2698
 21
624.65740000000005
  0
LINE
  8
_0-2_LAYER004
  6
CONTINUOUS
 62
    2
 10
840.74279999999999
 20
1002.4521
 11
1773.5124000000001
 21
1002.4521
  0
LINE
  8
_0-2_LAYER004
  6
CONTINUOUS
 62
    2
 10
840.74279999999999
 20
987.45209999999997
 11
1773.5124000000001
 21
987.45209999999997
  0
LINE
  8
_0-2_LAYER004
  6
CONTINUOUS
 62
    2
 10
1773.5124000000001
 20
1002.4521
 11
1773.5124000000001
 21
987.45209999999997
  0
LINE
  8
_0-2_LAYER004
  6
CONTINUOUS
 62
    2
 10
1778.7874000000002
 20
985.36249999999995
 11
1778.7874000000002
 21
1002.4521
  0
LINE
  8
_0-2_LAYER004
  6
CONTINUOUS
 62
    2
 10
1778.7874000000002
 20
1002.4521
 11
1799.3314
 21
1002.4521
  0
LINE
  8
_0-2_LAYER004
  6
CONTINUOUS
 62
    2
 10
1869.6628000000001
 20
980.49050000000011
 11
840.74279999999999
 21
980.49050000000011
  0
LINE
  8
_0-2_LAYER004
  6
CONTINUOUS
 62
    2
 10
1778.7874000000002
 20
985.36249999999995
 11
1863.6707999999999
 21
985.36249999999995
  0
LINE
  8
_0-2_LAYER004
  6
DASHED3
 62
    2
 10
1867.3398000000002
 20
982.98749999999995
 11
840.74279999999999
 21
982.98749999999995
  0
LINE
  8
_0-2_LAYER004
  6
CONTINUOUS
 62
    2
 10
1772.1279
 20
1120.2485999999999
 11
1769.4249
 21
1135.0026
  0
LINE
  8
_0-2_LAYER004
  6
CONTINUOUS
 62
    2
 10
1769.4249
 20
1135.0026
 11
1857.9529000000002
 21
1151.2185999999999
  0
LINE
  8
_0-2_LAYER004
  6
CONTINUOUS
 62
    2
 10
1857.9529000000002
 20
1151.2185999999999
 11
1860.6549
 21
1136.4636
  0
LINE
  8
_0-2_LAYER004
  6
CONTINUOUS
 62
    2
 10
1860.6549
 20
1136.4636
 11
1772.1279
 21
1120.2485999999999
  0
LINE
  8
_0-2_LAYER004
  6
CONTINUOUS
 62
    2
 10
1769.4249
 20
1135.0026
 11
1860.6549
 21
1136.4636
  0
LINE
  8
_0-2_LAYER004
  6
CONTINUOUS
 62
    2
 10
1754.6939000000002
 20
1134.2467999999999
 11
1754.1459
 21
1116.1677999999999
  0
LINE
  8
_0-2_LAYER004
  6
CONTINUOUS
 62
    2
 10
1844.6628000000001
 20
1270.6425999999999
 11
1844.6628000000001
 21
1474.3454999999999
  0
LINE
  8
_0-2_LAYER004
  6
CONTINUOUS
 62
    2
 10
1754.6939000000002
 20
1134.2467999999999
 11
1844.2078000000001
 21
1150.6425999999999
  0
LINE
  8
_0-2_LAYER004
  6
CONTINUOUS
 62
    2
 10
1844.2078000000001
 20
1150.6425999999999
 11
1844.2078000000001
 21
1250.6425999999999
  0
LINE
  8
_0-2_LAYER004
  6
DASHED3
 62
    2
 10
1867.3398000000002
 20
982.98749999999995
 11
1867.3398000000002
 21
1230.4905000000001
  0
LINE
  8
_0-4_LAYER007
  6
CONTINUOUS
 62
    2
 10
1844.6628000000001
 20
1331.9645
 11
1988.0408000000002
 21
1475.3424999999997
  0
LINE
  8
_0-4_LAYER007
  6
CONTINUOUS
 62
    2
 10
1844.6628000000001
 20
1320.6504999999997
 11
1988.0408000000002
 21
1464.0284999999999
  0
LINE
  8
_0-4_LAYER007
  6
CONTINUOUS
 62
    2
 10
1844.6628000000001
 20
1309.3375000000001
 11
1988.0408000000002
 21
1452.7154999999998
  0
LINE
  8
_0-2_LAYER004
  6
CONTINUOUS
 62
    2
 10
1863.6707999999999
 20
1095.3507
 11
1863.6707999999999
 21
985.36249999999995
  0
LINE
  8
_0-2_LAYER004
  6
CONTINUOUS
 62
    2
 10
1869.6628000000001
 20
1270.6425999999999
 11
1869.6628000000001
 21
940.49050000000011
  0
LINE
  8
_0-4_LAYER007
  6
CONTINUOUS
 62
    2
 10
840.74279999999999
 20
810.49050000000011
 11
1869.6628000000001
 21
810.49050000000011
  0
LINE
  8
_0-4_LAYER007
  6
CONTINUOUS
 62
    2
 10
1046.1207999999999
 20
940.49050000000011
 11
916.12079999999992
 21
810.49050000000011
  0
LINE
  8
_0-4_LAYER007
  6
CONTINUOUS
 62
    2
 10
1023.4928
 20
940.49050000000011
 11
893.49279999999999
 21
810.49050000000011
  0
LINE
  8
_0-4_LAYER007
  6
CONTINUOUS
 62
    2
 10
1034.8068000000001
 20
940.49050000000011
 11
904.80680000000007
 21
810.49050000000011
  0
LINE
  8
_0-4_LAYER007
  6
CONTINUOUS
 62
    2
 10
1455.7507999999998
 20
940.49050000000011
 11
1325.7508000000003
 21
810.49050000000011
  0
LINE
  8
_0-4_LAYER007
  6
CONTINUOUS
 62
    2
 10
1467.0648000000001
 20
940.49050000000011
 11
1337.0648000000001
 21
810.49050000000011
  0
LINE
  8
_0-4_LAYER007
  6
CONTINUOUS
 62
    2
 10
1478.3778000000002
 20
940.49050000000011
 11
1348.3778000000002
 21
810.49050000000011
  0
CIRCLE
  8
_0-3_LAYER005
  6
CONTINUOUS
 62
    2
 10
1792.9528
 20
1065.7867000000001
 40
1.1619999999999999
  0
CIRCLE
  8
_0-3_LAYER005
  6
CONTINUOUS
 62
    2
 10
1801.1707999999999
 20
1065.7867000000001
 40
1.1619999999999999
  0
CIRCLE
  8
_0-3_LAYER005
  6
CONTINUOUS
 62
    2
 10
1788.0228000000002
 20
1059.7645
 40
1.1619999999999999
  0
CIRCLE
  8
_0-3_LAYER005
  6
CONTINUOUS
 62
    2
 10
1797.8838000000001
 20
1063.8724999999999
 40
1.1619999999999999
  0
CIRCLE
  8
_0-3_LAYER005
  6
CONTINUOUS
 62
    2
 10
1775.6958
 20
1056.4765
 40
1.1619999999999999
  0
CIRCLE
  8
_0-3_LAYER005
  6
CONTINUOUS
 62
    2
 10
1774.6032
 20
1034.6623
 40
1.1619999999999999
  0
CIRCLE
  8
_0-3_LAYER005
  6
CONTINUOUS
 62
    2
 10
1821.6329000000001
 20
1044.7068999999999
 40
1.1619999999999999
  0
CIRCLE
  8
_0-3_LAYER005
  6
CONTINUOUS
 62
    2
 10
1802.1122999999998
 20
1040.9260999999999
 40
1.1619999999999999
  0
CIRCLE
  8
_0-3_LAYER005
  6
CONTINUOUS
 62
    2
 10
1774.8737999999998
 20
1048.2594999999999
 40
1.1619999999999999
  0
CIRCLE
  8
_0-3_LAYER005
  6
CONTINUOUS
 62
    2
 10
1780.6268
 20
1044.1505
 40
1.1619999999999999
  0
CIRCLE
  8
_0-3_LAYER005
  6
CONTINUOUS
 62
    2
 10
1789.6658000000002
 20
1046.6155000000001
 40
1.1619999999999999
  0
CIRCLE
  8
_0-3_LAYER005
  6
CONTINUOUS
 62
    2
 10
1811.8537999999999
 20
1053.1895
 40
1.1619999999999999
  0
CIRCLE
  8
_0-3_LAYER005
  6
CONTINUOUS
 62
    2
 10
1815.1408000000001
 20
1060.5854999999999
 40
1.1619999999999999
  0
CIRCLE
  8
_0-3_LAYER005
  6
CONTINUOUS
 62
    2
 10
1824.1797999999999
 20
1065.5165
 40
1.1619999999999999
  0
CIRCLE
  8
_0-3_LAYER005
  6
CONTINUOUS
 62
    2
 10
1831.2568999999999
 20
1056.9121
 40
1.1619999999999999
  0
CIRCLE
  8
_0-3_LAYER005
  6
CONTINUOUS
 62
    2
 10
1815.9627999999998
 20
1064.9657
 40
1.1619999999999999
  0
CIRCLE
  8
_0-3_LAYER005
  6
CONTINUOUS
 62
    2
 10
1827.4668000000001
 20
1073.1827000000001
 40
1.1619999999999999
  0
CIRCLE
  8
_0-3_LAYER005
  6
CONTINUOUS
 62
    2
 10
1825.8238000000001
 20
1075.6487
 40
1.1619999999999999
  0
CIRCLE
  8
_0-3_LAYER005
  6
CONTINUOUS
 62
    2
 10
1833.2197999999999
 20
1079.7566999999999
 40
1.1619999999999999
  0
CIRCLE
  8
_0-3_LAYER005
  6
CONTINUOUS
 62
    2
 10
1835.6848
 20
1087.9747
 40
1.1619999999999999
  0
CIRCLE
  8
_0-3_LAYER005
  6
CONTINUOUS
 62
    2
 10
1797.6233999999999
 20
1091.3796
 40
1.1619999999999999
  0
CIRCLE
  8
_0-3_LAYER005
  6
CONTINUOUS
 62
    2
 10
1788.5844000000002
 20
1096.3106
 40
1.1619999999999999
  0
CIRCLE
  8
_0-3_LAYER005
  6
CONTINUOUS
 62
    2
 10
1786.1194
 20
1093.8456000000001
 40
1.1619999999999999
  0
CIRCLE
  8
_0-3_LAYER005
  6
CONTINUOUS
 62
    2
 10
1792.6934000000001
 20
1091.3796
 40
1.1619999999999999
  0
CIRCLE
  8
_0-3_LAYER005
  6
CONTINUOUS
 62
    2
 10
1802.9092000000001
 20
1093.5778
 40
1.1619999999999999
  0
CIRCLE
  8
_0-3_LAYER005
  6
CONTINUOUS
 62
    2
 10
1809.4832000000001
 20
1092.7568000000001
 40
1.1619999999999999
  0
CIRCLE
  8
_0-3_LAYER005
  6
CONTINUOUS
 62
    2
 10
1817.4157
 20
1095.0310999999999
 40
1.1619999999999999
  0
CIRCLE
  8
_0-3_LAYER005
  6
CONTINUOUS
 62
    2
 10
1825.6336999999999
 20
1095.8531
 40
1.1619999999999999
  0
CIRCLE
  8
_0-3_LAYER005
  6
CONTINUOUS
 62
    2
 10
1831.6948000000002
 20
1098.5503000000001
 40
1.1619999999999999
  0
CIRCLE
  8
_0-3_LAYER005
  6
CONTINUOUS
 62
    2
 10
1833.3388
 20
1092.7982999999999
 40
1.1619999999999999
  0
CIRCLE
  8
_0-3_LAYER005
  6
CONTINUOUS
 62
    2
 10
1828.2887999999998
 20
1104.4096999999999
 40
1.1619999999999999
  0
CIRCLE
  8
_0-3_LAYER005
  6
CONTINUOUS
 62
    2
 10
1811.7719000000002
 20
1036.4889000000001
 40
1.1619999999999999
  0
CIRCLE
  8
_0-3_LAYER005
  6
CONTINUOUS
 62
    2
 10
1799.6462999999999
 20
1035.9951000000001
 40
1.1619999999999999
  0
CIRCLE
  8
_0-3_LAYER005
  6
CONTINUOUS
 62
    2
 10
1791.3098
 20
1058.3906999999999
 40
1.1619999999999999
  0
CIRCLE
  8
_0-3_LAYER005
  6
CONTINUOUS
 62
    2
 10
1805.2797999999998
 20
1066.3385000000001
 40
1.1619999999999999
  0
CIRCLE
  8
_0-3_LAYER005
  6
CONTINUOUS
 62
    2
 10
1781.4477999999999
 20
1060.0346999999999
 40
1.1619999999999999
  0
CIRCLE
  8
_0-3_LAYER005
  6
CONTINUOUS
 62
    2
 10
1817.5239000000001
 20
1047.1719000000001
 40
1.1619999999999999
  0
CIRCLE
  8
_0-3_LAYER005
  6
CONTINUOUS
 62
    2
 10
1777.8901999999998
 20
1037.1283000000001
 40
1.1619999999999999
  0
CIRCLE
  8
_0-3_LAYER005
  6
CONTINUOUS
 62
    2
 10
1800.3488000000002
 20
1048.2594999999999
 40
1.1619999999999999
  0
CIRCLE
  8
_0-3_LAYER005
  6
CONTINUOUS
 62
    2
 10
1796.2397999999998
 20
1058.9425000000001
 40
1.1619999999999999
  0
CIRCLE
  8
_0-3_LAYER005
  6
CONTINUOUS
 62
    2
 10
1806.1008000000002
 20
1060.5854999999999
 40
1.1619999999999999
  0
CIRCLE
  8
_0-3_LAYER005
  6
CONTINUOUS
 62
    2
 10
1814.3188
 20
1064.6945000000001
 40
1.1619999999999999
  0
CIRCLE
  8
_0-3_LAYER005
  6
CONTINUOUS
 62
    2
 10
1823.3578000000002
 20
1070.4475
 40
1.1619999999999999
  0
CIRCLE
  8
_0-3_LAYER005
  6
CONTINUOUS
 62
    2
 10
1823.3578000000002
 20
1061.6786999999999
 40
1.1619999999999999
  0
CIRCLE
  8
_0-3_LAYER005
  6
CONTINUOUS
 62
    2
 10
1823.3578000000002
 20
1067.4306999999999
 40
1.1619999999999999
  0
CIRCLE
  8
_0-3_LAYER005
  6
CONTINUOUS
 62
    2
 10
1842.0891999999999
 20
1073.4884
 40
1.1619999999999999
  0
CIRCLE
  8
_0-3_LAYER005
  6
CONTINUOUS
 62
    2
 10
1838.6518999999998
 20
1064.5782999999999
 40
1.1619999999999999
  0
CIRCLE
  8
_0-3_LAYER005
  6
CONTINUOUS
 62
    2
 10
1833.7219
 20
1064.5782999999999
 40
1.1619999999999999
  0
CIRCLE
  8
_0-3_LAYER005
  6
CONTINUOUS
 62
    2
 10
1815.0589
 20
1040.5979
 40
1.1619999999999999
  0
CIRCLE
  8
_0-3_LAYER005
  6
CONTINUOUS
 62
    2
 10
1781.1772000000001
 20
1031.1051
 40
1.1619999999999999
  0
CIRCLE
  8
_0-3_LAYER005
  6
CONTINUOUS
 62
    2
 10
1806.1008000000002
 20
1060.8567
 40
1.1619999999999999
  0
CIRCLE
  8
_0-3_LAYER005
  6
CONTINUOUS
 62
    2
 10
1783.9137999999998
 20
1060.8567
 40
1.1619999999999999
  0
LINE
  8
_0-0_LAYER001
  6
CONTINUOUS
 62
    2
 10
1046.7331999999999
 20
727.93830000000003
 11
1046.7331999999999
 21
780.43830000000003
  0
CIRCLE
  8
_0-0_LAYER001
  6
CONTINUOUS
 62
    2
 10
1046.7331999999999
 20
730.43830000000003
 40
1.6999999999999997
  0
LINE
  8
_0-0_LAYER001
  6
CONTINUOUS
 62
    2
 10
1046.7331999999999
 20
730.43830000000003
 11
1301.7331999999999
 21
730.43830000000003
  0
CIRCLE
  8
_0-0_LAYER001
  6
CONTINUOUS
 62
    2
 10
1301.7331999999999
 20
730.43830000000003
 40
1.6999999999999997
  0
LINE
  8
_0-0_LAYER001
  6
CONTINUOUS
 62
    2
 10
1301.7331999999999
 20
727.93830000000003
 11
1301.7331999999999
 21
780.43830000000003
  0
CIRCLE
  8
_0-0_LAYER001
  6
CONTINUOUS
 62
    2
 10
1301.7331999999999
 20
730.43830000000003
 40
1.6999999999999997
  0
LINE
  8
_0-0_LAYER001
  6
CONTINUOUS
 62
    2
 10
1301.7331999999999
 20
730.43830000000003
 11
1556.7332000000001
 21
730.43830000000003
  0
CIRCLE
  8
_0-0_LAYER001
  6
CONTINUOUS
 62
    2
 10
1556.7332000000001
 20
730.43830000000003
 40
1.6999999999999997
  0
LINE
  8
_0-0_LAYER001
  6
CONTINUOUS
 62
    2
 10
1556.7332000000001
 20
727.93830000000003
 11
1556.7332000000001
 21
780.43830000000003
  0
CIRCLE
  8
_0-0_LAYER001
  6
CONTINUOUS
 62
    2
 10
1556.7332000000001
 20
730.43830000000003
 40
1.6999999999999997
  0
LINE
  8
_0-0_LAYER001
  6
CONTINUOUS
 62
    2
 10
1556.7332000000001
 20
730.43830000000003
 11
1851.7332000000001
 21
730.43830000000003
  0
CIRCLE
  8
_0-0_LAYER001
  6
CONTINUOUS
 62
    2
 10
1851.7332000000001
 20
730.43830000000003
 40
1.6999999999999997
  0
LINE
  8
_0-0_LAYER001
  6
CONTINUOUS
 62
    2
 10
1851.7332000000001
 20
727.93830000000003
 11
1851.7332000000001
 21
780.43830000000003
  0
ARC
  8
_0-0_LAYER001
  6
CONTINUOUS
 62
    4
 10
975.24260000000004
 20
1217.7792999999999
 40
214.38050999999999
 50
231.7756
 51
268.38173
  0
ARC
  8
_0-0_LAYER001
  6
CONTINUOUS
 62
    4
 10
1029.7118
 20
1034.2768000000001
 40
52.178303999999997
 50
215.53766999999999
 51
234.46232000000001
  0
ARC
  8
_0-0_LAYER001
  6
CONTINUOUS
 62
    4
 10
1003.3831
 20
996.57300000000009
 40
6.2695089999999993
 50
234.10575000000003
 51
303.29033000000004
  0
ARC
  8
_0-0_LAYER001
  6
CONTINUOUS
 62
    4
 10
971.92229999999995
 20
1040.579
 40
58.841383
 50
213.2508
 51
234.31144
  0
ARC
  8
_0-0_LAYER001
  6
CONTINUOUS
 62
    4
 10
942.0467000000001
 20
999.4217000000001
 40
7.947610000000001
 50
234.52014000000003
 51
301.23766000000001
  0
ARC
  8
_0-0_LAYER001
  6
CONTINUOUS
 62
    4
 10
925.54520000000002
 20
1031.8910000000001
 40
44.132803000000003
 50
297.62160999999998
 51
318.23129999999998
  0
ARC
  8
_0-0_LAYER001
  6
CONTINUOUS
 62
    4
 10
975.24260000000004
 20
1217.7792999999999
 40
199.38050999999999
 50
231.7756
 51
268.38173
  0
ARC
  8
_0-0_LAYER001
  6
CONTINUOUS
 62
    4
 10
975.24260000000004
 20
1217.7792999999999
 40
199.38050999999999
 50
231.7756
 51
268.38173
  0
ARC
  8
_0-0_LAYER001
  6
CONTINUOUS
 62
    4
 10
975.24260000000004
 20
1217.7792999999999
 40
197.38050999999999
 50
231.7756
 51
268.38173
  0
ARC
  8
_0-0_LAYER001
  6
CONTINUOUS
 62
    4
 10
975.24260000000004
 20
1217.7792999999999
 40
182.38050999999999
 50
231.7756
 51
268.38173
  0
ARC
  8
_0-0_LAYER001
  6
CONTINUOUS
 62
    4
 10
975.24260000000004
 20
1217.7792999999999
 40
214.38050999999999
 50
231.7756
 51
268.38173
  0
ARC
  8
_0-0_LAYER001
  6
CONTINUOUS
 62
    4
 10
836.6567
 20
1040.3862999999999
 40
27.732966999999999
 50
54.176177000000003
 51
81.527349999999998
  0
ARC
  8
_0-0_LAYER001
  6
CONTINUOUS
 62
    4
 10
837.00459999999998
 20
1042.6596999999999
 40
40.679594999999999
 50
51.535313000000002
 51
84.727438000000006
  0
ARC
  8
_0-0_LAYER001
  6
CONTINUOUS
 62
    4
 10
836.6431
 20
1039.8884
 40
26.213477999999995
 50
54.56426900000001
 51
81.002194000000003
  0
ARC
  8
_0-0_LAYER001
  6
CONTINUOUS
 62
    4
 10
837.15390000000002
 20
1037.4269999999999
 40
13.076713
 50
65.553432000000001
 51
74.070777000000007
  0
ARC
  8
_0-0_LAYER001
  6
CONTINUOUS
 62
    4
 10
951.85410000000002
 20
1034.3941
 40
69.674484000000007
 50
321.65733
 51
337.34946000000002
  0
ARC
  8
_0-0_LAYER001
  6
CONTINUOUS
 62
    4
 10
965.69900000000007
 20
1310.6665
 40
307.27562
 50
270.90795000000003
 51
293.21983
  0
ARC
  8
_0-0_LAYER001
  6
CONTINUOUS
 62
    4
 10
965.69900000000007
 20
1310.6665
 40
275.27562
 50
270.90795000000003
 51
287.11988000000002
  0
ARC
  8
_0-0_LAYER001
  6
CONTINUOUS
 62
    4
 10
965.69900000000007
 20
1310.6665
 40
292.27562
 50
270.90795000000003
 51
292.69346000000002
  0
LINE
  8
_0-0_LAYER001
  6
CONTINUOUS
 62
    4
 10
1078.4592
 20
1043.443
 11
1078.4592
 21
1041.0183
  0
LINE
  8
_0-0_LAYER001
  6
CONTINUOUS
 62
    4
 10
1086.8454999999999
 20
1028.2806
 11
1086.8454999999999
 21
1046.5879
  0
LINE
  8
_0-0_LAYER001
  6
CONTINUOUS
 62
    4
 10
1078.4592
 20
1043.443
 11
1086.8454999999999
 21
1046.5879
  0
ARC
  8
_0-0_LAYER001
  6
CONTINUOUS
 62
    4
 10
965.69900000000007
 20
1310.6665
 40
290.27562
 50
270.90795000000003
 51
286.23334
  0
LINE
  8
_0-0_LAYER001
  6
CONTINUOUS
 62
    4
 10
1046.8454999999999
 20
1031.9639
 11
1046.8454999999999
 21
1047.623
  0
ARC
  8
_0-0_LAYER001
  6
CONTINUOUS
 62
    4
 10
1230.1295
 20
1217.3829000000001
 40
214.38050999999999
 50
231.7756
 51
268.38173
  0
LINE
  8
_0-0_LAYER001
  6
CONTINUOUS
 62
    4
 10
1050.7379000000001
 20
1032.9776999999999
 11
1086.9278999999999
 21
1049.1339
  0
ARC
  8
_0-0_LAYER001
  6
CONTINUOUS
 62
    4
 10
1284.5987
 20
1033.8804
 40
52.178303999999997
 50
215.53766999999999
 51
234.46232000000001
  0
ARC
  8
_0-0_LAYER001
  6
CONTINUOUS
 62
    4
 10
1258.27
 20
996.17660000000001
 40
6.2695089999999993
 50
234.10575000000003
 51
303.29033000000004
  0
ARC
  8
_0-0_LAYER001
  6
CONTINUOUS
 62
    4
 10
1226.8092999999999
 20
1040.1827000000001
 40
58.841383
 50
213.2508
 51
234.31144
  0
ARC
  8
_0-0_LAYER001
  6
CONTINUOUS
 62
    4
 10
1196.9336000000001
 20
999.02530000000002
 40
7.947610000000001
 50
234.52014000000003
 51
301.23766000000001
  0
ARC
  8
_0-0_LAYER001
  6
CONTINUOUS
 62
    4
 10
1180.4321
 20
1031.4946
 40
44.132803000000003
 50
297.62160999999998
 51
318.23129999999998
  0
LINE
  8
_0-0_LAYER001
  6
CONTINUOUS
 62
    4
 10
1050.7379000000001
 20
1031.5578
 11
1046.7325000000001
 21
1029.6758
  0
LINE
  8
_0-0_LAYER001
  6
CONTINUOUS
 62
    4
 10
1050.7379000000001
 20
1032.9776999999999
 11
1050.7379000000001
 21
1031.5578
  0
LINE
  8
_0-0_LAYER001
  6
CONTINUOUS
 62
    4
 10
1050.2122999999999
 20
1049.7216000000001
 11
1046.8494000000001
 21
1048.3954000000001
  0
LINE
  8
_0-0_LAYER001
  6
CONTINUOUS
 62
    4
 10
1050.2122999999999
 20
1051.2103
 11
1050.2122999999999
 21
1049.7216000000001
  0
ARC
  8
_0-0_LAYER001
  6
CONTINUOUS
 62
    4
 10
1230.1295
 20
1217.3829000000001
 40
199.38050999999999
 50
231.7756
 51
268.38173
  0
ARC
  8
_0-0_LAYER001
  6
CONTINUOUS
 62
    4
 10
1230.1295
 20
1217.3829000000001
 40
199.38050999999999
 50
231.7756
 51
268.38173
  0
ARC
  8
_0-0_LAYER001
  6
CONTINUOUS
 62
    4
 10
1230.1295
 20
1217.3829000000001
 40
197.38050999999999
 50
231.7756
 51
268.38173
  0
LINE
  8
_0-0_LAYER001
  6
CONTINUOUS
 62
    4
 10
1050.4673
 20
1051.4347
 11
1080.7473
 21
1065.4820999999999
  0
LINE
  8
_0-0_LAYER001
  6
CONTINUOUS
 62
    4
 10
1081.9958999999999
 20
1063.9213
 11
1047.3457000000001
 21
1048.3131000000001
  0
ARC
  8
_0-0_LAYER001
  6
CONTINUOUS
 62
    4
 10
1230.1295
 20
1217.3829000000001
 40
182.38050999999999
 50
231.7756
 51
268.38173
  0
LINE
  8
_0-0_LAYER001
  6
CONTINUOUS
 62
    4
 10
1046.7325000000001
 20
1029.6758
 11
1046.7325000000001
 21
1066.2375999999999
  0
LINE
  8
_0-0_LAYER001
  6
CONTINUOUS
 62
    4
 10
1046.7325000000001
 20
1066.2375999999999
 11
1074.4347
 21
1079.0891999999999
  0
ARC
  8
_0-0_LAYER001
  6
CONTINUOUS
 62
    4
 10
1230.1295
 20
1217.3829000000001
 40
214.38050999999999
 50
231.7756
 51
268.38173
  0
ARC
  8
_0-0_LAYER001
  6
CONTINUOUS
 62
    4
 10
1091.5436
 20
1039.9899
 40
27.732966999999999
 50
54.176177000000003
 51
112.93031000000001
  0
ARC
  8
_0-0_LAYER001
  6
CONTINUOUS
 62
    4
 10
1091.8915
 20
1042.2633000000001
 40
40.679594999999999
 50
51.535313000000002
 51
115.27963000000001
  0
ARC
  8
_0-0_LAYER001
  6
CONTINUOUS
 62
    4
 10
1091.5300999999999
 20
1039.492
 40
26.213477999999995
 50
54.56426900000001
 51
111.2666
  0
ARC
  8
_0-0_LAYER001
  6
CONTINUOUS
 62
    4
 10
1092.0409
 20
1037.0306
 40
13.076713
 50
65.553432000000001
 51
112.83269999999999
  0
ARC
  8
_0-0_LAYER001
  6
CONTINUOUS
 62
    4
 10
1206.741
 20
1033.9976999999999
 40
69.674484000000007
 50
321.65733
 51
337.34946000000002
  0
ARC
  8
_0-0_LAYER001
  6
CONTINUOUS
 62
    4
 10
1220.5859
 20
1310.2701999999999
 40
307.27562
 50
270.90795000000003
 51
293.21983
  0
ARC
  8
_0-0_LAYER001
  6
CONTINUOUS
 62
    4
 10
1220.5859
 20
1310.2701999999999
 40
275.27562
 50
270.90795000000003
 51
287.11988000000002
  0
ARC
  8
_0-0_LAYER001
  6
CONTINUOUS
 62
    4
 10
1220.5859
 20
1310.2701999999999
 40
292.27562
 50
270.90795000000003
 51
292.69346000000002
  0
ARC
  8
_0-0_LAYER001
  6
CONTINUOUS
 62
    4
 10
1220.5859
 20
1310.2701999999999
 40
290.27562
 50
270.90795000000003
 51
286.23334
  0
ARC
  8
_0-0_LAYER001
  6
CONTINUOUS
 62
    4
 10
1484.7654000000002
 20
1219.8191999999999
 40
214.38050999999999
 50
231.7756
 51
268.38173
  0
LINE
  8
_0-0_LAYER001
  6
CONTINUOUS
 62
    4
 10
1305.3737000000001
 20
1035.414
 11
1341.5636999999997
 21
1051.5702000000001
  0
ARC
  8
_0-0_LAYER001
  6
CONTINUOUS
 62
    4
 10
1539.2345999999998
 20
1036.3167000000001
 40
52.178303999999997
 50
215.53766999999999
 51
234.46232000000001
  0
ARC
  8
_0-0_LAYER001
  6
CONTINUOUS
 62
    4
 10
1512.9058
 20
998.61290000000008
 40
6.2695089999999993
 50
234.10575000000003
 51
303.29033000000004
  0
ARC
  8
_0-0_LAYER001
  6
CONTINUOUS
 62
    4
 10
1481.4450999999999
 20
1042.6189999999999
 40
58.841383
 50
213.2508
 51
234.31144
  0
ARC
  8
_0-0_LAYER001
  6
CONTINUOUS
 62
    4
 10
1451.5693999999999
 20
1001.4616000000001
 40
7.947610000000001
 50
234.52014000000003
 51
301.23766000000001
  0
ARC
  8
_0-0_LAYER001
  6
CONTINUOUS
 62
    4
 10
1435.0679
 20
1033.9309000000001
 40
44.132803000000003
 50
297.62160999999998
 51
318.23129999999998
  0
LINE
  8
_0-0_LAYER001
  6
CONTINUOUS
 62
    4
 10
1305.3737000000001
 20
1033.9940999999999
 11
1301.3683000000001
 21
1032.1121000000001
  0
LINE
  8
_0-0_LAYER001
  6
CONTINUOUS
 62
    4
 10
1305.3737000000001
 20
1035.414
 11
1305.3737000000001
 21
1033.9940999999999
  0
LINE
  8
_0-0_LAYER001
  6
CONTINUOUS
 62
    4
 10
1304.8481999999999
 20
1052.1578999999999
 11
1301.4852000000001
 21
1050.8317
  0
LINE
  8
_0-0_LAYER001
  6
CONTINUOUS
 62
    4
 10
1304.8481999999999
 20
1053.6466
 11
1304.8481999999999
 21
1052.1578999999999
  0
ARC
  8
_0-0_LAYER001
  6
CONTINUOUS
 62
    4
 10
1484.7654000000002
 20
1219.8191999999999
 40
199.38050999999999
 50
231.7756
 51
268.38173
  0
ARC
  8
_0-0_LAYER001
  6
CONTINUOUS
 62
    4
 10
1484.7654000000002
 20
1219.8191999999999
 40
199.38050999999999
 50
231.7756
 51
268.38173
  0
ARC
  8
_0-0_LAYER001
  6
CONTINUOUS
 62
    4
 10
1484.7654000000002
 20
1219.8191999999999
 40
197.38050999999999
 50
231.7756
 51
268.38173
  0
LINE
  8
_0-0_LAYER001
  6
CONTINUOUS
 62
    4
 10
1305.1032
 20
1053.8710000000001
 11
1335.3831
 21
1067.9184
  0
LINE
  8
_0-0_LAYER001
  6
CONTINUOUS
 62
    4
 10
1336.6318000000001
 20
1066.3576
 11
1301.9814999999999
 21
1050.7493999999999
  0
ARC
  8
_0-0_LAYER001
  6
CONTINUOUS
 62
    4
 10
1484.7654000000002
 20
1219.8191999999999
 40
182.38050999999999
 50
231.7756
 51
268.38173
  0
LINE
  8
_0-0_LAYER001
  6
CONTINUOUS
 62
    4
 10
1301.3683000000001
 20
1032.1121000000001
 11
1301.3683000000001
 21
1068.6739
  0
LINE
  8
_0-0_LAYER001
  6
CONTINUOUS
 62
    4
 10
1301.3683000000001
 20
1068.6739
 11
1329.0706
 21
1081.5255
  0
ARC
  8
_0-0_LAYER001
  6
CONTINUOUS
 62
    4
 10
1484.7654000000002
 20
1219.8191999999999
 40
214.38050999999999
 50
231.7756
 51
268.38173
  0
ARC
  8
_0-0_LAYER001
  6
CONTINUOUS
 62
    4
 10
1346.1794
 20
1042.4262000000001
 40
27.732966999999999
 50
54.176177000000003
 51
112.93031000000001
  0
ARC
  8
_0-0_LAYER001
  6
CONTINUOUS
 62
    4
 10
1346.5273
 20
1044.6995999999999
 40
40.679594999999999
 50
51.535313000000002
 51
115.27963000000001
  0
ARC
  8
_0-0_LAYER001
  6
CONTINUOUS
 62
    4
 10
1346.1659
 20
1041.9283
 40
26.213477999999995
 50
54.56426900000001
 51
111.2666
  0
ARC
  8
_0-0_LAYER001
  6
CONTINUOUS
 62
    4
 10
1346.6767
 20
1039.4668999999999
 40
13.076713
 50
65.553432000000001
 51
112.83269999999999
  0
ARC
  8
_0-0_LAYER001
  6
CONTINUOUS
 62
    4
 10
1461.3768
 20
1036.434
 40
69.674484000000007
 50
321.65733
 51
337.34946000000002
  0
ARC
  8
_0-0_LAYER001
  6
CONTINUOUS
 62
    4
 10
1475.2217999999998
 20
1312.7064999999998
 40
307.27562
 50
270.90795000000003
 51
293.21983
  0
ARC
  8
_0-0_LAYER001
  6
CONTINUOUS
 62
    4
 10
1739.6523000000002
 20
1219.8309999999999
 40
214.38050999999999
 50
231.7756
 51
268.38173
  0
LINE
  8
_0-0_LAYER001
  6
CONTINUOUS
 62
    4
 10
1560.2606000000001
 20
1035.4257
 11
1596.4506999999999
 21
1051.5820000000001
  0
ARC
  8
_0-0_LAYER001
  6
CONTINUOUS
 62
    4
 10
1794.1215000000002
 20
1036.3285000000001
 40
52.178303999999997
 50
215.53766999999999
 51
234.46232000000001
  0
ARC
  8
_0-0_LAYER001
  6
CONTINUOUS
 62
    4
 10
1767.7927
 20
998.62470000000008
 40
6.2695089999999993
 50
234.10575000000003
 51
303.29033000000004
  0
ARC
  8
_0-0_LAYER001
  6
CONTINUOUS
 62
    4
 10
1736.3319999999999
 20
1042.6306999999999
 40
58.841383
 50
213.2508
 51
234.31144
  0
ARC
  8
_0-0_LAYER001
  6
CONTINUOUS
 62
    4
 10
1706.4564
 20
1001.4734000000001
 40
7.947610000000001
 50
234.52014000000003
 51
301.23766000000001
  0
ARC
  8
_0-0_LAYER001
  6
CONTINUOUS
 62
    4
 10
1689.9548
 20
1033.9427000000001
 40
44.132803000000003
 50
297.62160999999998
 51
318.23129999999998
  0
LINE
  8
_0-0_LAYER001
  6
CONTINUOUS
 62
    4
 10
1850.5898000000002
 20
1068.2836
 11
1842.8688999999999
 21
1065.2809999999999
  0
LINE
  8
_0-0_LAYER001
  6
CONTINUOUS
 62
    4
 10
1560.2606000000001
 20
1035.4257
 11
1560.2606000000001
 21
1034.0059000000001
  0
LINE
  8
_0-0_LAYER001
  6
CONTINUOUS
 62
    4
 10
1559.7350999999999
 20
1052.1696999999999
 11
1556.3721
 21
1050.8434
  0
LINE
  8
_0-0_LAYER001
  6
CONTINUOUS
 62
    4
 10
1559.7350999999999
 20
1053.6583000000001
 11
1559.7350999999999
 21
1052.1696999999999
  0
ARC
  8
_0-0_LAYER001
  6
CONTINUOUS
 62
    4
 10
1739.6523000000002
 20
1219.8309999999999
 40
199.38050999999999
 50
231.7756
 51
268.38173
  0
ARC
  8
_0-0_LAYER001
  6
CONTINUOUS
 62
    4
 10
1739.6523000000002
 20
1219.8309999999999
 40
199.38050999999999
 50
231.7756
 51
268.38173
  0
ARC
  8
_0-0_LAYER001
  6
CONTINUOUS
 62
    4
 10
1739.6523000000002
 20
1219.8309999999999
 40
197.38050999999999
 50
231.7756
 51
268.38173
  0
LINE
  8
_0-0_LAYER001
  6
CONTINUOUS
 62
    4
 10
1559.9901
 20
1053.8828000000001
 11
1590.27
 21
1067.9302
  0
ARC
  8
_0-0_LAYER001
  6
CONTINUOUS
 62
    4
 10
1739.6523000000002
 20
1219.8309999999999
 40
182.38050999999999
 50
231.7756
 51
268.38173
  0
LINE
  8
_0-0_LAYER001
  6
CONTINUOUS
 62
    4
 10
1556.2552000000001
 20
1068.6856
 11
1583.9575
 21
1081.5372
  0
ARC
  8
_0-0_LAYER001
  6
CONTINUOUS
 62
    4
 10
1739.6523000000002
 20
1219.8309999999999
 40
214.38050999999999
 50
231.7756
 51
268.38173
  0
ARC
  8
_0-0_LAYER001
  6
CONTINUOUS
 62
    4
 10
1601.0663
 20
1042.4380000000001
 40
27.732966999999999
 50
54.176177000000003
 51
112.93031000000001
  0
ARC
  8
_0-0_LAYER001
  6
CONTINUOUS
 62
    4
 10
1601.4142000000002
 20
1044.7113999999999
 40
40.679594999999999
 50
51.535313000000002
 51
115.27963000000001
  0
ARC
  8
_0-0_LAYER001
  6
CONTINUOUS
 62
    4
 10
1601.0527999999999
 20
1041.9401
 40
26.213477999999995
 50
54.56426900000001
 51
111.2666
  0
ARC
  8
_0-0_LAYER001
  6
CONTINUOUS
 62
    4
 10
1601.5636
 20
1039.4786999999999
 40
13.076713
 50
65.553432000000001
 51
112.83269999999999
  0
LINE
  8
_0-0_LAYER001
  6
CONTINUOUS
 62
    4
 10
1811.2552000000001
 20
1034.0155999999999
 11
1811.2552000000001
 21
1049.6747
  0
ARC
  8
_0-0_LAYER001
  6
CONTINUOUS
 62
    4
 10
1730.1087000000002
 20
1312.7181999999998
 40
290.27562
 50
270.90795000000003
 51
294.66739000000001
  0
ARC
  8
_0-0_LAYER001
  6
CONTINUOUS
 62
    4
 10
1730.1087000000002
 20
1312.7181999999998
 40
275.27562
 50
270.90795000000003
 51
294.18137000000002
  0
LINE
  8
_0-0_LAYER001
  6
CONTINUOUS
 62
    4
 10
1842.8688999999999
 20
1065.2809999999999
 11
1842.8688999999999
 21
1061.5971999999999
  0
ARC
  8
_0-0_LAYER001
  6
CONTINUOUS
 62
    4
 10
1730.1087000000002
 20
1312.7181999999998
 40
292.27562
 50
270.90795000000003
 51
294.48746
  0
ARC
  8
_0-0_LAYER001
  6
CONTINUOUS
 62
    4
 10
1716.2637
 20
1036.4457
 40
69.674484000000007
 50
321.65733
 51
337.34946000000002
  0
ARC
  8
_0-0_LAYER001
  6
CONTINUOUS
 62
    4
 10
1730.1087000000002
 20
1312.7181999999998
 40
307.27562
 50
270.90795000000003
 51
293.21983
  0
LINE
  8
_0-0_LAYER001
  6
CONTINUOUS
 62
    4
 10
1851.2552000000001
 20
1030.3323
 11
1851.2552000000001
 21
1068.6856
  0
ARC
  8
_0-0_LAYER001
  6
CONTINUOUS
 62
    4
 10
1475.2217999999998
 20
1312.7064999999998
 40
275.27562
 50
270.90795000000003
 51
287.11988000000002
  0
ARC
  8
_0-0_LAYER001
  6
CONTINUOUS
 62
    4
 10
1475.2217999999998
 20
1312.7064999999998
 40
290.27562
 50
270.90795000000003
 51
286.21008999999998
  0
LINE
  8
_0-0_LAYER001
  6
CONTINUOUS
 62
    4
 10
1556.2552000000001
 20
1033.9709
 11
1556.2552000000001
 21
1068.6856
  0
LINE
  8
_0-0_LAYER001
  6
CONTINUOUS
 62
    4
 10
1560.2606000000001
 20
1034.0059000000001
 11
1556.3683000000001
 21
1032.1768999999999
  0
LINE
  8
_0-0_LAYER001
  6
CONTINUOUS
 62
    4
 10
1556.3683000000001
 20
1032.1768999999999
 11
1556.3683000000001
 21
1049.663
  0
ARC
  8
_0-0_LAYER001
  6
CONTINUOUS
 62
    4
 10
1475.2217999999998
 20
1312.7064999999998
 40
292.27562
 50
270.90795000000003
 51
292.69346000000002
  0
LINE
  8
_0-0_LAYER001
  6
CONTINUOUS
 62
    4
 10
1587.9819000000002
 20
1045.4829999999999
 11
1587.9819000000002
 21
1043.0582999999999
  0
LINE
  8
_0-0_LAYER001
  6
CONTINUOUS
 62
    4
 10
1596.3683000000001
 20
1030.3206
 11
1596.3683000000001
 21
1048.6279
  0
LINE
  8
_0-0_LAYER001
  6
CONTINUOUS
 62
    4
 10
1587.9819000000002
 20
1045.4829999999999
 11
1596.3683000000001
 21
1048.6279
  0
LINE
  8
_0-0_LAYER001
  6
CONTINUOUS
 62
    4
 10
1556.6605
 20
1050.1198999999999
 11
1591.7066
 21
1066.5024000000001
  0
LINE
  8
_0-0_LAYER001
  6
CONTINUOUS
 62
    4
 10
1333.4830999999999
 20
1043.1072999999999
 11
1333.4830999999999
 21
1040.9222
  0
LINE
  8
_0-0_LAYER001
  6
CONTINUOUS
 62
    4
 10
1333.4830999999999
 20
1043.7316000000001
 11
1333.4830999999999
 21
1040.9222
  0
LINE
  8
_0-0_LAYER001
  6
CONTINUOUS
 62
    4
 10
1333.4830999999999
 20
1044.0437999999999
 11
1341.5994000000001
 21
1047.1654000000001
  0
LINE
  8
_0-0_LAYER001
  6
CONTINUOUS
 62
    4
 10
1341.5994000000001
 20
1028.4356
 11
1341.5994000000001
 21
1047.1654000000001
  0
LINE
  8
_0-1_LAYER003
  6
CONTINUOUS
 62
    7
 10
840.74279999999999
 20
1002.4521
 11
1773.5124000000001
 21
1002.4521
  0
LINE
  8
_0-1_LAYER003
  6
CONTINUOUS
 62
    7
 10
1773.5124000000001
 20
1002.4521
 11
1773.5124000000001
 21
987.45209999999997
  0
LINE
  8
_0-1_LAYER003
  6
CONTINUOUS
 62
    7
 10
1773.5124000000001
 20
987.45209999999997
 11
840.74279999999999
 21
987.45209999999997
  0
LINE
  8
_0-1_LAYER003
  6
CONTINUOUS
 62
    7
 10
840.74279999999999
 20
982.98749999999995
 11
1867.3398000000002
 21
982.98749999999995
  0
LINE
  8
_0-1_LAYER003
  6
CONTINUOUS
 62
    7
 10
1867.3398000000002
 20
982.98749999999995
 11
1867.3398000000002
 21
1230.4905000000001
  0
LINE
  8
_0-1_LAYER003
  6
CONTINUOUS
 62
    7
 10
1799.3314
 20
1002.4521
 11
1778.7874000000002
 21
1002.4521
  0
LINE
  8
_0-1_LAYER003
  6
CONTINUOUS
 62
    7
 10
1778.7874000000002
 20
1002.4521
 11
1778.7874000000002
 21
985.36249999999995
  0
LINE
  8
_0-1_LAYER003
  6
CONTINUOUS
 62
    7
 10
1778.7874000000002
 20
985.36249999999995
 11
1860.6830926823452
 21
985.36249999999995
  0
LINE
  8
_0-1_LAYER003
  6
CONTINUOUS
 62
    7
 10
1860.6830926823452
 20
985.36249999999995
 11
1863.6707999999999
 21
985.36249999999995
  0
LINE
  8
_0-1_LAYER003
  6
CONTINUOUS
 62
    7
 10
1863.6707999999999
 20
985.36249999999995
 11
1863.6707999999999
 21
1095.3507
  0
LINE
  8
_0-1_LAYER003
  6
CONTINUOUS
 62
    7
 10
1863.6707999999999
 20
1095.3507
 11
1869.6628000000001
 21
1095.3507
  0
LINE
  8
_0-1_LAYER003
  6
CONTINUOUS
 62
    7
 10
1869.6628000000001
 20
940.49050000000011
 11
840.74279999999999
 21
940.49050000000011
  0
LINE
  8
_0-1_LAYER003
  6
CONTINUOUS
 62
    7
 10
840.74279999999999
 20
980.49050000000011
 11
1869.6628000000001
 21
980.49050000000011
  0
LINE
  8
_0-1_LAYER003
  6
CONTINUOUS
 62
    7
 10
1869.6628000000001
 20
940.49050000000011
 11
1869.6628000000001
 21
1270.6425999999999
  0
LINE
  8
_0-1_LAYER003
  6
CONTINUOUS
 62
    7
 10
1869.2078000000001
 20
1270.6425999999999
 11
1844.6811542749558
 21
1270.6425999999999
  0
LINE
  8
_0-1_LAYER003
  6
CONTINUOUS
 62
    7
 10
1844.6811542749558
 20
1270.6425996653161
 11
1844.6811542749558
 21
1474.3454999999999
  0
LINE
  8
_0-1_LAYER003
  6
CONTINUOUS
 62
    7
 10
1798.2372999999998
 20
1345.5579
 11
1717.2372999999998
 21
1345.5579
  0
LINE
  8
_0-1_LAYER003
  6
CONTINUOUS
 62
    7
 10
1751.6325999999999
 20
1315.1427000000001
 11
1670.6325999999999
 21
1315.1427000000001
  0
LINE
  8
_0-1_LAYER003
  6
CONTINUOUS
 62
    7
 10
1724.9141
 20
1279.5871
 11
1487.0781999999999
 21
1279.5871
  0
LINE
  8
_0-1_LAYER003
  6
CONTINUOUS
 62
    7
 10
1722.6801
 20
1239.4327000000001
 11
1570.1433000000002
 21
1239.4327000000001
  0
LINE
  8
_0-1_LAYER003
  6
CONTINUOUS
 62
    7
 10
1693.6014
 20
1197.5151000000001
 11
1557.5646000000002
 21
1197.5151000000001
  0
LINE
  8
_0-1_LAYER003
  6
CONTINUOUS
 62
    7
 10
1844.2078000000001
 20
1250.6425999999999
 11
1869.2078000000001
 21
1250.6425999999999
  0
LINE
  8
_0-1_LAYER003
  6
CONTINUOUS
 62
    7
 10
1865.1527999999998
 20
1250.6425999999999
 11
1865.1527999999998
 21
1270.6425999999999
  0
LINE
  8
_0-1_LAYER003
  6
CONTINUOUS
 62
    7
 10
1859.6907999999999
 20
1250.6425999999999
 11
1859.6907999999999
 21
1270.6425999999999
  0
LINE
  8
_0-1_LAYER003
  6
CONTINUOUS
 62
    7
 10
1945.9845
 20
1270.6425999999999
 11
1997.6845000000001
 21
1270.6425999999999
  0
LINE
  8
_0-1_LAYER003
  6
CONTINUOUS
 62
    7
 10
1997.6845000000001
 20
1270.6425999999999
 11
1995.9845
 21
1270.6425999999999
  0
LINE
  8
_0-1_LAYER003
  6
CONTINUOUS
 62
    7
 10
1995.9845
 20
1270.6425999999999
 11
1995.9845
 21
980.49050000000011
  0
LINE
  8
_0-1_LAYER003
  6
CONTINUOUS
 62
    7
 10
1945.9845
 20
980.49050000000011
 11
1997.6845000000001
 21
980.49050000000011
  0
LINE
  8
_0-1_LAYER003
  6
CONTINUOUS
 62
    7
 10
1945.9845
 20
1095.3507
 11
1997.6845000000001
 21
1095.3507
  0
LINE
  8
_0-1_LAYER003
  6
CONTINUOUS
 62
    7
 10
1945.9845
 20
1150.6425999999999
 11
1997.6845000000001
 21
1150.6425999999999
  0
LINE
  8
_0-1_LAYER003
  6
CONTINUOUS
 62
    7
 10
2040.5210999999999
 20
1230.4905000000001
 11
2092.2210999999998
 21
1230.4905000000001
  0
LINE
  8
_0-1_LAYER003
  6
CONTINUOUS
 62
    7
 10
1997.6845000000001
 20
1250.6425999999999
 11
1945.9845
 21
1250.6425999999999
  0
LINE
  8
_0-1_LAYER003
  6
CONTINUOUS
 62
    7
 10
2090.5210999999999
 20
1230.4905000000001
 11
2090.5210999999999
 21
980.49050000000011
  0
LINE
  8
_0-1_LAYER003
  6
CONTINUOUS
 62
    7
 10
2040.5210999999999
 20
980.49050000000011
 11
2092.2210999999998
 21
980.49050000000011
  0
LINE
  8
_0-1_LAYER003
  6
CONTINUOUS
 62
    7
 10
1844.2078000000001
 20
1250.6425999999999
 11
1844.2078000000001
 21
1150.6425999999999
  0
LINE
  8
_0-1_LAYER003
  6
CONTINUOUS
 62
    7
 10
1754.2078000000001
 20
1210.4771000000001
 11
1754.2078000000001
 21
1184.82509051277
  0
LINE
  8
_0-1_LAYER003
  6
CONTINUOUS
 62
    7
 10
1754.2078000000001
 20
1208.7771
 11
1844.2078000000001
 21
1208.7771
  0
LINE
  8
_0-1_LAYER003
  6
CONTINUOUS
 62
    7
 10
1839.6628000000001
 20
1132.6185933749027
 11
1839.6628000000001
 21
1095.3507
  0
LINE
  8
_0-1_LAYER003
  6
CONTINUOUS
 62
    7
 10
1839.6628000000001
 20
1095.3507
 11
1863.6707999999999
 21
1095.3507
  0
LINE
  8
_0-1_LAYER003
  6
CONTINUOUS
 62
    7
 10
1845.6626999999999
 20
1118.3507
 11
1845.6626999999999
 21
1112.3507999999999
  0
LINE
  8
_0-1_LAYER003
  6
CONTINUOUS
 62
    7
 10
1845.6626999999999
 20
1112.3507999999999
 11
1869.6628000000001
 21
1112.3507999999999
  0
LINE
  8
_0-1_LAYER003
  6
CONTINUOUS
 62
    7
 10
1869.6628000000001
 20
1118.3507
 11
1845.6626999999999
 21
1118.3507
  0
LINE
  8
_0-1_LAYER003
  6
CONTINUOUS
 62
    7
 10
1869.6628000000001
 20
1119.6007999999999
 11
1887.8627999999999
 21
1119.6007999999999
  0
LINE
  8
_0-1_LAYER003
  6
CONTINUOUS
 62
    7
 10
1869.6628000000001
 20
1111.1007
 11
1887.8627999999999
 21
1111.1007
  0
LINE
  8
_0-1_LAYER003
  6
CONTINUOUS
 62
    7
 10
1853.1986999999999
 20
1135.3507
 11
1869.6628000000001
 21
1135.3507
  0
LINE
  8
_0-1_LAYER003
  6
CONTINUOUS
 62
    7
 10
1906.1961000000001
 20
906.5317
 11
1993.3912
 21
906.5317
  0
LINE
  8
_0-1_LAYER003
  6
CONTINUOUS
 62
    7
 10
1895.2570999999998
 20
860.2360000000001
 11
2129.2570999999998
 21
860.2360000000001
  0
LINE
  8
_0-1_LAYER003
  6
CONTINUOUS
 62
    7
 10
1869.6628000000001
 20
810.49050000000011
 11
840.74279999999999
 21
810.49050000000011
  0
LINE
  8
_0-1_LAYER003
  6
CONTINUOUS
 62
    7
 10
1188.1507999999999
 20
873.53629999999998
 11
1248.1507999999999
 21
873.53629999999998
  0
LINE
  8
_0-1_LAYER003
  6
CONTINUOUS
 62
    7
 10
1248.1507999999999
 20
873.53629999999998
 11
1258.7013617670566
 21
873.53629999999998
  0
LINE
  8
_0-1_LAYER003
  6
CONTINUOUS
 62
    7
 10
1508.8566999999998
 20
887.08529999999996
 11
1583.911879121556
 21
887.08529999999996
  0
LINE
  8
_0-1_LAYER003
  6
CONTINUOUS
 62
    7
 10
1046.7331999999999
 20
780.43830000000003
 11
1046.7331999999999
 21
727.93830000000003
  0
LINE
  8
_0-1_LAYER003
  6
CONTINUOUS
 62
    7
 10
1048.4331999999999
 20
730.43830000000003
 11
1850.0332000000001
 21
730.43830000000003
  0
LINE
  8
_0-1_LAYER003
  6
CONTINUOUS
 62
    7
 10
1851.7332000000001
 20
727.93830000000003
 11
1851.7332000000001
 21
780.43830000000003
  0
LINE
  8
_0-1_LAYER003
  6
CONTINUOUS
 62
    7
 10
1556.7332000000001
 20
728.73829999999998
 11
1556.7332000000001
 21
780.43830000000003
  0
LINE
  8
_0-1_LAYER003
  6
CONTINUOUS
 62
    7
 10
1301.7331999999999
 20
728.73829999999998
 11
1301.7331999999999
 21
778.31706725626134
  0
LINE
  8
_0-1_LAYER003
  6
CONTINUOUS
 62
    7
 10
1153.1502130619367
 20
654.96010000000001
 11
1487.1757912272572
 21
654.96010000000001
  0
LINE
  8
_0-1_LAYER003
  6
CONTINUOUS
 62
    7
 10
1161.2698
 20
624.65740000000005
 11
1422.4626000000001
 21
624.65740000000005
  0
LINE
  8
_0-1_LAYER003
  6
CONTINUOUS
 62
    7
 10
1158.4202
 20
956.93270000000007
 11
1168.4202
 21
956.93270000000007
  0
LINE
  8
_0-1_LAYER003
  6
CONTINUOUS
 62
    7
 10
1168.4202
 20
956.93270000000007
 11
1168.4202
 21
892.91409999999996
  0
LINE
  8
_0-1_LAYER003
  6
CONTINUOUS
 62
    7
 10
1168.4202
 20
892.91409999999996
 11
1137.0501999999999
 21
892.91409999999996
  0
LINE
  8
_0-1_LAYER003
  6
CONTINUOUS
 62
    7
 10
1137.0501999999999
 20
892.91409999999996
 11
1137.0501999999999
 21
902.91409999999996
  0
LINE
  8
_0-1_LAYER003
  6
CONTINUOUS
 62
    7
 10
1137.0501999999999
 20
902.91409999999996
 11
1158.4202
 21
902.91409999999996
  0
LINE
  8
_0-1_LAYER003
  6
CONTINUOUS
 62
    7
 10
1158.4202
 20
902.91409999999996
 11
1158.4202
 21
956.93270000000007
  0
LINE
  8
_0-1_LAYER003
  6
CONTINUOUS
 62
    7
 10
1758.4202
 20
956.93270000000007
 11
1768.4202
 21
956.93270000000007
  0
LINE
  8
_0-1_LAYER003
  6
CONTINUOUS
 62
    7
 10
1768.4202
 20
956.93270000000007
 11
1768.4202
 21
892.91409999999996
  0
LINE
  8
_0-1_LAYER003
  6
CONTINUOUS
 62
    7
 10
1768.4202
 20
892.91409999999996
 11
1737.0502000000001
 21
892.91409999999996
  0
LINE
  8
_0-1_LAYER003
  6
CONTINUOUS
 62
    7
 10
1737.0502000000001
 20
892.91409999999996
 11
1737.0502000000001
 21
902.91409999999996
  0
LINE
  8
_0-1_LAYER003
  6
CONTINUOUS
 62
    7
 10
1737.0502000000001
 20
902.91409999999996
 11
1758.4202
 21
902.91409999999996
  0
LINE
  8
_0-1_LAYER003
  6
CONTINUOUS
 62
    7
 10
1758.4202
 20
902.91409999999996
 11
1758.4202
 21
956.93270000000007
  0
LINE
  8
_0-1_LAYER003
  6
CONTINUOUS
 62
    7
 10
1798.2372999999998
 20
1345.5579
 11
1847.1014
 21
1260.9226000000001
  0
LINE
  8
_0-1_LAYER003
  6
CONTINUOUS
 62
    7
 10
1847.1014
 20
1260.9226000000001
 11
1845.1603
 21
1268.1670999999999
  0
LINE
  8
_0-1_LAYER003
  6
CONTINUOUS
 62
    7
 10
1845.1603
 20
1268.1670999999999
 11
1847.1014
 21
1260.9226000000001
  0
LINE
  8
_0-1_LAYER003
  6
CONTINUOUS
 62
    7
 10
1847.1014
 20
1260.9226000000001
 11
1841.7981
 21
1266.2258999999999
  0
LINE
  8
_0-1_LAYER003
  6
CONTINUOUS
 62
    7
 10
1865.1527999999998
 20
1270.6425999999999
 11
1859.6907999999999
 21
1250.6425999999999
  0
LINE
  8
_0-1_LAYER003
  6
CONTINUOUS
 62
    7
 10
1865.1527999999998
 20
1250.6425999999999
 11
1859.6907999999999
 21
1270.6425999999999
  0
LINE
  8
_0-1_LAYER003
  6
CONTINUOUS
 62
    7
 10
1751.6325999999999
 20
1315.1427000000001
 11
1860.1950000000002
 21
1127.1071999999999
  0
LINE
  8
_0-1_LAYER003
  6
CONTINUOUS
 62
    7
 10
1860.1950000000002
 20
1127.1071999999999
 11
1858.2538
 21
1134.3516
  0
LINE
  8
_0-1_LAYER003
  6
CONTINUOUS
 62
    7
 10
1854.8917000000001
 20
1132.4105
 11
1860.1950000000002
 21
1127.1071999999999
  0
LINE
  8
_0-1_LAYER003
  6
CONTINUOUS
 62
    7
 10
1837.1727999999998
 20
1145.1454000000001
 11
1845.2303144720231
 21
1148.8881571240547
  0
LINE
  8
_0-1_LAYER003
  6
CONTINUOUS
 62
    7
 10
1845.2303144720231
 20
1148.8881571240547
 11
1843.5610999999999
 21
1146.3634999999999
  0
LINE
  8
_0-1_LAYER003
  6
CONTINUOUS
 62
    7
 10
1843.5610999999999
 20
1146.3634999999999
 11
1854.9717000000001
 21
1121.8906999999999
  0
LINE
  8
_0-1_LAYER003
  6
CONTINUOUS
 62
    7
 10
1854.9717000000001
 20
1121.8906999999999
 11
1857.0688
 21
1113.2565
  0
LINE
  8
_0-1_LAYER003
  6
CONTINUOUS
 62
    7
 10
1857.0688
 20
1113.2565
 11
1851.6125000000002
 21
1120.3244
  0
LINE
  8
_0-1_LAYER003
  6
CONTINUOUS
 62
    7
 10
1851.6125000000002
 20
1120.3244
 11
1840.2015999999999
 21
1144.7987000000001
  0
LINE
  8
_0-1_LAYER003
  6
CONTINUOUS
 62
    7
 10
1840.2015999999999
 20
1144.7987000000001
 11
1837.1727999999998
 21
1145.1454000000001
  0
LINE
  8
_0-1_LAYER003
  6
CONTINUOUS
 62
    7
 10
1860.6549
 20
1136.4636
 11
1857.9529000000002
 21
1151.2185999999999
  0
LINE
  8
_0-1_LAYER003
  6
CONTINUOUS
 62
    7
 10
1857.9529000000002
 20
1151.2185999999999
 11
1769.4249
 21
1135.0026
  0
LINE
  8
_0-1_LAYER003
  6
CONTINUOUS
 62
    7
 10
1769.4249
 20
1135.0026
 11
1772.1279
 21
1120.2485999999999
  0
LINE
  8
_0-1_LAYER003
  6
CONTINUOUS
 62
    7
 10
1772.1279
 20
1120.2485999999999
 11
1860.6549
 21
1136.4636
  0
LINE
  8
_0-1_LAYER003
  6
CONTINUOUS
 62
    7
 10
1860.6549
 20
1136.4636
 11
1769.4249
 21
1135.0026
  0
LINE
  8
_0-1_LAYER003
  6
CONTINUOUS
 62
    7
 10
1781.4250000000002
 20
1133.8012000000001
 11
1786.7283000000002
 21
1128.4979000000001
  0
LINE
  8
_0-1_LAYER003
  6
CONTINUOUS
 62
    7
 10
1786.7283000000002
 20
1128.4979000000001
 11
1784.9189140989699
 21
1135.2507284073067
  0
LINE
  8
_0-1_LAYER003
  6
CONTINUOUS
 62
    7
 10
1797.9638
 20
1149.1790000000001
 11
1803.2671
 21
1143.8757000000001
  0
LINE
  8
_0-1_LAYER003
  6
CONTINUOUS
 62
    7
 10
1803.2671
 20
1143.8757000000001
 11
1801.3258999999998
 21
1151.1202000000001
  0
LINE
  8
_0-1_LAYER003
  6
CONTINUOUS
 62
    7
 10
1803.2671
 20
1143.8757000000001
 11
1724.9141
 21
1279.5871
  0
LINE
  8
_0-1_LAYER003
  6
CONTINUOUS
 62
    7
 10
1722.6801
 20
1239.4327000000001
 11
1786.7283000000002
 21
1128.4979000000001
  0
LINE
  8
_0-1_LAYER003
  6
CONTINUOUS
 62
    7
 10
1758.4400000000001
 20
1122.5382999999999
 11
1754.1459
 21
1116.1677999999999
  0
LINE
  8
_0-1_LAYER003
  6
CONTINUOUS
 62
    7
 10
1754.1459
 20
1116.1677999999999
 11
1754.6939000000002
 21
1134.2467999999999
  0
LINE
  8
_0-1_LAYER003
  6
CONTINUOUS
 62
    7
 10
1754.6939000000002
 20
1134.2467999999999
 11
1844.2078000000001
 21
1150.6425999999999
  0
LINE
  8
_0-1_LAYER003
  6
CONTINUOUS
 62
    7
 10
1845.6626999999999
 20
1118.3507
 11
1839.6628000000001
 21
1121.3507999999999
  0
LINE
  8
_0-1_LAYER003
  6
CONTINUOUS
 62
    7
 10
1845.6626999999999
 20
1112.3507999999999
 11
1839.6628000000001
 21
1109.3507
  0
LINE
  8
_0-1_LAYER003
  6
CONTINUOUS
 62
    7
 10
1887.8627999999999
 20
1119.6018999999999
 11
1896.9567000000002
 21
1121.2048
  0
LINE
  8
_0-1_LAYER003
  6
CONTINUOUS
 62
    7
 10
1896.9567000000002
 20
1121.2048
 11
1897.2528000000002
 21
1119.5317
  0
LINE
  8
_0-1_LAYER003
  6
CONTINUOUS
 62
    7
 10
1897.2528000000002
 20
1119.5317
 11
1898.9256999999998
 21
1119.8268
  0
LINE
  8
_0-1_LAYER003
  6
CONTINUOUS
 62
    7
 10
1898.9256999999998
 20
1119.8268
 11
1898.6307000000002
 21
1121.4997000000001
  0
LINE
  8
_0-1_LAYER003
  6
CONTINUOUS
 62
    7
 10
1898.6307000000002
 20
1121.4997000000001
 11
1901.2896999999998
 21
1121.9686999999999
  0
LINE
  8
_0-1_LAYER003
  6
CONTINUOUS
 62
    7
 10
1901.2896999999998
 20
1121.9686999999999
 11
1901.5857999999998
 21
1120.2958000000001
  0
LINE
  8
_0-1_LAYER003
  6
CONTINUOUS
 62
    7
 10
1901.5857999999998
 20
1120.2958000000001
 11
1903.2586999999999
 21
1120.5907999999999
  0
LINE
  8
_0-1_LAYER003
  6
CONTINUOUS
 62
    7
 10
1903.2586999999999
 20
1120.5907999999999
 11
1902.9638
 21
1122.2648999999999
  0
LINE
  8
_0-1_LAYER003
  6
CONTINUOUS
 62
    7
 10
1902.9638
 20
1122.2638999999999
 11
1905.6228000000001
 21
1122.7329
  0
LINE
  8
_0-1_LAYER003
  6
CONTINUOUS
 62
    7
 10
1905.6228000000001
 20
1122.7329
 11
1905.9187000000002
 21
1121.0598
  0
LINE
  8
_0-1_LAYER003
  6
CONTINUOUS
 62
    7
 10
1905.9187000000002
 20
1121.0598
 11
1907.5927999999999
 21
1121.3547000000001
  0
LINE
  8
_0-1_LAYER003
  6
CONTINUOUS
 62
    7
 10
1907.5927999999999
 20
1121.3547000000001
 11
1907.2968999999998
 21
1123.0288
  0
LINE
  8
_0-1_LAYER003
  6
CONTINUOUS
 62
    7
 10
1907.2968999999998
 20
1123.0288
 11
1908.774841138907
 21
1123.2905593242563
  0
LINE
  8
_0-1_LAYER003
  6
CONTINUOUS
 62
    7
 10
1908.774841138907
 20
1123.2905593242563
 11
1910.5068313622894
 21
1122.0798057996453
  0
LINE
  8
_0-1_LAYER003
  6
CONTINUOUS
 62
    7
 10
1910.5118000000002
 20
1122.0737999999999
 11
1910.9117999999999
 21
1119.8077000000001
  0
LINE
  8
_0-1_LAYER003
  6
CONTINUOUS
 62
    7
 10
1910.9117999999999
 20
1119.8077000000001
 11
1885.6388000000002
 21
1115.3517999999999
  0
LINE
  8
_0-1_LAYER003
  6
CONTINUOUS
 62
    7
 10
1885.6388000000002
 20
1115.3517999999999
 11
1910.7366999999999
 21
1110.9258
  0
LINE
  8
_0-1_LAYER003
  6
CONTINUOUS
 62
    7
 10
1910.7366999999999
 20
1110.9258
 11
1910.3337207687455
 21
1108.6676404287878
  0
LINE
  8
_0-1_LAYER003
  6
CONTINUOUS
 62
    7
 10
1910.3388
 20
1108.6609000000001
 11
1908.5999000000002
 21
1107.4448
  0
LINE
  8
_0-1_LAYER003
  6
CONTINUOUS
 62
    7
 10
1908.6051201444229
 20
1107.4484507088575
 11
1907.1228000000001
 21
1107.7048
  0
LINE
  8
_0-1_LAYER003
  6
CONTINUOUS
 62
    7
 10
1907.1228000000001
 20
1107.7048
 11
1907.4178000000002
 21
1109.3788
  0
LINE
  8
_0-1_LAYER003
  6
CONTINUOUS
 62
    7
 10
1907.4178000000002
 20
1109.3788
 11
1905.7438000000002
 21
1109.6737000000001
  0
LINE
  8
_0-1_LAYER003
  6
CONTINUOUS
 62
    7
 10
1905.7438000000002
 20
1109.6737000000001
 11
1905.4488000000001
 21
1108.0008
  0
LINE
  8
_0-1_LAYER003
  6
CONTINUOUS
 62
    7
 10
1905.4488000000001
 20
1108.0008
 11
1902.7896999999998
 21
1108.4698000000001
  0
LINE
  8
_0-1_LAYER003
  6
CONTINUOUS
 62
    7
 10
1902.7896999999998
 20
1108.4698000000001
 11
1903.0848000000001
 21
1110.1428000000001
  0
LINE
  8
_0-1_LAYER003
  6
CONTINUOUS
 62
    7
 10
1903.0848000000001
 20
1110.1428000000001
 11
1901.411869752068
 21
1110.4376290956088
  0
LINE
  8
_0-1_LAYER003
  6
CONTINUOUS
 62
    7
 10
1901.411869752068
 20
1110.4376290956088
 11
1901.1158
 21
1108.7647999999999
  0
LINE
  8
_0-1_LAYER003
  6
CONTINUOUS
 62
    7
 10
1901.1158
 20
1108.7647999999999
 11
1898.4567000000002
 21
1109.2338
  0
LINE
  8
_0-1_LAYER003
  6
CONTINUOUS
 62
    7
 10
1898.4567000000002
 20
1109.2338
 11
1898.7516999999998
 21
1110.9067
  0
LINE
  8
_0-1_LAYER003
  6
CONTINUOUS
 62
    7
 10
1898.7516999999998
 20
1110.9067
 11
1897.0787697421247
 21
1111.2016290394283
  0
LINE
  8
_0-1_LAYER003
  6
CONTINUOUS
 62
    7
 10
1897.0787697421247
 20
1111.2016290394283
 11
1896.7827000000002
 21
1109.5288
  0
LINE
  8
_0-1_LAYER003
  6
CONTINUOUS
 62
    7
 10
1896.7827000000002
 20
1109.5288
 11
1887.8627999999999
 21
1111.1007
  0
LINE
  8
_0-1_LAYER003
  6
CONTINUOUS
 62
    7
 10
1869.6628000000001
 20
1095.3507
 11
1843.1668
 21
1130.6787999999999
  0
LINE
  8
_0-1_LAYER003
  6
CONTINUOUS
 62
    7
 10
1693.6014
 20
1197.5151000000001
 11
1752.0787999999998
 21
1096.2293999999999
  0
LINE
  8
_0-1_LAYER003
  6
CONTINUOUS
 62
    7
 10
1752.0787999999998
 20
1096.2293999999999
 11
1750.1376
 21
1103.4739
  0
LINE
  8
_0-1_LAYER003
  6
CONTINUOUS
 62
    7
 10
1752.0787999999998
 20
1096.2293999999999
 11
1746.7755000000002
 21
1101.5327
  0
ARC
  8
_0-1_LAYER003
  6
CONTINUOUS
 62
    7
 10
1764.8073359924106
 20
1088.7784064124403
 40
8.054329555114597
 50
313.37965264164939
 51
30.915283430561608
  0
ARC
  8
_0-1_LAYER003
  6
CONTINUOUS
 62
    7
 10
1715.3134983338125
 20
1053.3734602480322
 40
54.177117456070974
 50
326.21532107636256
 51
10.675301923637468
  0
LINE
  8
_0-1_LAYER003
  6
CONTINUOUS
 62
    7
 10
1816.1545000000001
 20
1058.6061
 11
1814.2132999999999
 21
1065.8505
  0
LINE
  8
_0-1_LAYER003
  6
CONTINUOUS
 62
    7
 10
1814.2132999999999
 20
1065.8505
 11
1819.5165999999999
 21
1060.5472
  0
LINE
  8
_0-1_LAYER003
  6
CONTINUOUS
 62
    7
 10
1814.2132999999999
 20
1065.8505
 11
1906.1961000000001
 21
906.5317
  0
LINE
  8
_0-1_LAYER003
  6
CONTINUOUS
 62
    7
 10
1824.966670728096
 20
978.22077072809634
 11
1823.0857000000001
 21
985.24039999999991
  0
LINE
  8
_0-1_LAYER003
  6
CONTINUOUS
 62
    7
 10
1823.0857000000001
 20
985.24039999999991
 11
1828.3890000000001
 21
979.9371000000001
  0
LINE
  8
_0-1_LAYER003
  6
CONTINUOUS
 62
    7
 10
1823.0857000000001
 20
985.24039999999991
 11
1895.2570999999998
 21
860.2360000000001
  0
LINE
  8
_0-1_LAYER003
  6
CONTINUOUS
 62
    7
 10
1844.6628000000001
 20
1331.9645
 11
1988.0408000000002
 21
1475.3424999999997
  0
LINE
  8
_0-1_LAYER003
  6
CONTINUOUS
 62
    7
 10
1844.6628000000001
 20
1320.6504999999997
 11
1988.0408000000002
 21
1464.0284999999999
  0
LINE
  8
_0-1_LAYER003
  6
CONTINUOUS
 62
    7
 10
1844.6628000000001
 20
1309.3375000000001
 11
1988.0408000000002
 21
1452.7154999999998
  0
LINE
  8
_0-1_LAYER003
  6
CONTINUOUS
 62
    7
 10
1397.6596
 20
1119.6006
 11
1438.1596
 21
1119.6006
  0
LINE
  8
_0-1_LAYER003
  6
CONTINUOUS
 62
    7
 10
1438.1596
 20
1119.6006
 11
1499.1734000000001
 21
1013.9217000000001
  0
LINE
  8
_0-1_LAYER003
  6
CONTINUOUS
 62
    7
 10
1499.1734000000001
 20
1013.9217000000001
 11
1497.2321999999999
 21
1021.1660999999999
  0
LINE
  8
_0-1_LAYER003
  6
CONTINUOUS
 62
    7
 10
1499.1734000000001
 20
1013.9217000000001
 11
1493.8701000000001
 21
1019.2249999999999
  0
LINE
  8
_0-1_LAYER003
  6
CONTINUOUS
 62
    7
 10
1471.3941
 20
951.97250000000008
 11
1473.3352
 21
944.72800000000007
  0
LINE
  8
_0-1_LAYER003
  6
CONTINUOUS
 62
    7
 10
1471.3941
 20
951.97250000000008
 11
1476.6974
 21
946.66920000000005
  0
LINE
  8
_0-1_LAYER003
  6
CONTINUOUS
 62
    7
 10
1471.3941
 20
951.97250000000008
 11
1508.8566999999998
 21
887.08529999999996
  0
LINE
  8
_0-1_LAYER003
  6
CONTINUOUS
 62
    7
 10
1478.3778000000002
 20
940.49050000000011
 11
1348.3778000000002
 21
810.49050000000011
  0
LINE
  8
_0-1_LAYER003
  6
CONTINUOUS
 62
    7
 10
1337.0648000000001
 20
810.49050000000011
 11
1467.0648000000001
 21
940.49050000000011
  0
LINE
  8
_0-1_LAYER003
  6
CONTINUOUS
 62
    7
 10
1455.7507999999998
 20
940.49050000000011
 11
1325.7508000000003
 21
810.49050000000011
  0
LINE
  8
_0-1_LAYER003
  6
CONTINUOUS
 62
    7
 10
1163.5225
 20
916.19380000000001
 11
1165.4637
 21
908.94929999999999
  0
LINE
  8
_0-1_LAYER003
  6
CONTINUOUS
 62
    7
 10
1163.5225
 20
916.19380000000001
 11
1168.8258000000001
 21
910.89049999999997
  0
LINE
  8
_0-1_LAYER003
  6
CONTINUOUS
 62
    7
 10
1163.5225
 20
916.19380000000001
 11
1188.1507999999999
 21
873.53629999999998
  0
LINE
  8
_0-1_LAYER003
  6
CONTINUOUS
 62
    7
 10
1063.4983999999999
 20
982.04510000000005
 11
1063.4983999999999
 21
989.54510000000005
  0
LINE
  8
_0-1_LAYER003
  6
CONTINUOUS
 62
    7
 10
1063.4983999999999
 20
989.54510000000005
 11
1067.2483999999999
 21
983.04989999999998
  0
LINE
  8
_0-1_LAYER003
  6
CONTINUOUS
 62
    7
 10
1063.4983999999999
 20
989.54510000000005
 11
1161.2698
 21
624.65740000000005
  0
LINE
  8
_0-1_LAYER003
  6
CONTINUOUS
 62
    7
 10
1145.1474788090693
 20
684.82670000000007
 11
1351.0639000000001
 21
684.82670000000007
  0
LINE
  8
_0-1_LAYER003
  6
CONTINUOUS
 62
    7
 10
1048.4331999999999
 20
730.43830000000003
 11
1046.7331999999999
 21
730.43830000000003
  0
LINE
  8
_0-1_LAYER003
  6
CONTINUOUS
 62
    7
 10
893.49280000000022
 20
810.49050000000011
 11
1023.4928
 21
940.49050000000011
  0
LINE
  8
_0-1_LAYER003
  6
CONTINUOUS
 62
    7
 10
904.80680000000007
 20
810.49050000000011
 11
1034.8068000000001
 21
940.49050000000011
  0
LINE
  8
_0-1_LAYER003
  6
CONTINUOUS
 62
    7
 10
916.12079999999992
 20
810.49050000000011
 11
1046.1207999999999
 21
940.49050000000011
  0
ARC
  8
_0-1_LAYER003
  6
CONTINUOUS
 62
    7
 10
1827.3884398004416
 20
1259.2751724393456
 40
20.694356313830934
 50
335.49216312513596
 51
33.319061727640978
  0
LINE
  8
_0-0_LAYER001
  6
CONTINUOUS
 62
    7
 10
1717.2372999999998
 20
1345.5579
 11
1694.909914047422
 21
1345.5579
  0
LINE
  8
_0-0_LAYER001
  6
CONTINUOUS
 62
    7
 10
1487.0781999999999
 20
1279.5871
 11
1389.0034025857165
 21
1279.5871
  0
LINE
  8
_0-0_LAYER001
  6
CONTINUOUS
 62
    7
 10
1397.6596
 20
1119.6006
 11
1370.393120519605
 21
1119.6006
  0
LINE
  8
_0-0_LAYER001
  6
CONTINUOUS
 62
    7
 10
1258.7013617670566
 20
873.53629999999998
 11
1279.6679954473123
 21
873.53629999999998
  0
LINE
  8
_0-0_LAYER001
  6
CONTINUOUS
 62
    7
 10
2129.2570999999998
 20
860.2360000000001
 11
2219.4872397859358
 21
860.2360000000001
  0
LINE
  8
_0-0_LAYER001
  6
CONTINUOUS
 62
    7
 10
1422.4626000000001
 20
624.65740000000005
 11
1479.7285276580092
 21
624.65740000000005
  0
LINE
  8
_0-0_LAYER001
  6
CONTINUOUS
 62
    7
 10
1583.911879121556
 20
887.08529999999996
 11
1601.858503716865
 21
887.08529999999996
  0
LINE
  8
_0-0_LAYER001
  6
CONTINUOUS
 62
    7
 10
1670.6325999999999
 20
1315.1427000000001
 11
1644.8947809947476
 21
1315.1427000000001
  0
TEXT
  8
_0-2_LAYER004
 62
    7
 10
1165.3489253481112
 20
629.67725868376249
 40
20
 41
1
 50
0
  1
パーライト系モルタルｔ＝４０
  0
TEXT
  8
_0-2_LAYER004
 62
    7
 10
1151.3912137985278
 20
693.65010328602023
 40
20
 41
1
 50
0
  1
瓦桟：15x30以上
  0
TEXT
  8
_0-2_LAYER004
 62
    7
 10
1160.6963548315837
 20
662.24525229945743
 40
20
 41
1
 50
0
  1
下葺材：ルーフィング
  0
TEXT
  8
_0-2_LAYER004
 62
    7
 10
1192.1012058181461
 20
880.91606657626585
 40
20
 41
1
 50
0
  1
アンカー
  0
TEXT
  8
_0-2_LAYER004
 62
    7
 10
1508.4760009420395
 20
893.71063549671749
 40
20
 41
1
 50
0
  1
溶接金網
  0
TEXT
  8
_0-2_LAYER004
 62
    7
 10
1686.4368231992294
 20
739.01266582216681
 40
20
 41
1
 50
0
  1
295
  0
TEXT
  8
_0-2_LAYER004
 62
    7
 10
1411.9351627240869
 20
737.84952319303488
 40
20
 41
1
 50
0
  1
255
  0
TEXT
  8
_0-2_LAYER004
 62
    7
 10
1163.0226400898473
 20
741.33895108043077
 40
20
 41
1
 50
0
  1
255
  0
TEXT
  8
_0-2_LAYER004
 62
    7
 10
1898.1287817012462
 20
864.63206976841843
 40
20
 41
1
 50
0
  1
捨谷水切カラー鋼板0.35ｍｍ以上
  0
TEXT
  8
_0-2_LAYER004
 62
    7
 10
2124.9415943819786
 20
997.23032948946195
 40
20
 41
1
 50
90
  1
下葺き材立上がり寸法
  0
TEXT
  8
_0-2_LAYER004
 62
    7
 10
2085.3947449914917
 20
1104.2394513696022
 40
20
 41
1
 50
90
  1
250
  0
TEXT
  8
_0-2_LAYER004
 62
    7
 10
2026.0744709057619
 20
1005.3723278933858
 40
20
 41
1
 50
90
  1
水切り立上がり寸法
  0
TEXT
  8
_0-2_LAYER004
 62
    7
 10
1983.0381936278791
 20
1187.9857206671034
 40
20
 41
1
 50
90
  1
100
  0
TEXT
  8
_0-2_LAYER004
 62
    7
 10
1977.2224804822195
 20
1251.9585652693609
 40
20
 41
1
 50
90
  1
20
  0
TEXT
  8
_0-2_LAYER004
 62
    7
 10
1985.3644788861429
 20
1108.8920218861301
 40
20
 41
1
 50
90
  1
57
  0
TEXT
  8
_0-2_LAYER004
 62
    7
 10
1984.201336257011
 20
1022.8194673303651
 40
20
 41
1
 50
90
  1
115
  0
TEXT
  8
_0-2_LAYER004
 62
    7
 10
1778.3250909006542
 20
1215.9011437662705
 40
20
 41
1
 50
0
  1
90
  0
TEXT
  8
_0-2_LAYER004
 62
    7
 10
1909.7602079925659
 20
914.64720282109283
 40
20
 41
1
 50
0
  1
葺　土
  0
TEXT
  8
_0-2_LAYER004
 62
    7
 10
1368.8988854462041
 20
1125.1760186939775
 40
20
 41
1
 50
0
  1
桟　瓦
  0
TEXT
  8
_0-2_LAYER004
 62
    7
 10
1693.4156789740211
 20
1350.8256887455777
 40
20
 41
1
 50
0
  1
シーリング
  0
TEXT
  8
_0-2_LAYER004
 62
    7
 10
1598.0379833852003
 20
1247.3059947528332
 40
20
 41
1
 50
0
  1
笠木：15x90
  0
TEXT
  8
_0-2_LAYER004
 62
    7
 10
1536.3914240412066
 20
1204.269717474951
 40
20
 41
1
 50
0
  1
熨斗瓦２段積み
  0
TEXT
  8
_0-2_LAYER004
 62
    7
 10
1384.0197396249198
 20
1285.6897015141881
 40
20
 41
1
 50
0
  1
雨押水切カラー鋼板0.35ｍｍ以上
  0
TEXT
  8
_0-2_LAYER004
 62
    7
 10
1642.237403292215
 20
1319.4208377590148
 40
20
 41
1
 50
0
  1
４０ｘ３０
  0
ENDSEC
  0
EOF
