  0
SECTION
  2
HEADER
  9
$ACADVER
  1
AC1018
  9
$ACADMAINTVER
 70
     0
  9
$DWGCODEPAGE
  3
ANSI_932
  9
$INSBASE
 10
0.0
 20
0.0
 30
0.0
  9
$EXTMIN
 10
764.2076188887085
 20
568.3868463714452
 30
-0.0015258207003583
  9
$EXTMAX
 10
2160.247198355206
 20
1540.745548671979
 30
0.0000000349246037
  9
$LIMMIN
 10
0.0
 20
0.0
  9
$LIMMAX
 10
2970.0
 20
2100.0
  9
$ORTHOMODE
 70
     0
  9
$REGENMODE
 70
     1
  9
$FILLMODE
 70
     1
  9
$QTEXTMODE
 70
     0
  9
$MIRRTEXT
 70
     0
  9
$LTSCALE
 40
10.0
  9
$ATTMODE
 70
     1
  9
$TEXTSIZE
 40
0.2
  9
$TRACEWID
 40
0.05
  9
$TEXTSTYLE
  7
STANDARD
  9
$CLAYER
  8
0
  9
$CELTYPE
  6
CONTINUOUS
  9
$CECOLOR
 62
   256
  9
$CELTSCALE
 40
1.0
  9
$DISPSILH
 70
     0
  9
$DIMSCALE
 40
1.0
  9
$DIMASZ
 40
0.18
  9
$DIMEXO
 40
0.0625
  9
$DIMDLI
 40
0.38
  9
$DIMRND
 40
0.0
  9
$DIMDLE
 40
0.0
  9
$DIMEXE
 40
0.18
  9
$DIMTP
 40
0.0
  9
$DIMTM
 40
0.0
  9
$DIMTXT
 40
0.18
  9
$DIMCEN
 40
0.09
  9
$DIMTSZ
 40
0.0
  9
$DIMTOL
 70
     0
  9
$DIMLIM
 70
     0
  9
$DIMTIH
 70
     1
  9
$DIMTOH
 70
     1
  9
$DIMSE1
 70
     0
  9
$DIMSE2
 70
     0
  9
$DIMTAD
 70
     0
  9
$DIMZIN
 70
     0
  9
$DIMBLK
  1

  9
$DIMASO
 70
     1
  9
$DIMSHO
 70
     1
  9
$DIMPOST
  1

  9
$DIMAPOST
  1

  9
$DIMALT
 70
     0
  9
$DIMALTD
 70
     2
  9
$DIMALTF
 40
25.4
  9
$DIMLFAC
 40
1.0
  9
$DIMTOFL
 70
     0
  9
$DIMTVP
 40
0.0
  9
$DIMTIX
 70
     0
  9
$DIMSOXD
 70
     0
  9
$DIMSAH
 70
     0
  9
$DIMBLK1
  1

  9
$DIMBLK2
  1

  9
$DIMSTYLE
  2
Standard
  9
$DIMCLRD
 70
     0
  9
$DIMCLRE
 70
     0
  9
$DIMCLRT
 70
     0
  9
$DIMTFAC
 40
1.0
  9
$DIMGAP
 40
0.09
  9
$DIMJUST
 70
     0
  9
$DIMSD1
 70
     0
  9
$DIMSD2
 70
     0
  9
$DIMTOLJ
 70
     1
  9
$DIMTZIN
 70
     0
  9
$DIMALTZ
 70
     0
  9
$DIMALTTZ
 70
     0
  9
$DIMUPT
 70
     0
  9
$DIMDEC
 70
     4
  9
$DIMTDEC
 70
     4
  9
$DIMALTU
 70
     2
  9
$DIMALTTD
 70
     2
  9
$DIMTXSTY
  7
STANDARD
  9
$DIMAUNIT
 70
     0
  9
$DIMADEC
 70
     0
  9
$DIMALTRND
 40
0.0
  9
$DIMAZIN
 70
     0
  9
$DIMDSEP
 70
    46
  9
$DIMATFIT
 70
     3
  9
$DIMFRAC
 70
     0
  9
$DIMLDRBLK
  1

  9
$DIMLUNIT
 70
     2
  9
$DIMLWD
 70
    -2
  9
$DIMLWE
 70
    -2
  9
$DIMTMOVE
 70
     0
  9
$LUNITS
 70
     2
  9
$LUPREC
 70
     4
  9
$SKETCHINC
 40
0.1
  9
$FILLETRAD
 40
0.0
  9
$AUNITS
 70
     0
  9
$AUPREC
 70
     0
  9
$MENU
  1
.
  9
$ELEVATION
 40
0.0
  9
$PELEVATION
 40
0.0
  9
$THICKNESS
 40
0.0
  9
$LIMCHECK
 70
     0
  9
$CHAMFERA
 40
0.0
  9
$CHAMFERB
 40
0.0
  9
$CHAMFERC
 40
0.0
  9
$CHAMFERD
 40
0.0
  9
$SKPOLY
 70
     0
  9
$TDCREATE
 40
2454405.749885706
  9
$TDUCREATE
 40
2454405.374885706
  9
$TDUPDATE
 40
2454405.788284317
  9
$TDUUPDATE
 40
2454405.413284317
  9
$TDINDWG
 40
0.0384029514
  9
$TDUSRTIMER
 40
0.0384029514
  9
$USRTIMER
 70
     1
  9
$ANGBASE
 50
0.0
  9
$ANGDIR
 70
     0
  9
$PDMODE
 70
     0
  9
$PDSIZE
 40
0.0
  9
$PLINEWID
 40
0.0
  9
$SPLFRAME
 70
     0
  9
$SPLINETYPE
 70
     6
  9
$SPLINESEGS
 70
     8
  9
$HANDSEED
  5
2F0
  9
$SURFTAB1
 70
     6
  9
$SURFTAB2
 70
     6
  9
$SURFTYPE
 70
     6
  9
$SURFU
 70
     6
  9
$SURFV
 70
     6
  9
$UCSBASE
  2

  9
$UCSNAME
  2

  9
$UCSORG
 10
0.0
 20
0.0
 30
0.0
  9
$UCSXDIR
 10
1.0
 20
0.0
 30
0.0
  9
$UCSYDIR
 10
0.0
 20
1.0
 30
0.0
  9
$UCSORTHOREF
  2

  9
$UCSORTHOVIEW
 70
     0
  9
$UCSORGTOP
 10
0.0
 20
0.0
 30
0.0
  9
$UCSORGBOTTOM
 10
0.0
 20
0.0
 30
0.0
  9
$UCSORGLEFT
 10
0.0
 20
0.0
 30
0.0
  9
$UCSORGRIGHT
 10
0.0
 20
0.0
 30
0.0
  9
$UCSORGFRONT
 10
0.0
 20
0.0
 30
0.0
  9
$UCSORGBACK
 10
0.0
 20
0.0
 30
0.0
  9
$PUCSBASE
  2

  9
$PUCSNAME
  2

  9
$PUCSORG
 10
0.0
 20
0.0
 30
0.0
  9
$PUCSXDIR
 10
1.0
 20
0.0
 30
0.0
  9
$PUCSYDIR
 10
0.0
 20
1.0
 30
0.0
  9
$PUCSORTHOREF
  2

  9
$PUCSORTHOVIEW
 70
     0
  9
$PUCSORGTOP
 10
0.0
 20
0.0
 30
0.0
  9
$PUCSORGBOTTOM
 10
0.0
 20
0.0
 30
0.0
  9
$PUCSORGLEFT
 10
0.0
 20
0.0
 30
0.0
  9
$PUCSORGRIGHT
 10
0.0
 20
0.0
 30
0.0
  9
$PUCSORGFRONT
 10
0.0
 20
0.0
 30
0.0
  9
$PUCSORGBACK
 10
0.0
 20
0.0
 30
0.0
  9
$USERI1
 70
     0
  9
$USERI2
 70
     0
  9
$USERI3
 70
     0
  9
$USERI4
 70
     0
  9
$USERI5
 70
     0
  9
$USERR1
 40
0.0
  9
$USERR2
 40
0.0
  9
$USERR3
 40
0.0
  9
$USERR4
 40
0.0
  9
$USERR5
 40
0.0
  9
$WORLDVIEW
 70
     1
  9
$SHADEDGE
 70
     3
  9
$SHADEDIF
 70
    70
  9
$TILEMODE
 70
     1
  9
$MAXACTVP
 70
    64
  9
$PINSBASE
 10
0.0
 20
0.0
 30
0.0
  9
$PLIMCHECK
 70
     0
  9
$PEXTMIN
 10
1.000000000000000E+20
 20
1.000000000000000E+20
 30
1.000000000000000E+20
  9
$PEXTMAX
 10
-1.000000000000000E+20
 20
-1.000000000000000E+20
 30
-1.000000000000000E+20
  9
$PLIMMIN
 10
0.0
 20
0.0
  9
$PLIMMAX
 10
12.0
 20
9.0
  9
$UNITMODE
 70
     0
  9
$VISRETAIN
 70
     1
  9
$PLINEGEN
 70
     0
  9
$PSLTSCALE
 70
     1
  9
$TREEDEPTH
 70
  3020
  9
$CMLSTYLE
  2
Standard
  9
$CMLJUST
 70
     0
  9
$CMLSCALE
 40
1.0
  9
$PROXYGRAPHICS
 70
     1
  9
$MEASUREMENT
 70
     0
  9
$CELWEIGHT
370
    -1
  9
$ENDCAPS
280
     0
  9
$JOINSTYLE
280
     0
  9
$LWDISPLAY
290
     0
  9
$INSUNITS
 70
     0
  9
$HYPERLINKBASE
  1

  9
$STYLESHEET
  1

  9
$XEDIT
290
     1
  9
$CEPSNTYPE
380
     0
  9
$PSTYLEMODE
290
     1
  9
$FINGERPRINTGUID
  2
{ECF4CAE4-66EB-440D-9E60-28C60E137536}
  9
$VERSIONGUID
  2
{9BF58A14-6554-420B-B927-16E6D95518D1}
  9
$EXTNAMES
290
     1
  9
$PSVPSCALE
 40
0.0
  9
$OLESTARTUP
290
     0
  9
$SORTENTS
280
   127
  9
$INDEXCTL
280
     0
  9
$HIDETEXT
280
     0
  9
$XCLIPFRAME
290
     0
  9
$HALOGAP
280
     0
  9
$OBSCOLOR
 70
   257
  9
$OBSLTYPE
280
     0
  9
$INTERSECTIONDISPLAY
280
     0
  9
$INTERSECTIONCOLOR
 70
   257
  9
$DIMASSOC
280
     1
  9
$PROJECTNAME
  1

  0
ENDSEC
  0
SECTION
  2
CLASSES
  0
CLASS
  1
ACDBDICTIONARYWDFLT
  2
AcDbDictionaryWithDefault
  3
ObjectDBX Classes
 90
        0
 91
        1
280
     0
281
     0
  0
ENDSEC
  0
SECTION
  2
TABLES
  0
TABLE
  2
VPORT
  5
8
330
0
100
AcDbSymbolTable
 70
     4
  0
VPORT
  5
2EF
330
8
100
AcDbSymbolTableRecord
100
AcDbViewportTableRecord
  2
*Active
 70
     0
 10
0.0
 20
0.0
 11
1.0
 21
1.0
 12
1462.227408621957
 22
1054.566197521712
 13
0.0
 23
0.0
 14
1.0
 24
1.0
 15
0.0
 25
0.0
 16
0.0
 26
0.0
 36
1.0
 17
0.0
 27
0.0
 37
0.0
 40
980.7642346073039
 41
1.326027397260274
 42
50.0
 43
0.0
 44
0.0
 50
0.0
 51
0.0
 71
     0
 72
   100
 73
     1
 74
     1
 75
     0
 76
     0
 77
     0
 78
     0
281
     0
 65
     1
110
0.0
120
0.0
130
0.0
111
1.0
121
0.0
131
0.0
112
0.0
122
1.0
132
0.0
 79
     0
146
0.0
  0
ENDTAB
  0
TABLE
  2
LTYPE
  5
5
330
0
100
AcDbSymbolTable
 70
    35
  0
LTYPE
  5
13
330
5
100
AcDbSymbolTableRecord
100
AcDbLinetypeTableRecord
  2
ByBlock
 70
     0
  3

 72
    65
 73
     0
 40
0.0
  0
LTYPE
  5
14
330
5
100
AcDbSymbolTableRecord
100
AcDbLinetypeTableRecord
  2
ByLayer
 70
     0
  3

 72
    65
 73
     0
 40
0.0
  0
LTYPE
  5
15
330
5
100
AcDbSymbolTableRecord
100
AcDbLinetypeTableRecord
  2
CONTINUOUS
 70
     0
  3
実線
 72
    65
 73
     0
 40
0.0
  0
LTYPE
  5
24
330
5
100
AcDbSymbolTableRecord
100
AcDbLinetypeTableRecord
  2
DASHED1
 70
     0
  3
--  --  --  --  --  --  --  --  
 72
    65
 73
     2
 40
2.5
 49
1.25
 74
     0
 49
-1.25
 74
     0
  0
LTYPE
  5
25
330
5
100
AcDbSymbolTableRecord
100
AcDbLinetypeTableRecord
  2
DASHED2
 70
     0
  3
----    ----    ----    ----    
 72
    65
 73
     2
 40
5.0
 49
2.5
 74
     0
 49
-2.5
 74
     0
  0
LTYPE
  5
26
330
5
100
AcDbSymbolTableRecord
100
AcDbLinetypeTableRecord
  2
DASHED3
 70
     0
  3
------  ------  ------  ------  
 72
    65
 73
     2
 40
5.0
 49
3.75
 74
     0
 49
-1.25
 74
     0
  0
LTYPE
  5
27
330
5
100
AcDbSymbolTableRecord
100
AcDbLinetypeTableRecord
  2
CENTER1
 70
     0
  3
----- - ----- - ----- - ----- - 
 72
    65
 73
     4
 40
10.0
 49
6.25
 74
     0
 49
-1.25
 74
     0
 49
1.25
 74
     0
 49
-1.25
 74
     0
  0
LTYPE
  5
28
330
5
100
AcDbSymbolTableRecord
100
AcDbLinetypeTableRecord
  2
CENTER2
 70
     0
  3
----------  --  ----------  --  
 72
    65
 73
     4
 40
20.0
 49
12.5
 74
     0
 49
-2.5
 74
     0
 49
2.5
 74
     0
 49
-2.5
 74
     0
  0
LTYPE
  5
29
330
5
100
AcDbSymbolTableRecord
100
AcDbLinetypeTableRecord
  2
PHANTOM1
 70
     0
  3
--- - - --- - - --- - - --- - - 
 72
    65
 73
     6
 40
10.0
 49
3.25
 74
     0
 49
-1.25
 74
     0
 49
1.25
 74
     0
 49
-1.25
 74
     0
 49
1.25
 74
     0
 49
-1.25
 74
     0
  0
LTYPE
  5
2A
330
5
100
AcDbSymbolTableRecord
100
AcDbLinetypeTableRecord
  2
PHANTOM2
 70
     0
  3
--------  -  -  --------  -  -  
 72
    65
 73
     6
 40
20.0
 49
10.0
 74
     0
 49
-2.5
 74
     0
 49
1.25
 74
     0
 49
-2.5
 74
     0
 49
1.25
 74
     0
 49
-2.5
 74
     0
  0
LTYPE
  5
2B
330
5
100
AcDbSymbolTableRecord
100
AcDbLinetypeTableRecord
  2
DOT
 70
     0
  3
-   -   -   -   -   -   -   -   
 72
    65
 73
     2
 40
2.5
 49
0.625
 74
     0
 49
-1.875
 74
     0
  0
LTYPE
  5
2C
330
5
100
AcDbSymbolTableRecord
100
AcDbLinetypeTableRecord
  2
DUMMY
 70
     0
  3
ダミー
 72
    65
 73
     0
 40
0.0
  0
LTYPE
  5
2D
330
5
100
AcDbSymbolTableRecord
100
AcDbLinetypeTableRecord
  2
RAND1
 70
     0
  3
ランダム線1
 72
    65
 73
     4
 40
10.0
 49
1.0
 74
     0
 49
-2.0
 74
     0
 49
3.0
 74
     0
 49
-4.0
 74
     0
  0
LTYPE
  5
2E
330
5
100
AcDbSymbolTableRecord
100
AcDbLinetypeTableRecord
  2
RAND2
 70
     0
  3
ランダム線2
 72
    65
 73
     4
 40
14.0
 49
2.0
 74
     0
 49
-3.0
 74
     0
 49
4.0
 74
     0
 49
-5.0
 74
     0
  0
LTYPE
  5
2F
330
5
100
AcDbSymbolTableRecord
100
AcDbLinetypeTableRecord
  2
RAND3
 70
     0
  3
ランダム線3
 72
    65
 73
     4
 40
18.0
 49
3.0
 74
     0
 49
-4.0
 74
     0
 49
5.0
 74
     0
 49
-6.0
 74
     0
  0
LTYPE
  5
30
330
5
100
AcDbSymbolTableRecord
100
AcDbLinetypeTableRecord
  2
RAND4
 70
     0
  3
ランダム線4
 72
    65
 73
     4
 40
22.0
 49
4.0
 74
     0
 49
-5.0
 74
     0
 49
6.0
 74
     0
 49
-7.0
 74
     0
  0
LTYPE
  5
31
330
5
100
AcDbSymbolTableRecord
100
AcDbLinetypeTableRecord
  2
RAND5
 70
     0
  3
ランダム線5
 72
    65
 73
     4
 40
26.0
 49
5.0
 74
     0
 49
-6.0
 74
     0
 49
7.0
 74
     0
 49
-8.0
 74
     0
  0
LTYPE
  5
32
330
5
100
AcDbSymbolTableRecord
100
AcDbLinetypeTableRecord
  2
LONG1
 70
     0
  3
----------  --  ----------  --  
 72
    65
 73
     4
 40
40.0
 49
32.5
 74
     0
 49
-2.5
 74
     0
 49
2.5
 74
     0
 49
-2.5
 74
     0
  0
LTYPE
  5
33
330
5
100
AcDbSymbolTableRecord
100
AcDbLinetypeTableRecord
  2
LONG2
 70
     0
  3
--------  -  -  --------  -  -  
 72
    65
 73
     6
 40
40.0
 49
30.0
 74
     0
 49
-2.5
 74
     0
 49
1.25
 74
     0
 49
-2.5
 74
     0
 49
1.25
 74
     0
 49
-2.5
 74
     0
  0
LTYPE
  5
34
330
5
100
AcDbSymbolTableRecord
100
AcDbLinetypeTableRecord
  2
LONG3
 70
     0
  3
+++++++++++++++..+++++++++++++++
 72
    65
 73
     2
 40
40.0
 49
37.5
 74
     0
 49
-2.5
 74
     0
  0
LTYPE
  5
35
330
5
100
AcDbSymbolTableRecord
100
AcDbLinetypeTableRecord
  2
LONG4
 70
     0
  3
+++++++++++++++..+++++++++++++++
 72
    65
 73
     2
 40
80.0
 49
75.0
 74
     0
 49
-5.0
 74
     0
  0
LTYPE
  5
36
330
5
100
AcDbSymbolTableRecord
100
AcDbLinetypeTableRecord
  2
LONG5
 70
     0
  3
----------  --  ----------  --  
 72
    65
 73
     4
 40
60.0
 49
37.5
 74
     0
 49
-7.5
 74
     0
 49
7.5
 74
     0
 49
-7.5
 74
     0
  0
LTYPE
  5
37
330
5
100
AcDbSymbolTableRecord
100
AcDbLinetypeTableRecord
  2
DASHED
 70
     0
  3
-------   -------------   ------
 72
    65
 73
     2
 40
7.5
 49
6.0
 74
     0
 49
-1.5
 74
     0
  0
LTYPE
  5
38
330
5
100
AcDbSymbolTableRecord
100
AcDbLinetypeTableRecord
  2
DASHED_SPACED
 70
     0
  3
----        --------        ----
 72
    65
 73
     2
 40
12.0
 49
6.0
 74
     0
 49
-6.0
 74
     0
  0
LTYPE
  5
39
330
5
100
AcDbSymbolTableRecord
100
AcDbLinetypeTableRecord
  2
LONG_DASHED_DOTTED
 70
     0
  3
------------- --- --------------
 72
    65
 73
     4
 40
15.25
 49
12.0
 74
     0
 49
-1.5
 74
     0
 49
0.25
 74
     0
 49
-1.5
 74
     0
  0
LTYPE
  5
3A
330
5
100
AcDbSymbolTableRecord
100
AcDbLinetypeTableRecord
  2
LONG_DASHED_DOUBLE-DOTTED
 70
     0
  3
----------- --- --- ------------
 72
    65
 73
     6
 40
17.0
 49
12.0
 74
     0
 49
-1.5
 74
     0
 49
0.25
 74
     0
 49
-1.5
 74
     0
 49
0.25
 74
     0
 49
-1.5
 74
     0
  0
LTYPE
  5
3B
330
5
100
AcDbSymbolTableRecord
100
AcDbLinetypeTableRecord
  2
LONG_DASHED_TRIPLICATE-DOTTED
 70
     0
  3
--------- --- --- --- ----------
 72
    65
 73
     8
 40
18.75
 49
12.0
 74
     0
 49
-1.5
 74
     0
 49
0.25
 74
     0
 49
-1.5
 74
     0
 49
0.25
 74
     0
 49
-1.5
 74
     0
 49
0.25
 74
     0
 49
-1.5
 74
     0
  0
LTYPE
  5
3C
330
5
100
AcDbSymbolTableRecord
100
AcDbLinetypeTableRecord
  2
DOTTED
 70
     0
  3
   -       -       -       -    
 72
    65
 73
     2
 40
1.75
 49
0.25
 74
     0
 49
-1.5
 74
     0
  0
LTYPE
  5
3D
330
5
100
AcDbSymbolTableRecord
100
AcDbLinetypeTableRecord
  2
CHAIN
 70
     0
  3
-------------- -- --------------
 72
    65
 73
     4
 40
18.5
 49
12.0
 74
     0
 49
-1.5
 74
     0
 49
3.5
 74
     0
 49
-1.5
 74
     0
  0
LTYPE
  5
3E
330
5
100
AcDbSymbolTableRecord
100
AcDbLinetypeTableRecord
  2
CHAIN_DOUBLE_DASH
 70
     0
  3
------------ -- -- -------------
 72
    65
 73
     6
 40
23.5
 49
12.0
 74
     0
 49
-1.5
 74
     0
 49
3.5
 74
     0
 49
-1.5
 74
     0
 49
3.5
 74
     0
 49
-1.5
 74
     0
  0
LTYPE
  5
3F
330
5
100
AcDbSymbolTableRecord
100
AcDbLinetypeTableRecord
  2
DASHED_DOTTED
 70
     0
  3
-----------     -     ----------
 72
    65
 73
     4
 40
9.25
 49
6.0
 74
     0
 49
-1.5
 74
     0
 49
0.25
 74
     0
 49
-1.5
 74
     0
  0
LTYPE
  5
40
330
5
100
AcDbSymbolTableRecord
100
AcDbLinetypeTableRecord
  2
DOUBLE-DASHED_DOTTED
 70
     0
  3
------   -----------   -   -----
 72
    65
 73
     6
 40
16.75
 49
6.0
 74
     0
 49
-1.5
 74
     0
 49
6.0
 74
     0
 49
-1.5
 74
     0
 49
0.25
 74
     0
 49
-1.5
 74
     0
  0
LTYPE
  5
41
330
5
100
AcDbSymbolTableRecord
100
AcDbLinetypeTableRecord
  2
DASHED_DOUBLE-DOTTED
 70
     0
  3
---------    -    -    ---------
 72
    65
 73
     6
 40
11.0
 49
6.0
 74
     0
 49
-1.5
 74
     0
 49
0.25
 74
     0
 49
-1.5
 74
     0
 49
0.25
 74
     0
 49
-1.5
 74
     0
  0
LTYPE
  5
42
330
5
100
AcDbSymbolTableRecord
100
AcDbLinetypeTableRecord
  2
DOUBLE-DASHED_DOUBLE-DOTTED
 70
     0
  3
-----   ---------   -   -   ----
 72
    65
 73
     8
 40
18.5
 49
6.0
 74
     0
 49
-1.5
 74
     0
 49
6.0
 74
     0
 49
-1.5
 74
     0
 49
0.25
 74
     0
 49
-1.5
 74
     0
 49
0.25
 74
     0
 49
-1.5
 74
     0
  0
LTYPE
  5
43
330
5
100
AcDbSymbolTableRecord
100
AcDbLinetypeTableRecord
  2
DASHED_TRIPLICATE-DOTTED
 70
     0
  3
-------    -    -    -    ------
 72
    65
 73
     8
 40
12.75
 49
6.0
 74
     0
 49
-1.5
 74
     0
 49
0.25
 74
     0
 49
-1.5
 74
     0
 49
0.25
 74
     0
 49
-1.5
 74
     0
 49
0.25
 74
     0
 49
-1.5
 74
     0
  0
LTYPE
  5
44
330
5
100
AcDbSymbolTableRecord
100
AcDbLinetypeTableRecord
  2
DOUBLE-DASHED_TRIPLICATE-DOTTED
 70
     0
  3
-----  ---------  -  -  -  -----
 72
    65
 73
    10
 40
20.25
 49
6.0
 74
     0
 49
-1.5
 74
     0
 49
6.0
 74
     0
 49
-1.5
 74
     0
 49
0.25
 74
     0
 49
-1.5
 74
     0
 49
0.25
 74
     0
 49
-1.5
 74
     0
 49
0.25
 74
     0
 49
-1.5
 74
     0
  0
LTYPE
  5
45
330
5
100
AcDbSymbolTableRecord
100
AcDbLinetypeTableRecord
  2
UNDEFINED
 70
     0
  3
--------------------------------
 72
    65
 73
     0
 40
0.0
  0
ENDTAB
  0
TABLE
  2
LAYER
  5
2
330
0
100
AcDbSymbolTable
 70
     8
  0
LAYER
  5
10
330
2
100
AcDbSymbolTableRecord
100
AcDbLayerTableRecord
  2
0
 70
     0
 62
     7
  6
CONTINUOUS
370
    -3
390
F
  0
LAYER
  5
47
330
2
100
AcDbSymbolTableRecord
100
AcDbLayerTableRecord
  2
_0-0_LAYER001
 70
     0
 62
     7
  6
CONTINUOUS
370
    -3
390
F
  0
LAYER
  5
48
330
2
100
AcDbSymbolTableRecord
100
AcDbLayerTableRecord
  2
_0-1_LAYER003
 70
     0
 62
     7
  6
CONTINUOUS
370
    -3
390
F
  0
LAYER
  5
49
330
2
100
AcDbSymbolTableRecord
100
AcDbLayerTableRecord
  2
_0-2_LAYER004
 70
     0
 62
     7
  6
CONTINUOUS
370
    -3
390
F
  0
LAYER
  5
4A
330
2
100
AcDbSymbolTableRecord
100
AcDbLayerTableRecord
  2
_0-3_LAYER005
 70
     0
 62
     7
  6
CONTINUOUS
370
    -3
390
F
  0
LAYER
  5
4B
330
2
100
AcDbSymbolTableRecord
100
AcDbLayerTableRecord
  2
_0-4_LAYER006
 70
     0
 62
     7
  6
CONTINUOUS
370
    -3
390
F
  0
LAYER
  5
4C
330
2
100
AcDbSymbolTableRecord
100
AcDbLayerTableRecord
  2
_0-5_LAYER009
 70
     0
 62
     7
  6
CONTINUOUS
370
    -3
390
F
  0
LAYER
  5
4D
330
2
100
AcDbSymbolTableRecord
100
AcDbLayerTableRecord
  2
ADD_LINE
 70
     0
 62
     7
  6
CONTINUOUS
370
    -3
390
F
  0
ENDTAB
  0
TABLE
  2
STYLE
  5
3
330
0
100
AcDbSymbolTable
 70
     2
  0
STYLE
  5
11
330
3
100
AcDbSymbolTableRecord
100
AcDbTextStyleTableRecord
  2
STANDARD
 70
     0
 40
0.0
 41
1.0
 50
0.0
 71
     0
 42
0.2
  3
txt
  4
bigfont.shx
  0
STYLE
  5
46
330
3
100
AcDbSymbolTableRecord
100
AcDbTextStyleTableRecord
  2
TATEGAKI
 70
     4
 40
0.0
 41
1.0
 50
0.0
 71
     0
 42
1.0
  3
txt
  4
bigfont.shx
  0
ENDTAB
  0
TABLE
  2
VIEW
  5
6
330
0
100
AcDbSymbolTable
 70
     0
  0
ENDTAB
  0
TABLE
  2
UCS
  5
7
330
0
100
AcDbSymbolTable
 70
     0
  0
ENDTAB
  0
TABLE
  2
APPID
  5
9
330
0
100
AcDbSymbolTable
 70
     1
  0
APPID
  5
12
330
9
100
AcDbSymbolTableRecord
100
AcDbRegAppTableRecord
  2
ACAD
 70
     0
  0
ENDTAB
  0
TABLE
  2
DIMSTYLE
  5
A
330
0
100
AcDbSymbolTable
 70
     1
100
AcDbDimStyleTable
 71
     0
  0
DIMSTYLE
105
2EB
330
A
100
AcDbSymbolTableRecord
100
AcDbDimStyleTableRecord
  2
Standard
 70
     0
340
11
  0
ENDTAB
  0
TABLE
  2
BLOCK_RECORD
  5
1
330
0
100
AcDbSymbolTable
 70
     0
  0
BLOCK_RECORD
  5
20
330
1
100
AcDbSymbolTableRecord
100
AcDbBlockTableRecord
  2
*Model_Space
340
23
  0
BLOCK_RECORD
  5
1C
330
1
100
AcDbSymbolTableRecord
100
AcDbBlockTableRecord
  2
*Paper_Space
340
1F
  0
ENDTAB
  0
ENDSEC
  0
SECTION
  2
BLOCKS
  0
BLOCK
  5
21
330
20
100
AcDbEntity
  8
0
100
AcDbBlockBegin
  2
*Model_Space
 70
     0
 10
0.0
 20
0.0
 30
0.0
  3
*Model_Space
  1

  0
ENDBLK
  5
22
330
20
100
AcDbEntity
  8
0
100
AcDbBlockEnd
  0
BLOCK
  5
1D
330
1C
100
AcDbEntity
 67
     1
  8
0
100
AcDbBlockBegin
  2
*Paper_Space
 70
     0
 10
0.0
 20
0.0
 30
0.0
  3
*Paper_Space
  1

  0
ENDBLK
  5
1E
330
1C
100
AcDbEntity
 67
     1
  8
0
100
AcDbBlockEnd
  0
ENDSEC
  0
SECTION
  2
ENTITIES
  0
LINE
  5
51
330
20
100
AcDbEntity
  8
_0-5_LAYER009
  6
Continuous
 62
     2
100
AcDbLine
 10
1086.7091
 20
875.6783999999999
 30
0.0
 11
1088.6502
 21
868.4338999999999
 31
0.0
  0
LINE
  5
52
330
20
100
AcDbEntity
  8
_0-5_LAYER009
  6
Continuous
 62
     2
100
AcDbLine
 10
1088.6502
 20
868.4338999999999
 30
0.0
 11
1083.3469
 21
873.7372
 31
0.0
  0
LINE
  5
53
330
20
100
AcDbEntity
  8
_0-5_LAYER009
  6
Continuous
 62
     2
100
AcDbLine
 10
1088.6502
 20
868.4338999999999
 30
0.0
 11
1039.2286
 21
954.0347
 31
0.0
  0
LINE
  5
54
330
20
100
AcDbEntity
  8
_0-5_LAYER009
  6
Continuous
 62
     2
100
AcDbLine
 10
1039.2286
 20
954.0347
 30
0.0
 11
998.7286
 21
954.0347
 31
0.0
  0
LINE
  5
55
330
20
100
AcDbEntity
  8
_0-5_LAYER009
  6
Continuous
 62
     2
100
AcDbLine
 10
1180.7616
 20
634.0599999999999
 30
0.0
 11
1164.1595
 21
671.8426
 31
0.0
  0
CIRCLE
  5
56
330
20
100
AcDbEntity
  8
_0-5_LAYER009
  6
Continuous
 62
     2
100
AcDbCircle
 10
1179.7559
 20
636.3488
 30
0.0
 40
1.699999999999999
  0
LINE
  5
57
330
20
100
AcDbEntity
  8
_0-5_LAYER009
  6
Continuous
 62
     2
100
AcDbLine
 10
1179.7559
 20
636.3488
 30
0.0
 11
1166.0208
 21
630.3134
 31
0.0
  0
CIRCLE
  5
58
330
20
100
AcDbEntity
  8
_0-5_LAYER009
  6
Continuous
 62
     2
100
AcDbCircle
 10
1166.0208
 20
630.3134
 30
0.0
 40
1.699999999999999
  0
LINE
  5
59
330
20
100
AcDbEntity
  8
_0-5_LAYER009
  6
Continuous
 62
     2
100
AcDbLine
 10
1167.0265
 20
628.0247000000001
 30
0.0
 11
1150.4245
 21
665.8073
 31
0.0
  0
LINE
  5
5A
330
20
100
AcDbEntity
  8
_0-5_LAYER009
  6
Continuous
 62
     2
100
AcDbLine
 10
1128.088
 20
579.9275999999999
 30
0.0
 11
1100.0735
 21
643.6826000000002
 31
0.0
  0
CIRCLE
  5
5B
330
20
100
AcDbEntity
  8
_0-5_LAYER009
  6
Continuous
 62
     2
100
AcDbCircle
 10
1127.0823
 20
582.2163999999999
 30
0.0
 40
1.699999999999999
  0
LINE
  5
5C
330
20
100
AcDbEntity
  8
_0-5_LAYER009
  6
Continuous
 62
     2
100
AcDbLine
 10
1127.0823
 20
582.2163999999999
 30
0.0
 11
1191.1683
 21
610.3764
 31
0.0
  0
CIRCLE
  5
5D
330
20
100
AcDbEntity
  8
_0-5_LAYER009
  6
Continuous
 62
     2
100
AcDbCircle
 10
1191.1683
 20
610.3764
 30
0.0
 40
1.699999999999999
  0
LINE
  5
5E
330
20
100
AcDbEntity
  8
_0-5_LAYER009
  6
Continuous
 62
     2
100
AcDbLine
 10
1192.1741
 20
608.0877
 30
0.0
 11
1164.1595
 21
671.8426
 31
0.0
  0
LINE
  5
5F
330
20
100
AcDbEntity
  8
_0-5_LAYER009
  6
Continuous
 62
     2
100
AcDbLine
 10
1088.0196
 20
819.8185000000002
 30
0.0
 11
1091.7696
 21
826.3136999999998
 31
0.0
  0
LINE
  5
60
330
20
100
AcDbEntity
  8
_0-5_LAYER009
  6
Continuous
 62
     2
100
AcDbLine
 10
1091.7696
 20
826.3136999999998
 30
0.0
 11
1091.7696
 21
818.8136999999997
 31
0.0
  0
LINE
  5
61
330
20
100
AcDbEntity
  8
_0-5_LAYER009
  6
Continuous
 62
     2
100
AcDbLine
 10
1091.7696
 20
826.3136999999998
 30
0.0
 11
1071.8755
 21
752.0679
 31
0.0
  0
LINE
  5
62
330
20
100
AcDbEntity
  8
_0-5_LAYER009
  6
Continuous
 62
     2
100
AcDbLine
 10
1071.8755
 20
752.0679
 30
0.0
 11
924.8755
 21
752.0679
 31
0.0
  0
LINE
  5
63
330
20
100
AcDbEntity
  8
_0-0_LAYER001
  6
DASHED1
 62
     2
100
AcDbLine
 10
1114.811
 20
809.0023
 30
0.0
 11
1167.1477
 21
689.9010000000002
 31
0.0
  0
LINE
  5
64
330
20
100
AcDbEntity
  8
_0-5_LAYER009
  6
Continuous
 62
     2
100
AcDbLine
 10
1594.5186
 20
1122.4832
 30
0.0
 11
1596.4597
 21
1115.2387
 31
0.0
  0
LINE
  5
65
330
20
100
AcDbEntity
  8
_0-5_LAYER009
  6
Continuous
 62
     2
100
AcDbLine
 10
1596.4597
 20
1115.2387
 30
0.0
 11
1591.1564
 21
1120.542
 31
0.0
  0
LINE
  5
66
330
20
100
AcDbEntity
  8
_0-5_LAYER009
  6
Continuous
 62
     2
100
AcDbLine
 10
1596.4597
 20
1115.2387
 30
0.0
 11
1544.3508
 21
1205.494
 31
0.0
  0
LINE
  5
67
330
20
100
AcDbEntity
  8
_0-5_LAYER009
  6
Continuous
 62
     2
100
AcDbLine
 10
1544.3508
 20
1205.494
 30
0.0
 11
1503.8508
 21
1205.494
 31
0.0
  0
LINE
  5
68
330
20
100
AcDbEntity
  8
_0-5_LAYER009
  6
Continuous
 62
     2
100
AcDbLine
 10
844.5517
 20
733.7003999999998
 30
0.0
 11
892.6161999999997
 21
754.8203000000001
 31
0.0
  0
CIRCLE
  5
69
330
20
100
AcDbEntity
  8
_0-5_LAYER009
  6
Continuous
 62
     2
100
AcDbCircle
 10
846.8405
 20
734.7061
 30
0.0
 40
1.699999999999999
  0
LINE
  5
6A
330
20
100
AcDbEntity
  8
_0-5_LAYER009
  6
Continuous
 62
     2
100
AcDbLine
 10
846.8405
 20
734.7061
 30
0.0
 11
858.8562999999998
 21
707.3605999999999
 31
0.0
  0
CIRCLE
  5
6B
330
20
100
AcDbEntity
  8
_0-5_LAYER009
  6
Continuous
 62
     2
100
AcDbCircle
 10
858.8562999999998
 20
707.3605999999999
 30
0.0
 40
1.699999999999999
  0
LINE
  5
6C
330
20
100
AcDbEntity
  8
_0-5_LAYER009
  6
Continuous
 62
     2
100
AcDbLine
 10
856.5675
 20
706.3549
 30
0.0
 11
904.6319999999999
 21
727.4747999999998
 31
0.0
  0
CIRCLE
  5
6D
330
20
100
AcDbEntity
  8
_0-5_LAYER009
  6
Continuous
 62
     2
100
AcDbCircle
 10
858.8562999999998
 20
707.3605999999999
 30
0.0
 40
1.699999999999999
  0
LINE
  5
6E
330
20
100
AcDbEntity
  8
_0-5_LAYER009
  6
Continuous
 62
     2
100
AcDbLine
 10
858.8562999999998
 20
707.3605999999999
 30
0.0
 11
919.1656
 21
570.109
 31
0.0
  0
CIRCLE
  5
6F
330
20
100
AcDbEntity
  8
_0-5_LAYER009
  6
Continuous
 62
     2
100
AcDbCircle
 10
919.1656
 20
570.109
 30
0.0
 40
1.699999999999999
  0
LINE
  5
70
330
20
100
AcDbEntity
  8
_0-5_LAYER009
  6
Continuous
 62
     2
100
AcDbLine
 10
916.8768
 20
569.1033
 30
0.0
 11
964.9414
 21
590.2231999999997
 31
0.0
  0
LINE
  5
71
330
20
100
AcDbEntity
  8
_0-3_LAYER005
  6
Continuous
 62
     2
100
AcDbLine
 10
1122.6036
 20
887.9947999999998
 30
0.0
 11
1124.5448
 21
880.7503999999999
 31
0.0
  0
LINE
  5
72
330
20
100
AcDbEntity
  8
_0-3_LAYER005
  6
Continuous
 62
     2
100
AcDbLine
 10
1124.5448
 20
880.7503999999999
 30
0.0
 11
1119.2415
 21
886.0536999999998
 31
0.0
  0
LINE
  5
73
330
20
100
AcDbEntity
  8
_0-3_LAYER005
  6
Continuous
 62
     2
100
AcDbLine
 10
1124.5448
 20
880.7503999999999
 30
0.0
 11
1048.2891
 21
1012.8291
 31
0.0
  0
LINE
  5
74
330
20
100
AcDbEntity
  8
_0-3_LAYER005
  6
Continuous
 62
     2
100
AcDbLine
 10
1048.2891
 20
1012.8291
 30
0.0
 11
809.7890999999998
 21
1012.8291
 31
0.0
  0
LINE
  5
75
330
20
100
AcDbEntity
  8
_0-0_LAYER001
  6
Continuous
 62
     2
100
AcDbLine
 10
1138.5406
 20
899.1866999999999
 30
0.0
 11
1110.8423
 21
851.0802000000001
 31
0.0
  0
LINE
  5
76
330
20
100
AcDbEntity
  8
_0-0_LAYER001
  6
Continuous
 62
     2
100
AcDbLine
 10
1095.3564
 20
885.4936
 30
0.0
 11
1151.8793
 21
869.5465999999999
 31
0.0
  0
LINE
  5
77
330
20
100
AcDbEntity
  8
_0-3_LAYER005
  6
Continuous
 62
     2
100
AcDbLine
 10
1188.5556
 20
942.6941000000001
 30
0.0
 11
1190.4967
 21
935.4496000000001
 31
0.0
  0
LINE
  5
78
330
20
100
AcDbEntity
  8
_0-3_LAYER005
  6
Continuous
 62
     2
100
AcDbLine
 10
1190.4967
 20
935.4496000000001
 30
0.0
 11
1185.1934
 21
940.7529
 31
0.0
  0
LINE
  5
79
330
20
100
AcDbEntity
  8
_0-3_LAYER005
  6
Continuous
 62
     2
100
AcDbLine
 10
1190.4967
 20
935.4496000000001
 30
0.0
 11
1097.3993
 21
1096.6992
 31
0.0
  0
LINE
  5
7A
330
20
100
AcDbEntity
  8
_0-3_LAYER005
  6
Continuous
 62
     2
100
AcDbLine
 10
1097.3993
 20
1096.6992
 30
0.0
 11
1032.8993
 21
1096.6992
 31
0.0
  0
LINE
  5
7B
330
20
100
AcDbEntity
  8
_0-5_LAYER009
  6
DASHED1
 62
     2
100
AcDbLine
 10
1157.9926
 20
685.8778999999999
 30
0.0
 11
2156.1071
 21
1135.03
 31
0.0
  0
LINE
  5
7C
330
20
100
AcDbEntity
  8
_0-5_LAYER009
  6
Continuous
 62
     2
100
AcDbLine
 10
1171.1346
 20
680.826
 30
0.0
 11
2160.2108
 21
1125.9107
 31
0.0
  0
LINE
  5
7D
330
20
100
AcDbEntity
  8
_0-4_LAYER006
  6
Continuous
 62
     2
100
AcDbLine
 10
1105.6914
 20
804.8985
 30
0.0
 11
2102.7597
 21
1253.5797
 31
0.0
  0
LINE
  5
7E
330
20
100
AcDbEntity
  8
_0-4_LAYER006
  6
Continuous
 62
     1
100
AcDbLine
 10
2101.3827
 20
1252.9601
 30
0.0
 11
2102.5246
 21
1254.102
 31
0.0
  0
LINE
  5
7F
330
20
100
AcDbEntity
  8
_0-4_LAYER006
  6
Continuous
 62
     1
100
AcDbLine
 10
2075.6697
 20
1241.3892
 30
0.0
 11
2098.1357
 21
1263.8552
 31
0.0
  0
LINE
  5
80
330
20
100
AcDbEntity
  8
_0-4_LAYER006
  6
Continuous
 62
     1
100
AcDbLine
 10
2049.9567
 20
1229.8184
 30
0.0
 11
2093.7468
 21
1273.6084
 31
0.0
  0
LINE
  5
81
330
20
100
AcDbEntity
  8
_0-4_LAYER006
  6
Continuous
 62
     1
100
AcDbLine
 10
2024.2437
 20
1218.2475
 30
0.0
 11
2089.3578
 21
1283.3616
 31
0.0
  0
LINE
  5
82
330
20
100
AcDbEntity
  8
_0-4_LAYER006
  6
Continuous
 62
     1
100
AcDbLine
 10
1998.5307
 20
1206.6766
 30
0.0
 11
2078.2831
 21
1286.429
 31
0.0
  0
LINE
  5
83
330
20
100
AcDbEntity
  8
_0-4_LAYER006
  6
Continuous
 62
     1
100
AcDbLine
 10
1972.8177
 20
1195.1058
 30
0.0
 11
2052.5701
 21
1274.8582
 31
0.0
  0
LINE
  5
84
330
20
100
AcDbEntity
  8
_0-4_LAYER006
  6
Continuous
 62
     1
100
AcDbLine
 10
1947.1047
 20
1183.5349
 30
0.0
 11
2026.8571
 21
1263.2873
 31
0.0
  0
LINE
  5
85
330
20
100
AcDbEntity
  8
_0-4_LAYER006
  6
Continuous
 62
     1
100
AcDbLine
 10
1921.3917
 20
1171.964
 30
0.0
 11
2001.1441
 21
1251.7164
 31
0.0
  0
LINE
  5
86
330
20
100
AcDbEntity
  8
_0-4_LAYER006
  6
Continuous
 62
     1
100
AcDbLine
 10
1895.6787
 20
1160.3932
 30
0.0
 11
1975.4311
 21
1240.1456
 31
0.0
  0
LINE
  5
87
330
20
100
AcDbEntity
  8
_0-4_LAYER006
  6
Continuous
 62
     1
100
AcDbLine
 10
1869.9657
 20
1148.8223
 30
0.0
 11
1949.7181
 21
1228.5747
 31
0.0
  0
LINE
  5
88
330
20
100
AcDbEntity
  8
_0-4_LAYER006
  6
Continuous
 62
     1
100
AcDbLine
 10
1844.2527
 20
1137.2515
 30
0.0
 11
1924.0051
 21
1217.0038
 31
0.0
  0
LINE
  5
89
330
20
100
AcDbEntity
  8
_0-4_LAYER006
  6
Continuous
 62
     1
100
AcDbLine
 10
1818.5397
 20
1125.6806
 30
0.0
 11
1898.2921
 21
1205.433
 31
0.0
  0
LINE
  5
8A
330
20
100
AcDbEntity
  8
_0-4_LAYER006
  6
Continuous
 62
     1
100
AcDbLine
 10
1792.8267
 20
1114.1097
 30
0.0
 11
1872.5791
 21
1193.8621
 31
0.0
  0
LINE
  5
8B
330
20
100
AcDbEntity
  8
_0-4_LAYER006
  6
Continuous
 62
     1
100
AcDbLine
 10
1767.1137
 20
1102.5389
 30
0.0
 11
1846.8661
 21
1182.2912
 31
0.0
  0
LINE
  5
8C
330
20
100
AcDbEntity
  8
_0-4_LAYER006
  6
Continuous
 62
     1
100
AcDbLine
 10
1741.400699999999
 20
1090.968
 30
0.0
 11
1821.1531
 21
1170.7204
 31
0.0
  0
LINE
  5
8D
330
20
100
AcDbEntity
  8
_0-4_LAYER006
  6
Continuous
 62
     1
100
AcDbLine
 10
1715.6877
 20
1079.3972
 30
0.0
 11
1795.440099999999
 21
1159.1495
 31
0.0
  0
LINE
  5
8E
330
20
100
AcDbEntity
  8
_0-4_LAYER006
  6
Continuous
 62
     1
100
AcDbLine
 10
1689.9747
 20
1067.8263
 30
0.0
 11
1769.7271
 21
1147.5786
 31
0.0
  0
LINE
  5
8F
330
20
100
AcDbEntity
  8
_0-4_LAYER006
  6
Continuous
 62
     1
100
AcDbLine
 10
1664.2617
 20
1056.2554
 30
0.0
 11
1744.0141
 21
1136.0078
 31
0.0
  0
LINE
  5
90
330
20
100
AcDbEntity
  8
_0-4_LAYER006
  6
Continuous
 62
     1
100
AcDbLine
 10
1638.5487
 20
1044.6846
 30
0.0
 11
1718.3011
 21
1124.4369
 31
0.0
  0
LINE
  5
91
330
20
100
AcDbEntity
  8
_0-4_LAYER006
  6
Continuous
 62
     1
100
AcDbLine
 10
1612.8357
 20
1033.1137
 30
0.0
 11
1692.5881
 21
1112.866
 31
0.0
  0
LINE
  5
92
330
20
100
AcDbEntity
  8
_0-4_LAYER006
  6
Continuous
 62
     1
100
AcDbLine
 10
1587.1227
 20
1021.5428
 30
0.0
 11
1666.875
 21
1101.2952
 31
0.0
  0
LINE
  5
93
330
20
100
AcDbEntity
  8
_0-4_LAYER006
  6
Continuous
 62
     1
100
AcDbLine
 10
1561.4097
 20
1009.972
 30
0.0
 11
1641.162
 21
1089.7243
 31
0.0
  0
LINE
  5
94
330
20
100
AcDbEntity
  8
_0-4_LAYER006
  6
Continuous
 62
     1
100
AcDbLine
 10
1535.6967
 20
998.4011
 30
0.0
 11
1615.449
 21
1078.1534
 31
0.0
  0
LINE
  5
95
330
20
100
AcDbEntity
  8
_0-4_LAYER006
  6
Continuous
 62
     1
100
AcDbLine
 10
1509.9837
 20
986.8302999999999
 30
0.0
 11
1589.736
 21
1066.5826
 31
0.0
  0
LINE
  5
96
330
20
100
AcDbEntity
  8
_0-4_LAYER006
  6
Continuous
 62
     1
100
AcDbLine
 10
1484.2707
 20
975.2594
 30
0.0
 11
1564.023
 21
1055.0117
 31
0.0
  0
LINE
  5
97
330
20
100
AcDbEntity
  8
_0-4_LAYER006
  6
Continuous
 62
     1
100
AcDbLine
 10
1458.5577
 20
963.6884999999999
 30
0.0
 11
1538.31
 21
1043.4408
 31
0.0
  0
LINE
  5
98
330
20
100
AcDbEntity
  8
_0-4_LAYER006
  6
Continuous
 62
     1
100
AcDbLine
 10
1432.8447
 20
952.1176999999999
 30
0.0
 11
1512.597
 21
1031.87
 31
0.0
  0
LINE
  5
99
330
20
100
AcDbEntity
  8
_0-4_LAYER006
  6
Continuous
 62
     1
100
AcDbLine
 10
1407.1317
 20
940.5467999999999
 30
0.0
 11
1486.884
 21
1020.2991
 31
0.0
  0
LINE
  5
9A
330
20
100
AcDbEntity
  8
_0-4_LAYER006
  6
Continuous
 62
     1
100
AcDbLine
 10
1381.4188
 20
928.9759999999999
 30
0.0
 11
1461.171
 21
1008.7282
 31
0.0
  0
LINE
  5
9B
330
20
100
AcDbEntity
  8
_0-4_LAYER006
  6
Continuous
 62
     1
100
AcDbLine
 10
1355.7058
 20
917.4051
 30
0.0
 11
1435.458
 21
997.1574
 31
0.0
  0
LINE
  5
9C
330
20
100
AcDbEntity
  8
_0-4_LAYER006
  6
Continuous
 62
     1
100
AcDbLine
 10
1329.9928
 20
905.8341999999999
 30
0.0
 11
1409.745
 21
985.5864999999999
 31
0.0
  0
LINE
  5
9D
330
20
100
AcDbEntity
  8
_0-4_LAYER006
  6
Continuous
 62
     1
100
AcDbLine
 10
1304.279799999999
 20
894.2633999999999
 30
0.0
 11
1384.032
 21
974.0155999999998
 31
0.0
  0
LINE
  5
9E
330
20
100
AcDbEntity
  8
_0-4_LAYER006
  6
Continuous
 62
     1
100
AcDbLine
 10
1278.5668
 20
882.6925000000001
 30
0.0
 11
1358.319
 21
962.4448000000001
 31
0.0
  0
LINE
  5
9F
330
20
100
AcDbEntity
  8
_0-4_LAYER006
  6
Continuous
 62
     1
100
AcDbLine
 10
1252.8538
 20
871.1215999999998
 30
0.0
 11
1332.606
 21
950.8739
 31
0.0
  0
LINE
  5
A0
330
20
100
AcDbEntity
  8
_0-4_LAYER006
  6
Continuous
 62
     1
100
AcDbLine
 10
1227.1408
 20
859.5508
 30
0.0
 11
1306.893
 21
939.3029999999999
 31
0.0
  0
LINE
  5
A1
330
20
100
AcDbEntity
  8
_0-4_LAYER006
  6
Continuous
 62
     1
100
AcDbLine
 10
1201.4278
 20
847.9798999999999
 30
0.0
 11
1281.179999999999
 21
927.7321999999999
 31
0.0
  0
LINE
  5
A2
330
20
100
AcDbEntity
  8
_0-4_LAYER006
  6
Continuous
 62
     1
100
AcDbLine
 10
1175.7148
 20
836.4091
 30
0.0
 11
1255.467
 21
916.1613
 31
0.0
  0
LINE
  5
A3
330
20
100
AcDbEntity
  8
_0-4_LAYER006
  6
Continuous
 62
     1
100
AcDbLine
 10
1150.0018
 20
824.8381999999997
 30
0.0
 11
1169.9399
 21
844.7763
 31
0.0
  0
LINE
  5
A4
330
20
100
AcDbEntity
  8
_0-4_LAYER006
  6
Continuous
 62
     1
100
AcDbLine
 10
1170.0443
 20
844.8806999999998
 30
0.0
 11
1229.754
 21
904.5904
 31
0.0
  0
LINE
  5
A5
330
20
100
AcDbEntity
  8
_0-4_LAYER006
  6
Continuous
 62
     1
100
AcDbLine
 10
1124.2888
 20
813.2673
 30
0.0
 11
1144.2268
 21
833.2054000000001
 31
0.0
  0
LINE
  5
A6
330
20
100
AcDbEntity
  8
_0-4_LAYER006
  6
Continuous
 62
     1
100
AcDbLine
 10
1165.7268
 20
854.7053
 30
0.0
 11
1204.041
 21
893.0196
 31
0.0
  0
LINE
  5
A7
330
20
100
AcDbEntity
  8
_0-4_LAYER006
  6
Continuous
 62
     1
100
AcDbLine
 10
1104.4967
 20
807.6174000000001
 30
0.0
 11
1118.5137
 21
821.6343999999997
 31
0.0
  0
LINE
  5
A8
330
20
100
AcDbEntity
  8
_0-4_LAYER006
  6
Continuous
 62
     1
100
AcDbLine
 10
1161.4093
 20
864.5299999999998
 30
0.0
 11
1178.328
 21
881.4486999999997
 31
0.0
  0
LINE
  5
A9
330
20
100
AcDbEntity
  8
_0-4_LAYER006
  6
Continuous
 62
     1
100
AcDbLine
 10
1102.8652
 20
814.5925999999999
 30
0.0
 11
1110.4278
 21
807.0299
 31
0.0
  0
LINE
  5
AA
330
20
100
AcDbEntity
  8
_0-4_LAYER006
  6
Continuous
 62
     1
100
AcDbLine
 10
1112.6184
 20
818.9815000000001
 30
0.0
 11
1120.181
 21
811.4187999999998
 31
0.0
  0
LINE
  5
AB
330
20
100
AcDbEntity
  8
_0-4_LAYER006
  6
Continuous
 62
     1
100
AcDbLine
 10
1122.3715
 20
823.3705
 30
0.0
 11
1129.9342
 21
815.8077999999999
 31
0.0
  0
LINE
  5
AC
330
20
100
AcDbEntity
  8
_0-4_LAYER006
  6
Continuous
 62
     1
100
AcDbLine
 10
1132.1247
 20
827.7593999999998
 30
0.0
 11
1139.6874
 21
820.1966999999998
 31
0.0
  0
LINE
  5
AD
330
20
100
AcDbEntity
  8
_0-4_LAYER006
  6
Continuous
 62
     1
100
AcDbLine
 10
1141.8779
 20
832.1483999999999
 30
0.0
 11
1149.4406
 21
824.5857000000002
 31
0.0
  0
LINE
  5
AE
330
20
100
AcDbEntity
  8
_0-4_LAYER006
  6
Continuous
 62
     1
100
AcDbLine
 10
1151.6311
 20
836.5372999999998
 30
0.0
 11
1159.1938
 21
828.9746
 31
0.0
  0
LINE
  5
AF
330
20
100
AcDbEntity
  8
_0-4_LAYER006
  6
Continuous
 62
     1
100
AcDbLine
 10
1161.3843
 20
840.9262999999999
 30
0.0
 11
1168.947
 21
833.3635999999998
 31
0.0
  0
LINE
  5
B0
330
20
100
AcDbEntity
  8
_0-4_LAYER006
  6
Continuous
 62
     1
100
AcDbLine
 10
1168.8466
 20
847.6060999999997
 30
0.0
 11
1178.7002
 21
837.7525
 31
0.0
  0
LINE
  5
B1
330
20
100
AcDbEntity
  8
_0-4_LAYER006
  6
Continuous
 62
     1
100
AcDbLine
 10
1158.2026
 20
872.3921999999999
 30
0.0
 11
1188.4534
 21
842.1414
 31
0.0
  0
LINE
  5
B2
330
20
100
AcDbEntity
  8
_0-4_LAYER006
  6
Continuous
 62
     1
100
AcDbLine
 10
1167.9558
 20
876.7811999999999
 30
0.0
 11
1198.2066
 21
846.5304000000001
 31
0.0
  0
LINE
  5
B3
330
20
100
AcDbEntity
  8
_0-4_LAYER006
  6
Continuous
 62
     1
100
AcDbLine
 10
1177.709
 20
881.1701000000001
 30
0.0
 11
1207.9598
 21
850.9192999999999
 31
0.0
  0
LINE
  5
B4
330
20
100
AcDbEntity
  8
_0-4_LAYER006
  6
Continuous
 62
     1
100
AcDbLine
 10
1187.4622
 20
885.5590999999998
 30
0.0
 11
1217.713
 21
855.3082999999999
 31
0.0
  0
LINE
  5
B5
330
20
100
AcDbEntity
  8
_0-4_LAYER006
  6
Continuous
 62
     1
100
AcDbLine
 10
1197.2154
 20
889.9480000000002
 30
0.0
 11
1227.4662
 21
859.6971999999999
 31
0.0
  0
LINE
  5
B6
330
20
100
AcDbEntity
  8
_0-4_LAYER006
  6
Continuous
 62
     1
100
AcDbLine
 10
1206.9685
 20
894.3369999999999
 30
0.0
 11
1237.2193
 21
864.0861999999998
 31
0.0
  0
LINE
  5
B7
330
20
100
AcDbEntity
  8
_0-4_LAYER006
  6
Continuous
 62
     1
100
AcDbLine
 10
1216.7217
 20
898.7258999999998
 30
0.0
 11
1246.9725
 21
868.4751000000002
 31
0.0
  0
LINE
  5
B8
330
20
100
AcDbEntity
  8
_0-4_LAYER006
  6
Continuous
 62
     1
100
AcDbLine
 10
1226.4749
 20
903.1147999999999
 30
0.0
 11
1256.7257
 21
872.864
 31
0.0
  0
LINE
  5
B9
330
20
100
AcDbEntity
  8
_0-4_LAYER006
  6
Continuous
 62
     1
100
AcDbLine
 10
1236.2281
 20
907.5037999999999
 30
0.0
 11
1266.4789
 21
877.2529999999997
 31
0.0
  0
LINE
  5
BA
330
20
100
AcDbEntity
  8
_0-4_LAYER006
  6
Continuous
 62
     1
100
AcDbLine
 10
1245.9813
 20
911.8926999999999
 30
0.0
 11
1276.2321
 21
881.6418999999999
 31
0.0
  0
LINE
  5
BB
330
20
100
AcDbEntity
  8
_0-4_LAYER006
  6
Continuous
 62
     1
100
AcDbLine
 10
1255.7345
 20
916.2817
 30
0.0
 11
1285.9853
 21
886.0308999999999
 31
0.0
  0
LINE
  5
BC
330
20
100
AcDbEntity
  8
_0-4_LAYER006
  6
Continuous
 62
     1
100
AcDbLine
 10
1265.4877
 20
920.6706
 30
0.0
 11
1295.7385
 21
890.4197999999999
 31
0.0
  0
LINE
  5
BD
330
20
100
AcDbEntity
  8
_0-4_LAYER006
  6
Continuous
 62
     1
100
AcDbLine
 10
1275.2409
 20
925.0595999999999
 30
0.0
 11
1305.4917
 21
894.8087000000001
 31
0.0
  0
LINE
  5
BE
330
20
100
AcDbEntity
  8
_0-4_LAYER006
  6
Continuous
 62
     1
100
AcDbLine
 10
1284.9941
 20
929.4484999999999
 30
0.0
 11
1315.2449
 21
899.1976999999998
 31
0.0
  0
LINE
  5
BF
330
20
100
AcDbEntity
  8
_0-4_LAYER006
  6
Continuous
 62
     1
100
AcDbLine
 10
1294.7473
 20
933.8373999999999
 30
0.0
 11
1324.9981
 21
903.5866000000002
 31
0.0
  0
LINE
  5
C0
330
20
100
AcDbEntity
  8
_0-4_LAYER006
  6
Continuous
 62
     1
100
AcDbLine
 10
1304.5005
 20
938.2264000000001
 30
0.0
 11
1334.7513
 21
907.9756000000001
 31
0.0
  0
LINE
  5
C1
330
20
100
AcDbEntity
  8
_0-4_LAYER006
  6
Continuous
 62
     1
100
AcDbLine
 10
1314.2537
 20
942.6153000000001
 30
0.0
 11
1344.5045
 21
912.3644999999999
 31
0.0
  0
LINE
  5
C2
330
20
100
AcDbEntity
  8
_0-4_LAYER006
  6
Continuous
 62
     1
100
AcDbLine
 10
1324.0069
 20
947.0043
 30
0.0
 11
1354.2577
 21
916.7535
 31
0.0
  0
LINE
  5
C3
330
20
100
AcDbEntity
  8
_0-4_LAYER006
  6
Continuous
 62
     1
100
AcDbLine
 10
1333.7601
 20
951.3932
 30
0.0
 11
1364.0109
 21
921.1423999999999
 31
0.0
  0
LINE
  5
C4
330
20
100
AcDbEntity
  8
_0-4_LAYER006
  6
Continuous
 62
     1
100
AcDbLine
 10
1343.5132
 20
955.7821999999999
 30
0.0
 11
1373.7641
 21
925.5312999999999
 31
0.0
  0
LINE
  5
C5
330
20
100
AcDbEntity
  8
_0-4_LAYER006
  6
Continuous
 62
     1
100
AcDbLine
 10
1353.2664
 20
960.1710999999999
 30
0.0
 11
1383.5173
 21
929.9203
 31
0.0
  0
LINE
  5
C6
330
20
100
AcDbEntity
  8
_0-4_LAYER006
  6
Continuous
 62
     1
100
AcDbLine
 10
1363.0196
 20
964.5599999999999
 30
0.0
 11
1393.2704
 21
934.3092
 31
0.0
  0
LINE
  5
C7
330
20
100
AcDbEntity
  8
_0-4_LAYER006
  6
Continuous
 62
     1
100
AcDbLine
 10
1372.7728
 20
968.9489999999999
 30
0.0
 11
1403.0236
 21
938.6982000000001
 31
0.0
  0
LINE
  5
C8
330
20
100
AcDbEntity
  8
_0-4_LAYER006
  6
Continuous
 62
     1
100
AcDbLine
 10
1382.526
 20
973.3379000000001
 30
0.0
 11
1412.7768
 21
943.0870999999999
 31
0.0
  0
LINE
  5
C9
330
20
100
AcDbEntity
  8
_0-4_LAYER006
  6
Continuous
 62
     1
100
AcDbLine
 10
1392.2792
 20
977.7269
 30
0.0
 11
1422.529999999999
 21
947.4759999999999
 31
0.0
  0
LINE
  5
CA
330
20
100
AcDbEntity
  8
_0-4_LAYER006
  6
Continuous
 62
     1
100
AcDbLine
 10
1402.0324
 20
982.1158
 30
0.0
 11
1432.2832
 21
951.865
 31
0.0
  0
LINE
  5
CB
330
20
100
AcDbEntity
  8
_0-4_LAYER006
  6
Continuous
 62
     1
100
AcDbLine
 10
1411.7856
 20
986.5047999999999
 30
0.0
 11
1442.0364
 21
956.2539000000001
 31
0.0
  0
LINE
  5
CC
330
20
100
AcDbEntity
  8
_0-4_LAYER006
  6
Continuous
 62
     1
100
AcDbLine
 10
1421.538800000001
 20
990.8936999999999
 30
0.0
 11
1451.7896
 21
960.6429
 31
0.0
  0
LINE
  5
CD
330
20
100
AcDbEntity
  8
_0-4_LAYER006
  6
Continuous
 62
     1
100
AcDbLine
 10
1431.292
 20
995.2825999999999
 30
0.0
 11
1461.5428
 21
965.0318
 31
0.0
  0
LINE
  5
CE
330
20
100
AcDbEntity
  8
_0-4_LAYER006
  6
Continuous
 62
     1
100
AcDbLine
 10
1441.0452
 20
999.6716000000001
 30
0.0
 11
1471.295999999999
 21
969.4207999999999
 31
0.0
  0
LINE
  5
CF
330
20
100
AcDbEntity
  8
_0-4_LAYER006
  6
Continuous
 62
     1
100
AcDbLine
 10
1450.7984
 20
1004.0605
 30
0.0
 11
1481.0492
 21
973.8096999999999
 31
0.0
  0
LINE
  5
D0
330
20
100
AcDbEntity
  8
_0-4_LAYER006
  6
Continuous
 62
     1
100
AcDbLine
 10
1460.5516
 20
1008.4495
 30
0.0
 11
1490.8024
 21
978.1986000000001
 31
0.0
  0
LINE
  5
D1
330
20
100
AcDbEntity
  8
_0-4_LAYER006
  6
Continuous
 62
     1
100
AcDbLine
 10
1470.3048
 20
1012.8384
 30
0.0
 11
1500.5556
 21
982.5875999999999
 31
0.0
  0
LINE
  5
D2
330
20
100
AcDbEntity
  8
_0-4_LAYER006
  6
Continuous
 62
     1
100
AcDbLine
 10
1480.0579
 20
1017.2274
 30
0.0
 11
1510.308799999999
 21
986.9765000000001
 31
0.0
  0
LINE
  5
D3
330
20
100
AcDbEntity
  8
_0-4_LAYER006
  6
Continuous
 62
     1
100
AcDbLine
 10
1489.8111
 20
1021.6163
 30
0.0
 11
1520.062
 21
991.3655
 31
0.0
  0
LINE
  5
D4
330
20
100
AcDbEntity
  8
_0-4_LAYER006
  6
Continuous
 62
     1
100
AcDbLine
 10
1499.5643
 20
1026.0052
 30
0.0
 11
1529.8152
 21
995.7544
 31
0.0
  0
LINE
  5
D5
330
20
100
AcDbEntity
  8
_0-4_LAYER006
  6
Continuous
 62
     1
100
AcDbLine
 10
1509.3175
 20
1030.3942
 30
0.0
 11
1539.5684
 21
1000.1434
 31
0.0
  0
LINE
  5
D6
330
20
100
AcDbEntity
  8
_0-4_LAYER006
  6
Continuous
 62
     1
100
AcDbLine
 10
1519.0707
 20
1034.7831
 30
0.0
 11
1549.3215
 21
1004.5323
 31
0.0
  0
LINE
  5
D7
330
20
100
AcDbEntity
  8
_0-4_LAYER006
  6
Continuous
 62
     1
100
AcDbLine
 10
1528.8239
 20
1039.1721
 30
0.0
 11
1559.0747
 21
1008.9212
 31
0.0
  0
LINE
  5
D8
330
20
100
AcDbEntity
  8
_0-4_LAYER006
  6
Continuous
 62
     1
100
AcDbLine
 10
1538.5771
 20
1043.561
 30
0.0
 11
1568.8279
 21
1013.3102
 31
0.0
  0
LINE
  5
D9
330
20
100
AcDbEntity
  8
_0-4_LAYER006
  6
Continuous
 62
     1
100
AcDbLine
 10
1548.3303
 20
1047.95
 30
0.0
 11
1578.5811
 21
1017.6991
 31
0.0
  0
LINE
  5
DA
330
20
100
AcDbEntity
  8
_0-4_LAYER006
  6
Continuous
 62
     1
100
AcDbLine
 10
1558.0835
 20
1052.3389
 30
0.0
 11
1588.3343
 21
1022.0881
 31
0.0
  0
LINE
  5
DB
330
20
100
AcDbEntity
  8
_0-4_LAYER006
  6
Continuous
 62
     1
100
AcDbLine
 10
1567.836699999999
 20
1056.7278
 30
0.0
 11
1598.0875
 21
1026.477
 31
0.0
  0
LINE
  5
DC
330
20
100
AcDbEntity
  8
_0-4_LAYER006
  6
Continuous
 62
     1
100
AcDbLine
 10
1577.5899
 20
1061.1168
 30
0.0
 11
1607.8407
 21
1030.8659
 31
0.0
  0
LINE
  5
DD
330
20
100
AcDbEntity
  8
_0-4_LAYER006
  6
Continuous
 62
     1
100
AcDbLine
 10
1587.3431
 20
1065.5057
 30
0.0
 11
1617.593899999999
 21
1035.2549
 31
0.0
  0
LINE
  5
DE
330
20
100
AcDbEntity
  8
_0-4_LAYER006
  6
Continuous
 62
     1
100
AcDbLine
 10
1597.0963
 20
1069.8947
 30
0.0
 11
1627.3471
 21
1039.6438
 31
0.0
  0
LINE
  5
DF
330
20
100
AcDbEntity
  8
_0-4_LAYER006
  6
Continuous
 62
     1
100
AcDbLine
 10
1606.8495
 20
1074.2836
 30
0.0
 11
1637.1003
 21
1044.0328
 31
0.0
  0
LINE
  5
E0
330
20
100
AcDbEntity
  8
_0-4_LAYER006
  6
Continuous
 62
     1
100
AcDbLine
 10
1616.6026
 20
1078.6726
 30
0.0
 11
1646.8535
 21
1048.4217
 31
0.0
  0
LINE
  5
E1
330
20
100
AcDbEntity
  8
_0-4_LAYER006
  6
Continuous
 62
     1
100
AcDbLine
 10
1626.355799999999
 20
1083.0615
 30
0.0
 11
1656.6067
 21
1052.8107
 31
0.0
  0
LINE
  5
E2
330
20
100
AcDbEntity
  8
_0-4_LAYER006
  6
Continuous
 62
     1
100
AcDbLine
 10
1636.109
 20
1087.4504
 30
0.0
 11
1666.359899999999
 21
1057.1996
 31
0.0
  0
LINE
  5
E3
330
20
100
AcDbEntity
  8
_0-4_LAYER006
  6
Continuous
 62
     1
100
AcDbLine
 10
1645.8622
 20
1091.8394
 30
0.0
 11
1676.1131
 21
1061.5885
 31
0.0
  0
LINE
  5
E4
330
20
100
AcDbEntity
  8
_0-4_LAYER006
  6
Continuous
 62
     1
100
AcDbLine
 10
1655.6154
 20
1096.2283
 30
0.0
 11
1685.8663
 21
1065.9775
 31
0.0
  0
LINE
  5
E5
330
20
100
AcDbEntity
  8
_0-4_LAYER006
  6
Continuous
 62
     1
100
AcDbLine
 10
1665.3686
 20
1100.6173
 30
0.0
 11
1695.6194
 21
1070.3664
 31
0.0
  0
LINE
  5
E6
330
20
100
AcDbEntity
  8
_0-4_LAYER006
  6
Continuous
 62
     1
100
AcDbLine
 10
1675.1218
 20
1105.0062
 30
0.0
 11
1705.3726
 21
1074.7554
 31
0.0
  0
LINE
  5
E7
330
20
100
AcDbEntity
  8
_0-4_LAYER006
  6
Continuous
 62
     1
100
AcDbLine
 10
1684.875
 20
1109.3952
 30
0.0
 11
1715.1258
 21
1079.1443
 31
0.0
  0
LINE
  5
E8
330
20
100
AcDbEntity
  8
_0-4_LAYER006
  6
Continuous
 62
     1
100
AcDbLine
 10
1694.6282
 20
1113.7841
 30
0.0
 11
1724.879
 21
1083.5333
 31
0.0
  0
LINE
  5
E9
330
20
100
AcDbEntity
  8
_0-4_LAYER006
  6
Continuous
 62
     1
100
AcDbLine
 10
1704.3814
 20
1118.173
 30
0.0
 11
1734.6322
 21
1087.9222
 31
0.0
  0
LINE
  5
EA
330
20
100
AcDbEntity
  8
_0-4_LAYER006
  6
Continuous
 62
     1
100
AcDbLine
 10
1714.1346
 20
1122.562
 30
0.0
 11
1744.3854
 21
1092.3111
 31
0.0
  0
LINE
  5
EB
330
20
100
AcDbEntity
  8
_0-4_LAYER006
  6
Continuous
 62
     1
100
AcDbLine
 10
1723.8878
 20
1126.9509
 30
0.0
 11
1754.1386
 21
1096.7001
 31
0.0
  0
LINE
  5
EC
330
20
100
AcDbEntity
  8
_0-4_LAYER006
  6
Continuous
 62
     1
100
AcDbLine
 10
1733.641
 20
1131.3399
 30
0.0
 11
1763.8918
 21
1101.089
 31
0.0
  0
LINE
  5
ED
330
20
100
AcDbEntity
  8
_0-4_LAYER006
  6
Continuous
 62
     1
100
AcDbLine
 10
1743.3941
 20
1135.7288
 30
0.0
 11
1773.645
 21
1105.478
 31
0.0
  0
LINE
  5
EE
330
20
100
AcDbEntity
  8
_0-4_LAYER006
  6
Continuous
 62
     1
100
AcDbLine
 10
1753.1473
 20
1140.1178
 30
0.0
 11
1783.3982
 21
1109.8669
 31
0.0
  0
LINE
  5
EF
330
20
100
AcDbEntity
  8
_0-4_LAYER006
  6
Continuous
 62
     1
100
AcDbLine
 10
1762.9005
 20
1144.5067
 30
0.0
 11
1793.1514
 21
1114.2558
 31
0.0
  0
LINE
  5
F0
330
20
100
AcDbEntity
  8
_0-4_LAYER006
  6
Continuous
 62
     1
100
AcDbLine
 10
1772.6537
 20
1148.8956
 30
0.0
 11
1802.9046
 21
1118.6448
 31
0.0
  0
LINE
  5
F1
330
20
100
AcDbEntity
  8
_0-4_LAYER006
  6
Continuous
 62
     1
100
AcDbLine
 10
1782.4069
 20
1153.2846
 30
0.0
 11
1812.6578
 21
1123.0337
 31
0.0
  0
LINE
  5
F2
330
20
100
AcDbEntity
  8
_0-4_LAYER006
  6
Continuous
 62
     1
100
AcDbLine
 10
1792.1601
 20
1157.6735
 30
0.0
 11
1822.411
 21
1127.4227
 31
0.0
  0
LINE
  5
F3
330
20
100
AcDbEntity
  8
_0-4_LAYER006
  6
Continuous
 62
     1
100
AcDbLine
 10
1801.9133
 20
1162.0625
 30
0.0
 11
1832.1642
 21
1131.8116
 31
0.0
  0
LINE
  5
F4
330
20
100
AcDbEntity
  8
_0-4_LAYER006
  6
Continuous
 62
     1
100
AcDbLine
 10
1811.6665
 20
1166.4514
 30
0.0
 11
1841.9174
 21
1136.2006
 31
0.0
  0
LINE
  5
F5
330
20
100
AcDbEntity
  8
_0-4_LAYER006
  6
Continuous
 62
     1
100
AcDbLine
 10
1821.4197
 20
1170.8404
 30
0.0
 11
1851.6705
 21
1140.5895
 31
0.0
  0
LINE
  5
F6
330
20
100
AcDbEntity
  8
_0-4_LAYER006
  6
Continuous
 62
     1
100
AcDbLine
 10
1831.1729
 20
1175.2293
 30
0.0
 11
1861.4237
 21
1144.9784
 31
0.0
  0
LINE
  5
F7
330
20
100
AcDbEntity
  8
_0-4_LAYER006
  6
Continuous
 62
     1
100
AcDbLine
 10
1840.9261
 20
1179.6182
 30
0.0
 11
1871.1769
 21
1149.3674
 31
0.0
  0
LINE
  5
F8
330
20
100
AcDbEntity
  8
_0-4_LAYER006
  6
Continuous
 62
     1
100
AcDbLine
 10
1850.6793
 20
1184.0072
 30
0.0
 11
1880.9301
 21
1153.7563
 31
0.0
  0
LINE
  5
F9
330
20
100
AcDbEntity
  8
_0-4_LAYER006
  6
Continuous
 62
     1
100
AcDbLine
 10
1860.4325
 20
1188.3961
 30
0.0
 11
1890.6833
 21
1158.1453
 31
0.0
  0
LINE
  5
FA
330
20
100
AcDbEntity
  8
_0-4_LAYER006
  6
Continuous
 62
     1
100
AcDbLine
 10
1870.1857
 20
1192.7851
 30
0.0
 11
1900.4365
 21
1162.5342
 31
0.0
  0
LINE
  5
FB
330
20
100
AcDbEntity
  8
_0-4_LAYER006
  6
Continuous
 62
     1
100
AcDbLine
 10
1879.9388
 20
1197.174
 30
0.0
 11
1910.1897
 21
1166.9231
 31
0.0
  0
LINE
  5
FC
330
20
100
AcDbEntity
  8
_0-4_LAYER006
  6
Continuous
 62
     1
100
AcDbLine
 10
1889.692
 20
1201.563
 30
0.0
 11
1919.9429
 21
1171.3121
 31
0.0
  0
LINE
  5
FD
330
20
100
AcDbEntity
  8
_0-4_LAYER006
  6
Continuous
 62
     1
100
AcDbLine
 10
1899.4452
 20
1205.9519
 30
0.0
 11
1929.6961
 21
1175.701
 31
0.0
  0
LINE
  5
FE
330
20
100
AcDbEntity
  8
_0-4_LAYER006
  6
Continuous
 62
     1
100
AcDbLine
 10
1909.1984
 20
1210.3408
 30
0.0
 11
1939.4493
 21
1180.09
 31
0.0
  0
LINE
  5
FF
330
20
100
AcDbEntity
  8
_0-4_LAYER006
  6
Continuous
 62
     1
100
AcDbLine
 10
1918.9516
 20
1214.7298
 30
0.0
 11
1949.2025
 21
1184.4789
 31
0.0
  0
LINE
  5
100
330
20
100
AcDbEntity
  8
_0-4_LAYER006
  6
Continuous
 62
     1
100
AcDbLine
 10
1928.7048
 20
1219.1187
 30
0.0
 11
1958.9557
 21
1188.8679
 31
0.0
  0
LINE
  5
101
330
20
100
AcDbEntity
  8
_0-4_LAYER006
  6
Continuous
 62
     1
100
AcDbLine
 10
1938.458
 20
1223.5077
 30
0.0
 11
1968.7089
 21
1193.2568
 31
0.0
  0
LINE
  5
102
330
20
100
AcDbEntity
  8
_0-4_LAYER006
  6
Continuous
 62
     1
100
AcDbLine
 10
1948.2112
 20
1227.8966
 30
0.0
 11
1978.4621
 21
1197.6457
 31
0.0
  0
LINE
  5
103
330
20
100
AcDbEntity
  8
_0-4_LAYER006
  6
Continuous
 62
     1
100
AcDbLine
 10
1957.9644
 20
1232.2856
 30
0.0
 11
1988.2153
 21
1202.0347
 31
0.0
  0
LINE
  5
104
330
20
100
AcDbEntity
  8
_0-4_LAYER006
  6
Continuous
 62
     1
100
AcDbLine
 10
1967.7176
 20
1236.6745
 30
0.0
 11
1997.9685
 21
1206.4236
 31
0.0
  0
LINE
  5
105
330
20
100
AcDbEntity
  8
_0-4_LAYER006
  6
Continuous
 62
     1
100
AcDbLine
 10
1977.4708
 20
1241.0634
 30
0.0
 11
2007.7216
 21
1210.8126
 31
0.0
  0
LINE
  5
106
330
20
100
AcDbEntity
  8
_0-4_LAYER006
  6
Continuous
 62
     1
100
AcDbLine
 10
1987.224
 20
1245.4524
 30
0.0
 11
2017.4748
 21
1215.2015
 31
0.0
  0
LINE
  5
107
330
20
100
AcDbEntity
  8
_0-4_LAYER006
  6
Continuous
 62
     1
100
AcDbLine
 10
1996.9772
 20
1249.8413
 30
0.0
 11
2027.228
 21
1219.5905
 31
0.0
  0
LINE
  5
108
330
20
100
AcDbEntity
  8
_0-4_LAYER006
  6
Continuous
 62
     1
100
AcDbLine
 10
2006.7304
 20
1254.2303
 30
0.0
 11
2036.9812
 21
1223.9794
 31
0.0
  0
LINE
  5
109
330
20
100
AcDbEntity
  8
_0-4_LAYER006
  6
Continuous
 62
     1
100
AcDbLine
 10
2016.4835
 20
1258.6192
 30
0.0
 11
2046.7344
 21
1228.3683
 31
0.0
  0
LINE
  5
10A
330
20
100
AcDbEntity
  8
_0-4_LAYER006
  6
Continuous
 62
     1
100
AcDbLine
 10
2026.2367
 20
1263.0082
 30
0.0
 11
2056.4876
 21
1232.7573
 31
0.0
  0
LINE
  5
10B
330
20
100
AcDbEntity
  8
_0-4_LAYER006
  6
Continuous
 62
     1
100
AcDbLine
 10
2035.9899
 20
1267.3971
 30
0.0
 11
2066.2408
 21
1237.1462
 31
0.0
  0
LINE
  5
10C
330
20
100
AcDbEntity
  8
_0-4_LAYER006
  6
Continuous
 62
     1
100
AcDbLine
 10
2045.7431
 20
1271.786
 30
0.0
 11
2075.994
 21
1241.5352
 31
0.0
  0
LINE
  5
10D
330
20
100
AcDbEntity
  8
_0-4_LAYER006
  6
Continuous
 62
     1
100
AcDbLine
 10
2055.4963
 20
1276.175
 30
0.0
 11
2085.7472
 21
1245.9241
 31
0.0
  0
LINE
  5
10E
330
20
100
AcDbEntity
  8
_0-4_LAYER006
  6
Continuous
 62
     1
100
AcDbLine
 10
2065.2495
 20
1280.5639
 30
0.0
 11
2095.5004
 21
1250.313
 31
0.0
  0
LINE
  5
10F
330
20
100
AcDbEntity
  8
_0-4_LAYER006
  6
Continuous
 62
     1
100
AcDbLine
 10
2075.0027
 20
1284.9529
 30
0.0
 11
2099.801
 21
1260.1546
 31
0.0
  0
LINE
  5
110
330
20
100
AcDbEntity
  8
_0-4_LAYER006
  6
Continuous
 62
     1
100
AcDbLine
 10
2084.7559
 20
1289.3418
 30
0.0
 11
2088.2301
 21
1285.8676
 31
0.0
  0
LINE
  5
111
330
20
100
AcDbEntity
  8
_0-0_LAYER001
  6
Continuous
 62
     2
100
AcDbLine
 10
1265.6389
 20
928.3108999999999
 30
0.0
 11
1292.9959
 21
940.6233
 31
0.0
  0
LINE
  5
112
330
20
100
AcDbEntity
  8
_0-0_LAYER001
  6
Continuous
 62
     2
100
AcDbLine
 10
1292.9959
 20
940.6233
 30
0.0
 11
1286.8397
 21
954.3018
 31
0.0
  0
LINE
  5
113
330
20
100
AcDbEntity
  8
_0-0_LAYER001
  6
Continuous
 62
     2
100
AcDbLine
 10
1286.8397
 20
954.3018
 30
0.0
 11
1259.4827
 21
941.9894000000001
 31
0.0
  0
LINE
  5
114
330
20
100
AcDbEntity
  8
_0-0_LAYER001
  6
Continuous
 62
     2
100
AcDbLine
 10
1259.4827
 20
941.9894000000001
 30
0.0
 11
1265.6389
 21
928.3108999999999
 31
0.0
  0
LINE
  5
115
330
20
100
AcDbEntity
  8
_0-0_LAYER001
  6
Continuous
 62
     2
100
AcDbLine
 10
1286.8397
 20
954.3018
 30
0.0
 11
1265.6389
 21
928.3108999999999
 31
0.0
  0
LINE
  5
116
330
20
100
AcDbEntity
  8
_0-0_LAYER001
  6
Continuous
 62
     4
100
AcDbLine
 10
1301.4289
 20
946.6832
 30
0.0
 11
1291.0836
 21
975.0135
 31
0.0
  0
LINE
  5
117
330
20
100
AcDbEntity
  8
_0-0_LAYER001
  6
Continuous
 62
     2
100
AcDbLine
 10
1480.8473
 20
1025.1683
 30
0.0
 11
1508.2043
 21
1037.4807
 31
0.0
  0
LINE
  5
118
330
20
100
AcDbEntity
  8
_0-0_LAYER001
  6
Continuous
 62
     2
100
AcDbLine
 10
1508.2043
 20
1037.4807
 30
0.0
 11
1502.0481
 21
1051.1592
 31
0.0
  0
LINE
  5
119
330
20
100
AcDbEntity
  8
_0-0_LAYER001
  6
Continuous
 62
     2
100
AcDbLine
 10
1502.0481
 20
1051.1592
 30
0.0
 11
1474.6911
 21
1038.8468
 31
0.0
  0
LINE
  5
11A
330
20
100
AcDbEntity
  8
_0-0_LAYER001
  6
Continuous
 62
     2
100
AcDbLine
 10
1474.6911
 20
1038.8468
 30
0.0
 11
1480.8473
 21
1025.1683
 31
0.0
  0
LINE
  5
11B
330
20
100
AcDbEntity
  8
_0-0_LAYER001
  6
Continuous
 62
     2
100
AcDbLine
 10
1502.0481
 20
1051.1592
 30
0.0
 11
1480.8473
 21
1025.1683
 31
0.0
  0
LINE
  5
11C
330
20
100
AcDbEntity
  8
_0-0_LAYER001
  6
Continuous
 62
     4
100
AcDbLine
 10
1516.2754
 20
1043.4377
 30
0.0
 11
1505.9302
 21
1071.768
 31
0.0
  0
LINE
  5
11D
330
20
100
AcDbEntity
  8
_0-0_LAYER001
  6
Continuous
 62
     2
100
AcDbLine
 10
1696.0557
 20
1122.0257
 30
0.0
 11
1723.4126
 21
1134.3381
 31
0.0
  0
LINE
  5
11E
330
20
100
AcDbEntity
  8
_0-0_LAYER001
  6
Continuous
 62
     2
100
AcDbLine
 10
1723.4126
 20
1134.3381
 30
0.0
 11
1717.2565
 21
1148.0166
 31
0.0
  0
LINE
  5
11F
330
20
100
AcDbEntity
  8
_0-0_LAYER001
  6
Continuous
 62
     2
100
AcDbLine
 10
1717.2565
 20
1148.0166
 30
0.0
 11
1689.8995
 21
1135.7042
 31
0.0
  0
LINE
  5
120
330
20
100
AcDbEntity
  8
_0-0_LAYER001
  6
Continuous
 62
     2
100
AcDbLine
 10
1689.8995
 20
1135.7042
 30
0.0
 11
1696.0557
 21
1122.0257
 31
0.0
  0
LINE
  5
121
330
20
100
AcDbEntity
  8
_0-0_LAYER001
  6
Continuous
 62
     2
100
AcDbLine
 10
1717.2565
 20
1148.0166
 30
0.0
 11
1696.0557
 21
1122.0257
 31
0.0
  0
LINE
  5
122
330
20
100
AcDbEntity
  8
_0-0_LAYER001
  6
Continuous
 62
     4
100
AcDbLine
 10
1731.121999999999
 20
1140.1923
 30
0.0
 11
1720.7767
 21
1168.5226
 31
0.0
  0
LINE
  5
123
330
20
100
AcDbEntity
  8
_0-0_LAYER001
  6
Continuous
 62
     2
100
AcDbLine
 10
1911.264
 20
1218.8831
 30
0.0
 11
1938.621
 21
1231.1954
 31
0.0
  0
LINE
  5
124
330
20
100
AcDbEntity
  8
_0-0_LAYER001
  6
Continuous
 62
     2
100
AcDbLine
 10
1938.621
 20
1231.1954
 30
0.0
 11
1932.4648
 21
1244.8739
 31
0.0
  0
LINE
  5
125
330
20
100
AcDbEntity
  8
_0-0_LAYER001
  6
Continuous
 62
     2
100
AcDbLine
 10
1932.4648
 20
1244.8739
 30
0.0
 11
1905.1078
 21
1232.5616
 31
0.0
  0
LINE
  5
126
330
20
100
AcDbEntity
  8
_0-0_LAYER001
  6
Continuous
 62
     2
100
AcDbLine
 10
1905.1078
 20
1232.5616
 30
0.0
 11
1911.264
 21
1218.8831
 31
0.0
  0
LINE
  5
127
330
20
100
AcDbEntity
  8
_0-0_LAYER001
  6
Continuous
 62
     2
100
AcDbLine
 10
1932.4648
 20
1244.8739
 30
0.0
 11
1911.264
 21
1218.8831
 31
0.0
  0
LINE
  5
128
330
20
100
AcDbEntity
  8
_0-0_LAYER001
  6
Continuous
 62
     4
100
AcDbLine
 10
1945.9685
 20
1236.9469
 30
0.0
 11
1935.6232
 21
1265.2771
 31
0.0
  0
LINE
  5
129
330
20
100
AcDbEntity
  8
_0-0_LAYER001
  6
Continuous
 62
     4
100
AcDbLine
 10
1945.9685
 20
1236.9469
 30
0.0
 11
1938.1687
 21
1234.117
 31
0.0
  0
LINE
  5
12A
330
20
100
AcDbEntity
  8
_0-0_LAYER001
  6
Continuous
 62
     4
100
AcDbLine
 10
1933.9124
 20
1245.8488
 30
0.0
 11
1938.1687
 21
1234.117
 31
0.0
  0
LINE
  5
12B
330
20
100
AcDbEntity
  8
_0-0_LAYER001
  6
Continuous
 62
     4
100
AcDbLine
 10
1731.121999999999
 20
1140.1923
 30
0.0
 11
1722.9694
 21
1137.2345
 31
0.0
  0
LINE
  5
12C
330
20
100
AcDbEntity
  8
_0-0_LAYER001
  6
Continuous
 62
     4
100
AcDbLine
 10
1718.7131
 20
1148.9663
 30
0.0
 11
1722.9694
 21
1137.2345
 31
0.0
  0
LINE
  5
12D
330
20
100
AcDbEntity
  8
_0-0_LAYER001
  6
Continuous
 62
     4
100
AcDbLine
 10
1516.2754
 20
1043.4377
 30
0.0
 11
1507.7702
 21
1040.352
 31
0.0
  0
LINE
  5
12E
330
20
100
AcDbEntity
  8
_0-0_LAYER001
  6
Continuous
 62
     4
100
AcDbLine
 10
1503.5138
 20
1052.0838
 30
0.0
 11
1507.7702
 21
1040.352
 31
0.0
  0
LINE
  5
12F
330
20
100
AcDbEntity
  8
_0-0_LAYER001
  6
Continuous
 62
     4
100
AcDbLine
 10
1873.592
 20
1261.5796
 30
0.0
 11
2067.5017
 21
1331.9306
 31
0.0
  0
LINE
  5
130
330
20
100
AcDbEntity
  8
_0-0_LAYER001
  6
Continuous
 62
     4
100
AcDbLine
 10
1856.2721
 20
1309.3188
 30
0.0
 11
2046.6033
 21
1378.3715
 31
0.0
  0
LINE
  5
131
330
20
100
AcDbEntity
  8
_0-0_LAYER001
  6
Continuous
 62
     4
100
AcDbLine
 10
1047.9408
 20
867.9928999999999
 30
0.0
 11
1288.3146
 21
955.2011999999999
 31
0.0
  0
LINE
  5
132
330
20
100
AcDbEntity
  8
_0-0_LAYER001
  6
Continuous
 62
     4
100
AcDbLine
 10
1301.4289
 20
946.6832
 30
0.0
 11
1292.5709
 21
943.4695000000001
 31
0.0
  0
LINE
  5
133
330
20
100
AcDbEntity
  8
_0-0_LAYER001
  6
Continuous
 62
     4
100
AcDbLine
 10
1288.3146
 20
955.2011999999999
 30
0.0
 11
1292.5709
 21
943.4695000000001
 31
0.0
  0
ARC
  5
134
330
20
100
AcDbEntity
  8
_0-0_LAYER001
  6
Continuous
 62
     4
100
AcDbCircle
 10
1447.4205
 20
1058.2849
 30
0.0
 40
10.4
100
AcDbArc
 50
109.94091
 51
199.94091
  0
ARC
  5
135
330
20
100
AcDbEntity
  8
_0-0_LAYER001
  6
Continuous
 62
     4
100
AcDbCircle
 10
1662.266999999999
 20
1155.0394
 30
0.0
 40
10.4
100
AcDbArc
 50
109.94091
 51
199.94091
  0
ARC
  5
136
330
20
100
AcDbEntity
  8
_0-0_LAYER001
  6
Continuous
 62
     4
100
AcDbCircle
 10
1877.1136
 20
1251.794
 30
0.0
 40
10.4
100
AcDbArc
 50
109.94091
 51
199.94091
  0
ARC
  5
137
330
20
100
AcDbEntity
  8
_0-0_LAYER001
  6
Continuous
 62
     4
100
AcDbCircle
 10
1232.5739
 20
961.5303
 30
0.0
 40
10.4
100
AcDbArc
 50
109.94091
 51
199.94091
  0
ARC
  5
138
330
20
100
AcDbEntity
  8
_0-0_LAYER001
  6
Continuous
 62
     4
100
AcDbCircle
 10
981.8431
 20
1032.2967
 30
0.0
 40
108.38132
100
AcDbArc
 50
268.6924
 51
288.42794
  0
LINE
  5
139
330
20
100
AcDbEntity
  8
_0-0_LAYER001
  6
Continuous
 62
     4
100
AcDbLine
 10
1034.8263
 20
843.5141000000001
 30
0.0
 11
1040.3203
 21
820.9749999999997
 31
0.0
  0
ARC
  5
13A
330
20
100
AcDbEntity
  8
_0-0_LAYER001
  6
Continuous
 62
     4
100
AcDbCircle
 10
1055.0346
 20
848.44
 30
0.0
 40
20.8
100
AcDbArc
 50
109.94091
 51
193.69899
  0
LINE
  5
13B
330
20
100
AcDbEntity
  8
_0-0_LAYER001
  6
Continuous
 62
     4
100
AcDbLine
 10
1209.0245
 20
995.9461000000001
 30
0.0
 11
1225.2803
 21
951.1399
 31
0.0
  0
ARC
  5
13C
330
20
100
AcDbEntity
  8
_0-0_LAYER001
  6
Continuous
 62
     4
100
AcDbCircle
 10
1228.5774
 20
1003.0399
 30
0.0
 40
20.8
100
AcDbArc
 50
109.94091
 51
199.94091
  0
LINE
  5
13D
330
20
100
AcDbEntity
  8
_0-0_LAYER001
  6
Continuous
 62
     4
100
AcDbLine
 10
1720.7767
 20
1168.5226
 30
0.0
 11
1933.9124
 21
1245.8488
 31
0.0
  0
LINE
  5
13E
330
20
100
AcDbEntity
  8
_0-0_LAYER001
  6
Continuous
 62
     4
100
AcDbLine
 10
1016.1711
 20
929.2870999999999
 30
0.0
 11
1207.8641
 21
998.8339000000001
 31
0.0
  0
LINE
  5
13F
330
20
100
AcDbEntity
  8
_0-0_LAYER001
  6
Continuous
 62
     4
100
AcDbLine
 10
1221.4836
 20
1022.5928
 30
0.0
 11
1422.7073
 21
1095.5974
 31
0.0
  0
ARC
  5
140
330
20
100
AcDbEntity
  8
_0-0_LAYER001
  6
Continuous
 62
     4
100
AcDbCircle
 10
1430.1006
 20
1106.024
 30
0.0
 40
10.4
100
AcDbArc
 50
109.94091
 51
199.94091
  0
LINE
  5
141
330
20
100
AcDbEntity
  8
_0-0_LAYER001
  6
Continuous
 62
     4
100
AcDbLine
 10
1420.3241
 20
1102.4771
 30
0.0
 11
1440.1269
 21
1047.8944
 31
0.0
  0
LINE
  5
142
330
20
100
AcDbEntity
  8
_0-0_LAYER001
  6
Continuous
 62
     4
100
AcDbLine
 10
1429.9008
 20
1076.0806
 30
0.0
 11
1440.1269
 21
1047.8944
 31
0.0
  0
LINE
  5
143
330
20
100
AcDbEntity
  8
_0-0_LAYER001
  6
Continuous
 62
     4
100
AcDbLine
 10
1229.027
 20
971.3067999999999
 30
0.0
 11
1718.7131
 21
1148.9663
 31
0.0
  0
LINE
  5
144
330
20
100
AcDbEntity
  8
_0-0_LAYER001
  6
Continuous
 62
     4
100
AcDbLine
 10
1426.5537
 20
1115.8005
 30
0.0
 11
1637.5539
 21
1192.3519
 31
0.0
  0
ARC
  5
145
330
20
100
AcDbEntity
  8
_0-0_LAYER001
  6
Continuous
 62
     4
100
AcDbCircle
 10
1644.9471
 20
1202.7786
 30
0.0
 40
10.4
100
AcDbArc
 50
109.94091
 51
199.94091
  0
LINE
  5
146
330
20
100
AcDbEntity
  8
_0-0_LAYER001
  6
Continuous
 62
     4
100
AcDbLine
 10
1635.170699999999
 20
1199.2316
 30
0.0
 11
1654.9734
 21
1144.649
 31
0.0
  0
LINE
  5
147
330
20
100
AcDbEntity
  8
_0-0_LAYER001
  6
Continuous
 62
     4
100
AcDbLine
 10
1635.170699999999
 20
1199.2316
 30
0.0
 11
1654.9734
 21
1144.649
 31
0.0
  0
LINE
  5
148
330
20
100
AcDbEntity
  8
_0-0_LAYER001
  6
Continuous
 62
     4
100
AcDbLine
 10
1443.8736
 20
1068.0613
 30
0.0
 11
1720.7767
 21
1168.5226
 31
0.0
  0
LINE
  5
149
330
20
100
AcDbEntity
  8
_0-0_LAYER001
  6
Continuous
 62
     4
100
AcDbLine
 10
1642.3314
 20
1212.8929
 30
0.0
 11
1852.4004
 21
1289.1065
 31
0.0
  0
LINE
  5
14A
330
20
100
AcDbEntity
  8
_0-0_LAYER001
  6
Continuous
 62
     4
100
AcDbLine
 10
1856.047
 20
1279.3662
 30
0.0
 11
1869.82
 21
1241.4035
 31
0.0
  0
LINE
  5
14B
330
20
100
AcDbEntity
  8
_0-0_LAYER001
  6
Continuous
 62
     4
100
AcDbLine
 10
1658.7201
 20
1164.8159
 30
0.0
 11
2074.7773
 21
1315.7626
 31
0.0
  0
LINE
  5
14C
330
20
100
AcDbEntity
  8
_0-0_LAYER001
  6
Continuous
 62
     4
100
AcDbLine
 10
1850.0172
 20
1295.9862
 30
0.0
 11
1869.82
 21
1241.4035
 31
0.0
  0
ARC
  5
14D
330
20
100
AcDbEntity
  8
_0-0_LAYER001
  6
Continuous
 62
     4
100
AcDbCircle
 10
1859.7937
 20
1299.5331
 30
0.0
 40
10.4
100
AcDbArc
 50
109.94091
 51
199.94091
  0
LINE
  5
14E
330
20
100
AcDbEntity
  8
_0-0_LAYER001
  6
Continuous
 62
     4
100
AcDbLine
 10
979.5552
 20
923.7649000000001
 30
0.0
 11
1009.6258
 21
827.3529000000001
 31
0.0
  0
ARC
  5
14F
330
20
100
AcDbEntity
  8
_0-0_LAYER001
  6
Continuous
 62
     4
100
AcDbCircle
 10
1167.2355
 20
930.1838
 30
0.0
 40
188.27051
100
AcDbArc
 50
181.81043
 51
212.85046
  0
LINE
  5
150
330
20
100
AcDbEntity
  8
_0-0_LAYER001
  6
Continuous
 62
     4
100
AcDbLine
 10
1008.2009
 20
872.4477999999997
 30
0.0
 11
1008.1227
 21
871.7741000000001
 31
0.0
  0
LINE
  5
151
330
20
100
AcDbEntity
  8
_0-0_LAYER001
  6
Continuous
 62
     4
100
AcDbLine
 10
1503.5138
 20
1052.0838
 30
0.0
 11
1007.9867
 21
872.3050999999999
 31
0.0
  0
LINE
  5
152
330
20
100
AcDbEntity
  8
_0-0_LAYER001
  6
Continuous
 62
     4
100
AcDbLine
 10
1009.6258
 20
827.3529000000001
 30
0.0
 11
1020.0605
 21
831.1386
 31
0.0
  0
LINE
  5
153
330
20
100
AcDbEntity
  8
_0-0_LAYER001
  6
Continuous
 62
     4
100
AcDbLine
 10
1007.9867
 20
872.3050999999999
 30
0.0
 11
1024.7031
 21
815.3089999999998
 31
0.0
  0
LINE
  5
154
330
20
100
AcDbEntity
  8
_0-0_LAYER001
  6
Continuous
 62
     4
100
AcDbLine
 10
1040.3203
 20
820.9749999999997
 30
0.0
 11
1024.7031
 21
815.3089999999998
 31
0.0
  0
LINE
  5
155
330
20
100
AcDbEntity
  8
_0-0_LAYER001
  6
Continuous
 62
     2
100
AcDbLine
 10
922.1054999999999
 20
1095.7453
 30
0.0
 11
940.1136000000001
 21
1046.4305
 31
0.0
  0
CIRCLE
  5
156
330
20
100
AcDbEntity
  8
_0-0_LAYER001
  6
Continuous
 62
     2
100
AcDbCircle
 10
922.963
 20
1093.397
 30
0.0
 40
1.699999999999999
  0
LINE
  5
157
330
20
100
AcDbEntity
  8
_0-0_LAYER001
  6
Continuous
 62
     2
100
AcDbLine
 10
922.963
 20
1093.397
 30
0.0
 11
1143.7058
 21
1174.0049
 31
0.0
  0
CIRCLE
  5
158
330
20
100
AcDbEntity
  8
_0-0_LAYER001
  6
Continuous
 62
     2
100
AcDbCircle
 10
1143.7058
 20
1174.0049
 30
0.0
 40
1.699999999999999
  0
LINE
  5
159
330
20
100
AcDbEntity
  8
_0-0_LAYER001
  6
Continuous
 62
     2
100
AcDbLine
 10
1142.8483
 20
1176.3532
 30
0.0
 11
1160.8564
 21
1127.0384
 31
0.0
  0
LINE
  5
15A
330
20
100
AcDbEntity
  8
_0-0_LAYER001
  6
Continuous
 62
     2
100
AcDbLine
 10
1129.1278
 20
1213.9265
 30
0.0
 11
1147.1359
 21
1164.6116
 31
0.0
  0
CIRCLE
  5
15B
330
20
100
AcDbEntity
  8
_0-0_LAYER001
  6
Continuous
 62
     2
100
AcDbCircle
 10
1129.9853
 20
1211.5781
 30
0.0
 40
1.699999999999999
  0
LINE
  5
15C
330
20
100
AcDbEntity
  8
_0-0_LAYER001
  6
Continuous
 62
     2
100
AcDbLine
 10
1129.9853
 20
1211.5781
 30
0.0
 11
1350.7281
 21
1292.185999999999
 31
0.0
  0
CIRCLE
  5
15D
330
20
100
AcDbEntity
  8
_0-0_LAYER001
  6
Continuous
 62
     2
100
AcDbCircle
 10
1350.7281
 20
1292.185999999999
 30
0.0
 40
1.699999999999999
  0
LINE
  5
15E
330
20
100
AcDbEntity
  8
_0-0_LAYER001
  6
Continuous
 62
     2
100
AcDbLine
 10
1349.8705
 20
1294.5344
 30
0.0
 11
1367.8787
 21
1245.2195
 31
0.0
  0
LINE
  5
15F
330
20
100
AcDbEntity
  8
_0-0_LAYER001
  6
Continuous
 62
     2
100
AcDbLine
 10
1336.15
 20
1332.107599999999
 30
0.0
 11
1354.1582
 21
1282.7927
 31
0.0
  0
CIRCLE
  5
160
330
20
100
AcDbEntity
  8
_0-0_LAYER001
  6
Continuous
 62
     2
100
AcDbCircle
 10
1337.0076
 20
1329.7593
 30
0.0
 40
1.699999999999999
  0
LINE
  5
161
330
20
100
AcDbEntity
  8
_0-0_LAYER001
  6
Continuous
 62
     2
100
AcDbLine
 10
1337.0076
 20
1329.7593
 30
0.0
 11
1557.7503
 21
1410.3672
 31
0.0
  0
CIRCLE
  5
162
330
20
100
AcDbEntity
  8
_0-0_LAYER001
  6
Continuous
 62
     2
100
AcDbCircle
 10
1557.7503
 20
1410.3672
 30
0.0
 40
1.699999999999999
  0
LINE
  5
163
330
20
100
AcDbEntity
  8
_0-0_LAYER001
  6
Continuous
 62
     2
100
AcDbLine
 10
1556.8928
 20
1412.7155
 30
0.0
 11
1574.9009
 21
1363.4006
 31
0.0
  0
LINE
  5
164
330
20
100
AcDbEntity
  8
_0-0_LAYER001
  6
Continuous
 62
     2
100
AcDbLine
 10
1543.1723
 20
1450.2887
 30
0.0
 11
1561.1804
 21
1400.9739
 31
0.0
  0
CIRCLE
  5
165
330
20
100
AcDbEntity
  8
_0-0_LAYER001
  6
Continuous
 62
     2
100
AcDbCircle
 10
1544.0298
 20
1447.9404
 30
0.0
 40
1.699999999999999
  0
LINE
  5
166
330
20
100
AcDbEntity
  8
_0-0_LAYER001
  6
Continuous
 62
     2
100
AcDbLine
 10
1544.0298
 20
1447.9404
 30
0.0
 11
1764.7726
 21
1528.5483
 31
0.0
  0
CIRCLE
  5
167
330
20
100
AcDbEntity
  8
_0-0_LAYER001
  6
Continuous
 62
     2
100
AcDbCircle
 10
1764.7726
 20
1528.5483
 30
0.0
 40
1.699999999999999
  0
LINE
  5
168
330
20
100
AcDbEntity
  8
_0-0_LAYER001
  6
Continuous
 62
     2
100
AcDbLine
 10
1763.9151
 20
1530.8966
 30
0.0
 11
1781.9232
 21
1481.5818
 31
0.0
  0
LINE
  5
169
330
20
100
AcDbEntity
  8
_0-0_LAYER001
  6
Continuous
 62
     2
100
AcDbLine
 10
2047.3102
 20
983.8426
 30
0.0
 11
2026.1902
 21
1031.9071
 31
0.0
  0
CIRCLE
  5
16A
330
20
100
AcDbEntity
  8
_0-0_LAYER001
  6
Continuous
 62
     2
100
AcDbCircle
 10
2046.3045
 20
986.1314000000001
 30
0.0
 40
1.699999999999999
  0
LINE
  5
16B
330
20
100
AcDbEntity
  8
_0-0_LAYER001
  6
Continuous
 62
     2
100
AcDbLine
 10
2046.3045
 20
986.1314000000001
 30
0.0
 11
1830.2517
 21
891.1957999999998
 31
0.0
  0
CIRCLE
  5
16C
330
20
100
AcDbEntity
  8
_0-0_LAYER001
  6
Continuous
 62
     2
100
AcDbCircle
 10
1830.2517
 20
891.1957999999998
 30
0.0
 40
1.699999999999999
  0
LINE
  5
16D
330
20
100
AcDbEntity
  8
_0-0_LAYER001
  6
Continuous
 62
     2
100
AcDbLine
 10
1831.2574
 20
888.9069999999998
 30
0.0
 11
1810.1374
 21
936.9714999999999
 31
0.0
  0
CIRCLE
  5
16E
330
20
100
AcDbEntity
  8
_0-0_LAYER001
  6
Continuous
 62
     2
100
AcDbCircle
 10
1830.2517
 20
891.1957999999998
 30
0.0
 40
1.699999999999999
  0
LINE
  5
16F
330
20
100
AcDbEntity
  8
_0-0_LAYER001
  6
Continuous
 62
     2
100
AcDbLine
 10
1830.2517
 20
891.1957999999998
 30
0.0
 11
1614.1989
 21
796.2600999999998
 31
0.0
  0
CIRCLE
  5
170
330
20
100
AcDbEntity
  8
_0-0_LAYER001
  6
Continuous
 62
     2
100
AcDbCircle
 10
1614.1989
 20
796.2600999999998
 30
0.0
 40
1.699999999999999
  0
LINE
  5
171
330
20
100
AcDbEntity
  8
_0-0_LAYER001
  6
Continuous
 62
     2
100
AcDbLine
 10
1615.2046
 20
793.9712999999998
 30
0.0
 11
1594.0846
 21
842.0358000000002
 31
0.0
  0
CIRCLE
  5
172
330
20
100
AcDbEntity
  8
_0-0_LAYER001
  6
Continuous
 62
     2
100
AcDbCircle
 10
1614.1989
 20
796.2600999999998
 30
0.0
 40
1.699999999999999
  0
LINE
  5
173
330
20
100
AcDbEntity
  8
_0-0_LAYER001
  6
Continuous
 62
     2
100
AcDbLine
 10
1614.1989
 20
796.2600999999998
 30
0.0
 11
1398.1461
 21
701.3244
 31
0.0
  0
CIRCLE
  5
174
330
20
100
AcDbEntity
  8
_0-0_LAYER001
  6
Continuous
 62
     2
100
AcDbCircle
 10
1398.1461
 20
701.3244
 30
0.0
 40
1.699999999999999
  0
LINE
  5
175
330
20
100
AcDbEntity
  8
_0-0_LAYER001
  6
Continuous
 62
     2
100
AcDbLine
 10
1399.1518
 20
699.0356999999997
 30
0.0
 11
1378.0318
 21
747.1002000000002
 31
0.0
  0
CIRCLE
  5
176
330
20
100
AcDbEntity
  8
_0-0_LAYER001
  6
Continuous
 62
     2
100
AcDbCircle
 10
1398.1461
 20
701.3244
 30
0.0
 40
1.699999999999999
  0
LINE
  5
177
330
20
100
AcDbEntity
  8
_0-0_LAYER001
  6
Continuous
 62
     2
100
AcDbLine
 10
1398.1461
 20
701.3244
 30
0.0
 11
1191.1683
 21
610.3764
 31
0.0
  0
CIRCLE
  5
178
330
20
100
AcDbEntity
  8
_0-0_LAYER001
  6
Continuous
 62
     2
100
AcDbCircle
 10
1191.1683
 20
610.3764
 30
0.0
 40
1.699999999999999
  0
LINE
  5
179
330
20
100
AcDbEntity
  8
_0-0_LAYER001
  6
Continuous
 62
     2
100
AcDbLine
 10
1192.1741
 20
608.0877
 30
0.0
 11
1171.0541
 21
656.1522
 31
0.0
  0
CIRCLE
  5
17A
330
20
100
AcDbEntity
  8
_0-2_LAYER004
  6
Continuous
 62
     3
100
AcDbCircle
 10
2146.6573
 20
1289.8827
 30
0.0
 40
1.304921999999999
  0
LINE
  5
17B
330
20
100
AcDbEntity
  8
_0-2_LAYER004
  6
DASHED1
 62
     2
100
AcDbLine
 10
1333.2038
 20
843.8607999999998
 30
0.0
 11
1329.1808
 21
853.0159000000001
 31
0.0
  0
LINE
  5
17C
330
20
100
AcDbEntity
  8
_0-2_LAYER004
  6
DASHED1
 62
     2
100
AcDbLine
 10
1284.092499999999
 20
905.9801000000001
 30
0.0
 11
1310.8971
 21
844.9815
 31
0.0
  0
LINE
  5
17D
330
20
100
AcDbEntity
  8
_0-2_LAYER004
  6
DASHED1
 62
     2
100
AcDbLine
 10
1274.9374
 20
901.9570999999999
 30
0.0
 11
1305.7651
 21
831.8034
 31
0.0
  0
LINE
  5
17E
330
20
100
AcDbEntity
  8
_0-2_LAYER004
  6
DASHED1
 62
     2
100
AcDbLine
 10
1310.8971
 20
844.9815
 30
0.0
 11
1329.1808
 21
853.0159000000001
 31
0.0
  0
LINE
  5
17F
330
20
100
AcDbEntity
  8
_0-2_LAYER004
  6
DASHED1
 62
     2
100
AcDbLine
 10
1305.7651
 20
831.8034
 30
0.0
 11
1333.2038
 21
843.8607999999998
 31
0.0
  0
LINE
  5
180
330
20
100
AcDbEntity
  8
_0-2_LAYER004
  6
Continuous
 62
     3
100
AcDbLine
 10
1177.8792
 20
852.7155999999999
 30
0.0
 11
2151.898
 21
1291.0246
 31
0.0
  0
CIRCLE
  5
181
330
20
100
AcDbEntity
  8
_0-2_LAYER004
  6
Continuous
 62
     3
100
AcDbCircle
 10
1189.1399
 20
858.9993999999999
 30
0.0
 40
1.304921999999999
  0
CIRCLE
  5
182
330
20
100
AcDbEntity
  8
_0-2_LAYER004
  6
Continuous
 62
     3
100
AcDbCircle
 10
1325.9281
 20
920.5542000000001
 30
0.0
 40
1.304921999999999
  0
CIRCLE
  5
183
330
20
100
AcDbEntity
  8
_0-2_LAYER004
  6
Continuous
 62
     3
100
AcDbCircle
 10
1462.7163
 20
982.1088999999998
 30
0.0
 40
1.304921999999999
  0
CIRCLE
  5
184
330
20
100
AcDbEntity
  8
_0-2_LAYER004
  6
Continuous
 62
     3
100
AcDbCircle
 10
1599.5045
 20
1043.6637
 30
0.0
 40
1.304921999999999
  0
CIRCLE
  5
185
330
20
100
AcDbEntity
  8
_0-2_LAYER004
  6
Continuous
 62
     3
100
AcDbCircle
 10
1736.2927
 20
1105.2184
 30
0.0
 40
1.304921999999999
  0
CIRCLE
  5
186
330
20
100
AcDbEntity
  8
_0-2_LAYER004
  6
Continuous
 62
     3
100
AcDbCircle
 10
1873.0809
 20
1166.7732
 30
0.0
 40
1.304921999999999
  0
CIRCLE
  5
187
330
20
100
AcDbEntity
  8
_0-2_LAYER004
  6
Continuous
 62
     3
100
AcDbCircle
 10
2009.8691
 20
1228.3279
 30
0.0
 40
1.304921999999999
  0
LINE
  5
188
330
20
100
AcDbEntity
  8
_0-2_LAYER004
  6
DASHED1
 62
     2
100
AcDbLine
 10
1880.3779
 20
1090.0894
 30
0.0
 11
1876.3549
 21
1099.2445
 31
0.0
  0
LINE
  5
189
330
20
100
AcDbEntity
  8
_0-2_LAYER004
  6
DASHED1
 62
     2
100
AcDbLine
 10
1831.2666
 20
1152.2088
 30
0.0
 11
1858.0712
 21
1091.2101
 31
0.0
  0
LINE
  5
18A
330
20
100
AcDbEntity
  8
_0-2_LAYER004
  6
DASHED1
 62
     2
100
AcDbLine
 10
1822.1115
 20
1148.1857
 30
0.0
 11
1852.9392
 21
1078.032
 31
0.0
  0
LINE
  5
18B
330
20
100
AcDbEntity
  8
_0-2_LAYER004
  6
DASHED1
 62
     2
100
AcDbLine
 10
1858.0712
 20
1091.2101
 30
0.0
 11
1876.3549
 21
1099.2445
 31
0.0
  0
LINE
  5
18C
330
20
100
AcDbEntity
  8
_0-2_LAYER004
  6
DASHED1
 62
     2
100
AcDbLine
 10
1852.9392
 20
1078.032
 30
0.0
 11
1880.3779
 21
1090.0894
 31
0.0
  0
LINE
  5
18D
330
20
100
AcDbEntity
  8
_0-2_LAYER004
  6
DASHED1
 62
     2
100
AcDbLine
 10
1831.2666
 20
1152.2088
 30
0.0
 11
1822.1115
 21
1148.1857
 31
0.0
  0
LINE
  5
18E
330
20
100
AcDbEntity
  8
_0-2_LAYER004
  6
DASHED1
 62
     2
100
AcDbLine
 10
1284.092499999999
 20
905.9801000000001
 30
0.0
 11
1274.9374
 21
901.9570999999999
 31
0.0
  0
LINE
  5
18F
330
20
100
AcDbEntity
  8
_0-2_LAYER004
  6
Continuous
 62
     2
100
AcDbLine
 10
1844.4617
 20
1091.4002
 30
0.0
 11
1849.765
 21
1096.7035
 31
0.0
  0
LINE
  5
190
330
20
100
AcDbEntity
  8
_0-2_LAYER004
  6
Continuous
 62
     2
100
AcDbLine
 10
1849.765
 20
1096.7035
 30
0.0
 11
1847.8239
 21
1089.459
 31
0.0
  0
LINE
  5
191
330
20
100
AcDbEntity
  8
_0-2_LAYER004
  6
Continuous
 62
     2
100
AcDbLine
 10
1849.765
 20
1096.7035
 30
0.0
 11
1828.2269
 21
1059.3984
 31
0.0
  0
LINE
  5
192
330
20
100
AcDbEntity
  8
_0-2_LAYER004
  6
Continuous
 62
     2
100
AcDbLine
 10
1828.2269
 20
1059.3984
 30
0.0
 11
1768.2269
 21
1059.3984
 31
0.0
  0
LINE
  5
193
330
20
100
AcDbEntity
  8
_0-2_LAYER004
  6
Continuous
 62
     2
100
AcDbLine
 10
1916.77
 20
1177.0989
 30
0.0
 11
1914.8289
 21
1184.3433
 31
0.0
  0
LINE
  5
194
330
20
100
AcDbEntity
  8
_0-2_LAYER004
  6
Continuous
 62
     2
100
AcDbLine
 10
1914.8289
 20
1184.3433
 30
0.0
 11
1920.1322
 21
1179.04
 31
0.0
  0
LINE
  5
195
330
20
100
AcDbEntity
  8
_0-2_LAYER004
  6
Continuous
 62
     2
100
AcDbLine
 10
1914.8289
 20
1184.3433
 30
0.0
 11
1941.7117
 21
1137.7809
 31
0.0
  0
LINE
  5
196
330
20
100
AcDbEntity
  8
_0-2_LAYER004
  6
Continuous
 62
     2
100
AcDbLine
 10
1941.7117
 20
1137.7809
 30
0.0
 11
2001.7117
 21
1137.7809
 31
0.0
  0
LINE
  5
197
330
20
100
AcDbEntity
  8
_0-1_LAYER003
  6
Continuous
 62
     2
100
AcDbLine
 10
1157.9952
 20
872.2990999999998
 30
0.0
 11
2086.3449
 21
1290.0569
 31
0.0
  0
LINE
  5
198
330
20
100
AcDbEntity
  8
_0-2_LAYER004
  6
DASHED3
 62
     2
100
AcDbLine
 10
1104.5857
 20
852.6512999999999
 30
0.0
 11
2084.7037
 21
1293.704
 31
0.0
  0
LINE
  5
199
330
20
100
AcDbEntity
  8
_0-1_LAYER003
  6
Continuous
 62
     3
100
AcDbLine
 10
1075.9192
 20
835.3649
 30
0.0
 11
1087.9892
 21
807.8988999999998
 31
0.0
  0
LINE
  5
19A
330
20
100
AcDbEntity
  8
_0-1_LAYER003
  6
Continuous
 62
     3
100
AcDbLine
 10
1170.0653
 20
844.8326999999999
 30
0.0
 11
1087.9892
 21
807.8988999999998
 31
0.0
  0
LINE
  5
19B
330
20
100
AcDbEntity
  8
_0-1_LAYER003
  6
Continuous
 62
     3
100
AcDbLine
 10
1157.9952
 20
872.2989
 30
0.0
 11
1075.9192
 21
835.3649
 31
0.0
  0
LINE
  5
19C
330
20
100
AcDbEntity
  8
_0-1_LAYER003
  6
Continuous
 62
     3
100
AcDbLine
 10
1157.9952
 20
872.2989
 30
0.0
 11
1170.0652
 21
844.8329000000001
 31
0.0
  0
LINE
  5
19D
330
20
100
AcDbEntity
  8
_0-5_LAYER009
  6
Continuous
 62
     2
100
AcDbLine
 10
1101.6682
 20
814.0539
 30
0.0
 11
1110.2272
 21
794.5769
 31
0.0
  0
LINE
  5
19E
330
20
100
AcDbEntity
  8
_0-1_LAYER003
  6
Continuous
 62
     2
100
AcDbLine
 10
1101.6682
 20
814.0539
 30
0.0
 11
1157.9926
 21
685.8778999999999
 31
0.0
  0
LINE
  5
19F
330
20
100
AcDbEntity
  8
_0-1_LAYER003
  6
Continuous
 62
     2
100
AcDbLine
 10
1167.1116
 20
689.9818999999999
 30
0.0
 11
1171.1346
 21
680.8259000000001
 31
0.0
  0
LINE
  5
1A0
330
20
100
AcDbEntity
  8
_0-1_LAYER003
  6
Continuous
 62
     2
100
AcDbLine
 10
1167.1116
 20
689.9818999999999
 30
0.0
 11
1157.9926
 21
685.8778999999999
 31
0.0
  0
LINE
  5
1A1
330
20
100
AcDbEntity
  8
_0-1_LAYER003
  6
Continuous
 62
     2
100
AcDbLine
 10
1095.3564
 20
885.4936
 30
0.0
 11
1138.5406
 21
899.1866999999999
 31
0.0
  0
LINE
  5
1A2
330
20
100
AcDbEntity
  8
_0-1_LAYER003
  6
Continuous
 62
     2
100
AcDbLine
 10
1095.3564
 20
885.4936
 30
0.0
 11
1110.8425
 21
851.0797999999999
 31
0.0
  0
LINE
  5
1A3
330
20
100
AcDbEntity
  8
_0-1_LAYER003
  6
Continuous
 62
     2
100
AcDbLine
 10
1138.5406
 20
899.1866999999999
 30
0.0
 11
1151.8793
 21
869.5465999999999
 31
0.0
  0
LINE
  5
1A4
330
20
100
AcDbEntity
  8
_0-3_LAYER005
  6
Continuous
 62
     2
100
AcDbLine
 10
1069.578
 20
876.7670999999999
 30
0.0
 11
1086.1392
 21
839.9638999999998
 31
0.0
  0
LINE
  5
1A5
330
20
100
AcDbEntity
  8
_0-1_LAYER003
  6
DASHED1
 62
     2
100
AcDbLine
 10
1069.5779
 20
876.7670999999999
 30
0.0
 11
1053.0812
 21
913.4269000000001
 31
0.0
  0
LINE
  5
1A6
330
20
100
AcDbEntity
  8
_0-1_LAYER003
  6
Continuous
 62
     2
100
AcDbLine
 10
1321.0694
 20
901.8187000000001
 30
0.0
 11
1254.2473
 21
718.2267
 31
0.0
  0
LINE
  5
1A7
330
20
100
AcDbEntity
  8
_0-1_LAYER003
  6
Continuous
 62
     2
100
AcDbLine
 10
1295.616
 20
890.3646999999999
 30
0.0
 11
1228.7939
 21
706.7726999999999
 31
0.0
  0
LINE
  5
1A8
330
20
100
AcDbEntity
  8
_0-1_LAYER003
  6
Continuous
 62
     2
100
AcDbLine
 10
1308.3431
 20
896.0918999999998
 30
0.0
 11
1241.521
 21
712.4999
 31
0.0
  0
LINE
  5
1A9
330
20
100
AcDbEntity
  8
_0-1_LAYER003
  6
Continuous
 62
     2
100
AcDbLine
 10
1718.6503
 20
1080.7303
 30
0.0
 11
1651.8281
 21
897.1382999999999
 31
0.0
  0
LINE
  5
1AA
330
20
100
AcDbEntity
  8
_0-1_LAYER003
  6
Continuous
 62
     2
100
AcDbLine
 10
1731.3761
 20
1086.4569
 30
0.0
 11
1664.554
 21
902.865
 31
0.0
  0
LINE
  5
1AB
330
20
100
AcDbEntity
  8
_0-1_LAYER003
  6
Continuous
 62
     2
100
AcDbLine
 10
1744.1024
 20
1092.1838
 30
0.0
 11
1677.2803
 21
908.5918000000001
 31
0.0
  0
LINE
  5
1AC
330
20
100
AcDbEntity
  8
_0-1_LAYER003
  6
Continuous
 62
     2
100
AcDbLine
 10
2108.9377
 20
1239.8507
 30
0.0
 11
2049.3025
 21
1076.002
 31
0.0
  0
LINE
  5
1AD
330
20
100
AcDbEntity
  8
_0-1_LAYER003
  6
Continuous
 62
     2
100
AcDbLine
 10
2114.8213
 20
1226.7761
 30
0.0
 11
2062.0282
 21
1081.7285
 31
0.0
  0
LINE
  5
1AE
330
20
100
AcDbEntity
  8
_0-1_LAYER003
  6
Continuous
 62
     2
100
AcDbLine
 10
2120.7044
 20
1213.7025
 30
0.0
 11
2074.7541
 21
1087.4552
 31
0.0
  0
LINE
  5
1AF
330
20
100
AcDbEntity
  8
_0-1_LAYER003
  6
Continuous
 62
     2
100
AcDbLine
 10
1083.1722
 20
818.8598999999998
 30
0.0
 11
1092.2262
 21
809.8058999999999
 31
0.0
  0
LINE
  5
1B0
330
20
100
AcDbEntity
  8
_0-1_LAYER003
  6
Continuous
 62
     2
100
AcDbLine
 10
1077.3412
 20
836.0048999999998
 30
0.0
 11
1100.0292
 21
813.3169
 31
0.0
  0
LINE
  5
1B1
330
20
100
AcDbEntity
  8
_0-1_LAYER003
  6
Continuous
 62
     2
100
AcDbLine
 10
1085.1432
 20
839.5159000000001
 30
0.0
 11
1107.8312
 21
816.8279
 31
0.0
  0
LINE
  5
1B2
330
20
100
AcDbEntity
  8
_0-1_LAYER003
  6
Continuous
 62
     2
100
AcDbLine
 10
1092.9462
 20
843.0268999999999
 30
0.0
 11
1115.6342
 21
820.3388999999997
 31
0.0
  0
LINE
  5
1B3
330
20
100
AcDbEntity
  8
_0-1_LAYER003
  6
Continuous
 62
     2
100
AcDbLine
 10
1100.7482
 20
846.5379
 30
0.0
 11
1123.4362
 21
823.8498999999999
 31
0.0
  0
LINE
  5
1B4
330
20
100
AcDbEntity
  8
_0-1_LAYER003
  6
Continuous
 62
     2
100
AcDbLine
 10
1108.5512
 20
850.0488999999999
 30
0.0
 11
1131.2392
 21
827.3608999999998
 31
0.0
  0
LINE
  5
1B5
330
20
100
AcDbEntity
  8
_0-1_LAYER003
  6
Continuous
 62
     2
100
AcDbLine
 10
1116.3532
 20
853.5598999999999
 30
0.0
 11
1139.0412
 21
830.8719000000001
 31
0.0
  0
LINE
  5
1B6
330
20
100
AcDbEntity
  8
_0-1_LAYER003
  6
Continuous
 62
     2
100
AcDbLine
 10
1124.1562
 20
857.0708999999999
 30
0.0
 11
1146.8442
 21
834.3839
 31
0.0
  0
LINE
  5
1B7
330
20
100
AcDbEntity
  8
_0-1_LAYER003
  6
Continuous
 62
     2
100
AcDbLine
 10
1131.9592
 20
860.5829000000001
 30
0.0
 11
1154.6472
 21
837.8949
 31
0.0
  0
LINE
  5
1B8
330
20
100
AcDbEntity
  8
_0-1_LAYER003
  6
Continuous
 62
     2
100
AcDbLine
 10
1139.7612
 20
864.0938999999999
 30
0.0
 11
1162.4492
 21
841.4058999999998
 31
0.0
  0
LINE
  5
1B9
330
20
100
AcDbEntity
  8
_0-1_LAYER003
  6
Continuous
 62
     2
100
AcDbLine
 10
1147.5642
 20
867.6049
 30
0.0
 11
1169.8522
 21
845.3159000000001
 31
0.0
  0
LINE
  5
1BA
330
20
100
AcDbEntity
  8
_0-1_LAYER003
  6
Continuous
 62
     2
100
AcDbLine
 10
1155.3662
 20
871.1159
 30
0.0
 11
1160.9832
 21
865.4989
 31
0.0
  0
ARC
  5
1BB
330
20
100
AcDbEntity
  8
_0-1_LAYER003
  6
DASHED1
 62
     2
100
AcDbCircle
 10
1067.9372
 20
880.3179
 30
0.0
 40
36.29
100
AcDbArc
 50
25.317413
 51
114.16601
  0
CIRCLE
  5
1BC
330
20
100
AcDbEntity
  8
_0-3_LAYER005
  6
Continuous
 62
     2
100
AcDbCircle
 10
1087.1472
 20
857.7248999999998
 30
0.0
 40
0.4199999999999999
  0
CIRCLE
  5
1BD
330
20
100
AcDbEntity
  8
_0-3_LAYER005
  6
Continuous
 62
     2
100
AcDbCircle
 10
1092.9712
 20
855.8459
 30
0.0
 40
0.188
  0
CIRCLE
  5
1BE
330
20
100
AcDbEntity
  8
_0-3_LAYER005
  6
Continuous
 62
     2
100
AcDbCircle
 10
1099.9232
 20
854.3429000000001
 30
0.0
 40
0.188
  0
CIRCLE
  5
1BF
330
20
100
AcDbEntity
  8
_0-3_LAYER005
  6
Continuous
 62
     2
100
AcDbCircle
 10
1092.9712
 20
851.3369
 30
0.0
 40
0.188
  0
CIRCLE
  5
1C0
330
20
100
AcDbEntity
  8
_0-3_LAYER005
  6
Continuous
 62
     2
100
AcDbCircle
 10
1092.5962
 20
850.3968999999997
 30
0.0
 40
0.188
  0
CIRCLE
  5
1C1
330
20
100
AcDbEntity
  8
_0-3_LAYER005
  6
Continuous
 62
     2
100
AcDbCircle
 10
1095.6022
 20
850.9609000000001
 30
0.0
 40
0.188
  0
CIRCLE
  5
1C2
330
20
100
AcDbEntity
  8
_0-3_LAYER005
  6
Continuous
 62
     2
100
AcDbCircle
 10
1095.2262
 20
852.6519
 30
0.0
 40
0.188
  0
CIRCLE
  5
1C3
330
20
100
AcDbEntity
  8
_0-3_LAYER005
  6
Continuous
 62
     2
100
AcDbCircle
 10
1096.3532
 20
853.9668999999999
 30
0.0
 40
0.188
  0
CIRCLE
  5
1C4
330
20
100
AcDbEntity
  8
_0-3_LAYER005
  6
Continuous
 62
     2
100
AcDbCircle
 10
1101.6142
 20
852.4638999999998
 30
0.0
 40
0.188
  0
CIRCLE
  5
1C5
330
20
100
AcDbEntity
  8
_0-3_LAYER005
  6
Continuous
 62
     2
100
AcDbCircle
 10
1095.7902
 20
848.1429
 30
0.0
 40
0.188
  0
CIRCLE
  5
1C6
330
20
100
AcDbEntity
  8
_0-3_LAYER005
  6
Continuous
 62
     2
100
AcDbCircle
 10
1091.6562
 20
847.3909
 30
0.0
 40
0.188
  0
CIRCLE
  5
1C7
330
20
100
AcDbEntity
  8
_0-3_LAYER005
  6
Continuous
 62
     2
100
AcDbCircle
 10
1089.7772
 20
849.0818999999998
 30
0.0
 40
0.188
  0
CIRCLE
  5
1C8
330
20
100
AcDbEntity
  8
_0-3_LAYER005
  6
Continuous
 62
     2
100
AcDbCircle
 10
1084.1412
 20
854.3429000000001
 30
0.0
 40
0.188
  0
CIRCLE
  5
1C9
330
20
100
AcDbEntity
  8
_0-3_LAYER005
  6
Continuous
 62
     2
100
AcDbCircle
 10
1080.3832
 20
859.4158999999999
 30
0.0
 40
0.188
  0
CIRCLE
  5
1CA
330
20
100
AcDbEntity
  8
_0-3_LAYER005
  6
Continuous
 62
     2
100
AcDbCircle
 10
1084.5162
 20
863.5488999999999
 30
0.0
 40
0.188
  0
CIRCLE
  5
1CB
330
20
100
AcDbEntity
  8
_0-3_LAYER005
  6
Continuous
 62
     2
100
AcDbCircle
 10
1087.7102
 20
865.4278999999998
 30
0.0
 40
0.188
  0
CIRCLE
  5
1CC
330
20
100
AcDbEntity
  8
_0-3_LAYER005
  6
Continuous
 62
     2
100
AcDbCircle
 10
1088.6502
 20
868.6219000000001
 30
0.0
 40
0.188
  0
CIRCLE
  5
1CD
330
20
100
AcDbEntity
  8
_0-3_LAYER005
  6
Continuous
 62
     2
100
AcDbCircle
 10
1086.5832
 20
874.2589
 30
0.0
 40
0.188
  0
CIRCLE
  5
1CE
330
20
100
AcDbEntity
  8
_0-3_LAYER005
  6
Continuous
 62
     2
100
AcDbCircle
 10
1086.2072
 20
881.0228999999997
 30
0.0
 40
0.188
  0
CIRCLE
  5
1CF
330
20
100
AcDbEntity
  8
_0-3_LAYER005
  6
Continuous
 62
     2
100
AcDbCircle
 10
1087.1472
 20
885.1558999999998
 30
0.0
 40
0.188
  0
CIRCLE
  5
1D0
330
20
100
AcDbEntity
  8
_0-3_LAYER005
  6
Continuous
 62
     2
100
AcDbCircle
 10
1090.5292
 20
878.2038999999999
 30
0.0
 40
0.188
  0
CIRCLE
  5
1D1
330
20
100
AcDbEntity
  8
_0-3_LAYER005
  6
Continuous
 62
     2
100
AcDbCircle
 10
1090.7172
 20
868.4338999999999
 30
0.0
 40
0.188
  0
CIRCLE
  5
1D2
330
20
100
AcDbEntity
  8
_0-3_LAYER005
  6
Continuous
 62
     2
100
AcDbCircle
 10
1092.5962
 20
863.9248999999999
 30
0.0
 40
0.188
  0
CIRCLE
  5
1D3
330
20
100
AcDbEntity
  8
_0-3_LAYER005
  6
Continuous
 62
     2
100
AcDbCircle
 10
1093.7232
 20
860.9189
 30
0.0
 40
0.188
  0
CIRCLE
  5
1D4
330
20
100
AcDbEntity
  8
_0-3_LAYER005
  6
Continuous
 62
     2
100
AcDbCircle
 10
1098.4202
 20
862.2338999999998
 30
0.0
 40
0.188
  0
CIRCLE
  5
1D5
330
20
100
AcDbEntity
  8
_0-3_LAYER005
  6
Continuous
 62
     2
100
AcDbCircle
 10
1097.2932
 20
869.3739
 30
0.0
 40
0.188
  0
CIRCLE
  5
1D6
330
20
100
AcDbEntity
  8
_0-3_LAYER005
  6
Continuous
 62
     2
100
AcDbCircle
 10
1093.7232
 20
869.7499
 30
0.0
 40
0.188
  0
CIRCLE
  5
1D7
330
20
100
AcDbEntity
  8
_0-3_LAYER005
  6
Continuous
 62
     2
100
AcDbCircle
 10
1096.7292
 20
866.3678999999998
 30
0.0
 40
0.188
  0
CIRCLE
  5
1D8
330
20
100
AcDbEntity
  8
_0-3_LAYER005
  6
Continuous
 62
     2
100
AcDbCircle
 10
1098.2322
 20
862.9858999999999
 30
0.0
 40
0.188
  0
CIRCLE
  5
1D9
330
20
100
AcDbEntity
  8
_0-3_LAYER005
  6
Continuous
 62
     2
100
AcDbCircle
 10
1100.4872
 20
860.3549000000001
 30
0.0
 40
0.188
  0
CIRCLE
  5
1DA
330
20
100
AcDbEntity
  8
_0-3_LAYER005
  6
Continuous
 62
     2
100
AcDbCircle
 10
1104.9962
 20
854.9068999999999
 30
0.0
 40
0.188
  0
CIRCLE
  5
1DB
330
20
100
AcDbEntity
  8
_0-3_LAYER005
  6
Continuous
 62
     2
100
AcDbCircle
 10
1106.4992
 20
853.9668999999999
 30
0.0
 40
0.188
  0
CIRCLE
  5
1DC
330
20
100
AcDbEntity
  8
_0-3_LAYER005
  6
Continuous
 62
     2
100
AcDbCircle
 10
1095.9772
 20
856.9729
 30
0.0
 40
0.188
  0
CIRCLE
  5
1DD
330
20
100
AcDbEntity
  8
_0-3_LAYER005
  6
Continuous
 62
     2
100
AcDbCircle
 10
1092.2202
 20
857.9129
 30
0.0
 40
0.188
  0
CIRCLE
  5
1DE
330
20
100
AcDbEntity
  8
_0-3_LAYER005
  6
Continuous
 62
     2
100
AcDbCircle
 10
1089.0262
 20
858.8518999999999
 30
0.0
 40
0.188
  0
CIRCLE
  5
1DF
330
20
100
AcDbEntity
  8
_0-3_LAYER005
  6
Continuous
 62
     2
100
AcDbCircle
 10
1087.1472
 20
860.9189
 30
0.0
 40
0.188
  0
CIRCLE
  5
1E0
330
20
100
AcDbEntity
  8
_0-3_LAYER005
  6
Continuous
 62
     2
100
AcDbCircle
 10
1085.8322
 20
858.4758999999998
 30
0.0
 40
0.188
  0
CIRCLE
  5
1E1
330
20
100
AcDbEntity
  8
_0-3_LAYER005
  6
Continuous
 62
     2
100
AcDbCircle
 10
1081.3222
 20
862.2338999999998
 30
0.0
 40
0.188
  0
CIRCLE
  5
1E2
330
20
100
AcDbEntity
  8
_0-3_LAYER005
  6
Continuous
 62
     2
100
AcDbCircle
 10
1080.5712
 20
866.1799000000002
 30
0.0
 40
0.188
  0
CIRCLE
  5
1E3
330
20
100
AcDbEntity
  8
_0-3_LAYER005
  6
Continuous
 62
     2
100
AcDbCircle
 10
1079.8192
 20
871.0649
 30
0.0
 40
0.188
  0
CIRCLE
  5
1E4
330
20
100
AcDbEntity
  8
_0-3_LAYER005
  6
Continuous
 62
     2
100
AcDbCircle
 10
1078.3162
 20
874.4468999999998
 30
0.0
 40
0.188
  0
CIRCLE
  5
1E5
330
20
100
AcDbEntity
  8
_0-3_LAYER005
  6
Continuous
 62
     2
100
AcDbCircle
 10
1075.1222
 20
878.9558999999998
 30
0.0
 40
0.188
  0
CIRCLE
  5
1E6
330
20
100
AcDbEntity
  8
_0-3_LAYER005
  6
Continuous
 62
     2
100
AcDbCircle
 10
1072.3042
 20
881.3978999999998
 30
0.0
 40
0.188
  0
CIRCLE
  5
1E7
330
20
100
AcDbEntity
  8
_0-3_LAYER005
  6
Continuous
 62
     2
100
AcDbCircle
 10
1069.1102
 20
882.7138999999998
 30
0.0
 40
0.188
  0
CIRCLE
  5
1E8
330
20
100
AcDbEntity
  8
_0-3_LAYER005
  6
Continuous
 62
     2
100
AcDbCircle
 10
1073.6192
 20
885.1558999999998
 30
0.0
 40
0.188
  0
CIRCLE
  5
1E9
330
20
100
AcDbEntity
  8
_0-3_LAYER005
  6
Continuous
 62
     2
100
AcDbCircle
 10
1077.5652
 20
886.2828999999997
 30
0.0
 40
0.188
  0
CIRCLE
  5
1EA
330
20
100
AcDbEntity
  8
_0-3_LAYER005
  6
Continuous
 62
     2
100
AcDbCircle
 10
1083.9532
 20
886.6588999999999
 30
0.0
 40
0.188
  0
CIRCLE
  5
1EB
330
20
100
AcDbEntity
  8
_0-3_LAYER005
  6
Continuous
 62
     2
100
AcDbCircle
 10
1084.1412
 20
884.7799
 30
0.0
 40
0.188
  0
CIRCLE
  5
1EC
330
20
100
AcDbEntity
  8
_0-3_LAYER005
  6
Continuous
 62
     2
100
AcDbCircle
 10
1079.8192
 20
881.7738999999997
 30
0.0
 40
0.188
  0
CIRCLE
  5
1ED
330
20
100
AcDbEntity
  8
_0-3_LAYER005
  6
Continuous
 62
     2
100
AcDbCircle
 10
1086.9592
 20
882.9009000000002
 30
0.0
 40
0.188
  0
CIRCLE
  5
1EE
330
20
100
AcDbEntity
  8
_0-3_LAYER005
  6
Continuous
 62
     2
100
AcDbCircle
 10
1087.1472
 20
885.7199000000001
 30
0.0
 40
0.188
  0
CIRCLE
  5
1EF
330
20
100
AcDbEntity
  8
_0-3_LAYER005
  6
Continuous
 62
     2
100
AcDbCircle
 10
1086.9592
 20
889.2898999999999
 30
0.0
 40
0.188
  0
CIRCLE
  5
1F0
330
20
100
AcDbEntity
  8
_0-3_LAYER005
  6
Continuous
 62
     2
100
AcDbCircle
 10
1083.9532
 20
890.2288999999999
 30
0.0
 40
0.188
  0
CIRCLE
  5
1F1
330
20
100
AcDbEntity
  8
_0-3_LAYER005
  6
Continuous
 62
     2
100
AcDbCircle
 10
1091.0922
 20
884.4049
 30
0.0
 40
0.188
  0
CIRCLE
  5
1F2
330
20
100
AcDbEntity
  8
_0-3_LAYER005
  6
Continuous
 62
     2
100
AcDbCircle
 10
1091.4682
 20
883.2768999999998
 30
0.0
 40
0.188
  0
CIRCLE
  5
1F3
330
20
100
AcDbEntity
  8
_0-3_LAYER005
  6
Continuous
 62
     2
100
AcDbCircle
 10
1093.9112
 20
875.5739000000001
 30
0.0
 40
0.188
  0
CIRCLE
  5
1F4
330
20
100
AcDbEntity
  8
_0-3_LAYER005
  6
Continuous
 62
     2
100
AcDbCircle
 10
1090.7172
 20
873.3188999999999
 30
0.0
 40
0.188
  0
CIRCLE
  5
1F5
330
20
100
AcDbEntity
  8
_0-3_LAYER005
  6
Continuous
 62
     2
100
AcDbCircle
 10
1086.5832
 20
876.3259000000001
 30
0.0
 40
0.188
  0
CIRCLE
  5
1F6
330
20
100
AcDbEntity
  8
_0-3_LAYER005
  6
Continuous
 62
     2
100
AcDbCircle
 10
1084.8922
 20
878.0159000000001
 30
0.0
 40
0.188
  0
CIRCLE
  5
1F7
330
20
100
AcDbEntity
  8
_0-3_LAYER005
  6
Continuous
 62
     2
100
AcDbCircle
 10
1075.1222
 20
873.6948999999999
 30
0.0
 40
0.188
  0
CIRCLE
  5
1F8
330
20
100
AcDbEntity
  8
_0-3_LAYER005
  6
Continuous
 62
     2
100
AcDbCircle
 10
1073.6192
 20
873.8828999999999
 30
0.0
 40
0.188
  0
CIRCLE
  5
1F9
330
20
100
AcDbEntity
  8
_0-3_LAYER005
  6
Continuous
 62
     2
100
AcDbCircle
 10
1074.5592
 20
870.8769
 30
0.0
 40
0.188
  0
CIRCLE
  5
1FA
330
20
100
AcDbEntity
  8
_0-3_LAYER005
  6
Continuous
 62
     2
100
AcDbCircle
 10
1077.7532
 20
864.6768999999999
 30
0.0
 40
0.188
  0
CIRCLE
  5
1FB
330
20
100
AcDbEntity
  8
_0-3_LAYER005
  6
Continuous
 62
     2
100
AcDbCircle
 10
1082.8252
 20
865.8039
 30
0.0
 40
0.188
  0
CIRCLE
  5
1FC
330
20
100
AcDbEntity
  8
_0-3_LAYER005
  6
Continuous
 62
     2
100
AcDbCircle
 10
1082.6382
 20
867.8708999999999
 30
0.0
 40
0.188
  0
CIRCLE
  5
1FD
330
20
100
AcDbEntity
  8
_0-3_LAYER005
  6
Continuous
 62
     2
100
AcDbCircle
 10
1086.5832
 20
864.3008999999999
 30
0.0
 40
0.188
  0
CIRCLE
  5
1FE
330
20
100
AcDbEntity
  8
_0-3_LAYER005
  6
Continuous
 62
     2
100
AcDbCircle
 10
1089.2142
 20
860.5428999999999
 30
0.0
 40
0.188
  0
CIRCLE
  5
1FF
330
20
100
AcDbEntity
  8
_0-3_LAYER005
  6
Continuous
 62
     2
100
AcDbCircle
 10
1091.2802
 20
863.5488999999999
 30
0.0
 40
0.188
  0
CIRCLE
  5
200
330
20
100
AcDbEntity
  8
_0-3_LAYER005
  6
Continuous
 62
     2
100
AcDbCircle
 10
1093.3472
 20
864.3008999999999
 30
0.0
 40
0.188
  0
CIRCLE
  5
201
330
20
100
AcDbEntity
  8
_0-3_LAYER005
  6
Continuous
 62
     2
100
AcDbCircle
 10
1091.6562
 20
861.1069
 30
0.0
 40
0.188
  0
CIRCLE
  5
202
330
20
100
AcDbEntity
  8
_0-3_LAYER005
  6
Continuous
 62
     2
100
AcDbCircle
 10
1093.7232
 20
861.8578999999998
 30
0.0
 40
0.188
  0
CIRCLE
  5
203
330
20
100
AcDbEntity
  8
_0-3_LAYER005
  6
Continuous
 62
     2
100
AcDbCircle
 10
1085.4562
 20
856.2219
 30
0.0
 40
0.188
  0
CIRCLE
  5
204
330
20
100
AcDbEntity
  8
_0-3_LAYER005
  6
Continuous
 62
     2
100
AcDbCircle
 10
1087.5232
 20
856.9729
 30
0.0
 40
0.188
  0
CIRCLE
  5
205
330
20
100
AcDbEntity
  8
_0-3_LAYER005
  6
Continuous
 62
     2
100
AcDbCircle
 10
1086.7712
 20
850.7728999999997
 30
0.0
 40
0.188
  0
CIRCLE
  5
206
330
20
100
AcDbEntity
  8
_0-3_LAYER005
  6
Continuous
 62
     2
100
AcDbCircle
 10
1088.8382
 20
851.5249
 30
0.0
 40
0.188
  0
CIRCLE
  5
207
330
20
100
AcDbEntity
  8
_0-3_LAYER005
  6
Continuous
 62
     2
100
AcDbCircle
 10
1086.3952
 20
848.1429
 30
0.0
 40
0.188
  0
CIRCLE
  5
208
330
20
100
AcDbEntity
  8
_0-3_LAYER005
  6
Continuous
 62
     2
100
AcDbCircle
 10
1088.4622
 20
848.8939
 30
0.0
 40
0.188
  0
CIRCLE
  5
209
330
20
100
AcDbEntity
  8
_0-3_LAYER005
  6
Continuous
 62
     2
100
AcDbCircle
 10
1087.3352
 20
845.5118999999998
 30
0.0
 40
0.188
  0
CIRCLE
  5
20A
330
20
100
AcDbEntity
  8
_0-3_LAYER005
  6
Continuous
 62
     2
100
AcDbCircle
 10
1089.4012
 20
846.2638999999997
 30
0.0
 40
0.188
  0
CIRCLE
  5
20B
330
20
100
AcDbEntity
  8
_0-3_LAYER005
  6
Continuous
 62
     2
100
AcDbCircle
 10
1088.4622
 20
845.1368999999997
 30
0.0
 40
0.188
  0
CIRCLE
  5
20C
330
20
100
AcDbEntity
  8
_0-3_LAYER005
  6
Continuous
 62
     2
100
AcDbCircle
 10
1090.5292
 20
845.8878999999997
 30
0.0
 40
0.188
  0
CIRCLE
  5
20D
330
20
100
AcDbEntity
  8
_0-3_LAYER005
  6
Continuous
 62
     2
100
AcDbCircle
 10
1098.9842
 20
847.3909
 30
0.0
 40
0.188
  0
CIRCLE
  5
20E
330
20
100
AcDbEntity
  8
_0-3_LAYER005
  6
Continuous
 62
     2
100
AcDbCircle
 10
1101.0502
 20
848.1429
 30
0.0
 40
0.188
  0
CIRCLE
  5
20F
330
20
100
AcDbEntity
  8
_0-3_LAYER005
  6
Continuous
 62
     2
100
AcDbCircle
 10
1100.8622
 20
849.0818999999998
 30
0.0
 40
0.188
  0
CIRCLE
  5
210
330
20
100
AcDbEntity
  8
_0-3_LAYER005
  6
Continuous
 62
     2
100
AcDbCircle
 10
1102.9292
 20
849.8339000000001
 30
0.0
 40
0.188
  0
CIRCLE
  5
211
330
20
100
AcDbEntity
  8
_0-3_LAYER005
  6
Continuous
 62
     2
100
AcDbCircle
 10
1101.0502
 20
855.6578999999997
 30
0.0
 40
0.188
  0
CIRCLE
  5
212
330
20
100
AcDbEntity
  8
_0-3_LAYER005
  6
Continuous
 62
     2
100
AcDbCircle
 10
1103.1172
 20
856.4099
 30
0.0
 40
0.188
  0
CIRCLE
  5
213
330
20
100
AcDbEntity
  8
_0-3_LAYER005
  6
Continuous
 62
     2
100
AcDbCircle
 10
1098.4202
 20
863.5488999999999
 30
0.0
 40
0.188
  0
CIRCLE
  5
214
330
20
100
AcDbEntity
  8
_0-3_LAYER005
  6
Continuous
 62
     2
100
AcDbCircle
 10
1100.4872
 20
864.3008999999999
 30
0.0
 40
0.188
  0
CIRCLE
  5
215
330
20
100
AcDbEntity
  8
_0-3_LAYER005
  6
Continuous
 62
     2
100
AcDbCircle
 10
1096.9172
 20
867.3068999999999
 30
0.0
 40
0.188
  0
CIRCLE
  5
216
330
20
100
AcDbEntity
  8
_0-3_LAYER005
  6
Continuous
 62
     2
100
AcDbCircle
 10
1098.9842
 20
868.0588999999999
 30
0.0
 40
0.188
  0
CIRCLE
  5
217
330
20
100
AcDbEntity
  8
_0-3_LAYER005
  6
Continuous
 62
     2
100
AcDbCircle
 10
1089.2142
 20
864.8649
 30
0.0
 40
0.188
  0
CIRCLE
  5
218
330
20
100
AcDbEntity
  8
_0-3_LAYER005
  6
Continuous
 62
     2
100
AcDbCircle
 10
1091.2802
 20
865.6159
 30
0.0
 40
0.188
  0
CIRCLE
  5
219
330
20
100
AcDbEntity
  8
_0-3_LAYER005
  6
Continuous
 62
     2
100
AcDbCircle
 10
1085.8322
 20
866.9309
 30
0.0
 40
0.188
  0
CIRCLE
  5
21A
330
20
100
AcDbEntity
  8
_0-3_LAYER005
  6
Continuous
 62
     2
100
AcDbCircle
 10
1087.8982
 20
867.6828999999999
 30
0.0
 40
0.188
  0
CIRCLE
  5
21B
330
20
100
AcDbEntity
  8
_0-3_LAYER005
  6
Continuous
 62
     2
100
AcDbCircle
 10
1082.6382
 20
869.9368999999999
 30
0.0
 40
0.188
  0
CIRCLE
  5
21C
330
20
100
AcDbEntity
  8
_0-3_LAYER005
  6
Continuous
 62
     2
100
AcDbCircle
 10
1084.7042
 20
870.6889000000002
 30
0.0
 40
0.188
  0
CIRCLE
  5
21D
330
20
100
AcDbEntity
  8
_0-3_LAYER005
  6
Continuous
 62
     2
100
AcDbCircle
 10
1076.6252
 20
875.7618999999998
 30
0.0
 40
0.188
  0
CIRCLE
  5
21E
330
20
100
AcDbEntity
  8
_0-3_LAYER005
  6
Continuous
 62
     2
100
AcDbCircle
 10
1078.6922
 20
876.5128999999998
 30
0.0
 40
0.188
  0
CIRCLE
  5
21F
330
20
100
AcDbEntity
  8
_0-3_LAYER005
  6
Continuous
 62
     2
100
AcDbCircle
 10
1074.9342
 20
876.5128999999998
 30
0.0
 40
0.188
  0
CIRCLE
  5
220
330
20
100
AcDbEntity
  8
_0-3_LAYER005
  6
Continuous
 62
     2
100
AcDbCircle
 10
1077.0012
 20
877.2648999999999
 30
0.0
 40
0.188
  0
CIRCLE
  5
221
330
20
100
AcDbEntity
  8
_0-3_LAYER005
  6
Continuous
 62
     2
100
AcDbCircle
 10
1073.9952
 20
877.4528999999999
 30
0.0
 40
0.188
  0
CIRCLE
  5
222
330
20
100
AcDbEntity
  8
_0-3_LAYER005
  6
Continuous
 62
     2
100
AcDbCircle
 10
1076.0622
 20
878.2038999999999
 30
0.0
 40
0.188
  0
CIRCLE
  5
223
330
20
100
AcDbEntity
  8
_0-3_LAYER005
  6
Continuous
 62
     2
100
AcDbCircle
 10
1070.6132
 20
882.5259000000002
 30
0.0
 40
0.188
  0
CIRCLE
  5
224
330
20
100
AcDbEntity
  8
_0-3_LAYER005
  6
Continuous
 62
     2
100
AcDbCircle
 10
1072.6802
 20
883.2768999999998
 30
0.0
 40
0.188
  0
CIRCLE
  5
225
330
20
100
AcDbEntity
  8
_0-3_LAYER005
  6
Continuous
 62
     2
100
AcDbCircle
 10
1070.6132
 20
885.1558999999998
 30
0.0
 40
0.188
  0
CIRCLE
  5
226
330
20
100
AcDbEntity
  8
_0-3_LAYER005
  6
Continuous
 62
     2
100
AcDbCircle
 10
1072.6802
 20
885.9078999999997
 30
0.0
 40
0.188
  0
CIRCLE
  5
227
330
20
100
AcDbEntity
  8
_0-3_LAYER005
  6
Continuous
 62
     2
100
AcDbCircle
 10
1074.5592
 20
880.0829000000002
 30
0.0
 40
0.188
  0
CIRCLE
  5
228
330
20
100
AcDbEntity
  8
_0-3_LAYER005
  6
Continuous
 62
     2
100
AcDbCircle
 10
1076.6252
 20
880.8348999999999
 30
0.0
 40
0.188
  0
CIRCLE
  5
229
330
20
100
AcDbEntity
  8
_0-3_LAYER005
  6
Continuous
 62
     2
100
AcDbCircle
 10
1071.1772
 20
877.8288999999999
 30
0.0
 40
0.188
  0
CIRCLE
  5
22A
330
20
100
AcDbEntity
  8
_0-3_LAYER005
  6
Continuous
 62
     2
100
AcDbCircle
 10
1073.2432
 20
878.5798999999999
 30
0.0
 40
0.188
  0
CIRCLE
  5
22B
330
20
100
AcDbEntity
  8
_0-3_LAYER005
  6
Continuous
 62
     2
100
AcDbCircle
 10
1080.9472
 20
877.6409000000001
 30
0.0
 40
0.188
  0
CIRCLE
  5
22C
330
20
100
AcDbEntity
  8
_0-3_LAYER005
  6
Continuous
 62
     2
100
AcDbCircle
 10
1083.0132
 20
878.3918999999999
 30
0.0
 40
0.188
  0
CIRCLE
  5
22D
330
20
100
AcDbEntity
  8
_0-3_LAYER005
  6
Continuous
 62
     2
100
AcDbCircle
 10
1082.4502
 20
877.0768999999999
 30
0.0
 40
0.188
  0
CIRCLE
  5
22E
330
20
100
AcDbEntity
  8
_0-3_LAYER005
  6
Continuous
 62
     2
100
AcDbCircle
 10
1084.5162
 20
877.8288999999999
 30
0.0
 40
0.188
  0
CIRCLE
  5
22F
330
20
100
AcDbEntity
  8
_0-3_LAYER005
  6
Continuous
 62
     2
100
AcDbCircle
 10
1081.5102
 20
874.4468999999998
 30
0.0
 40
0.188
  0
CIRCLE
  5
230
330
20
100
AcDbEntity
  8
_0-3_LAYER005
  6
Continuous
 62
     2
100
AcDbCircle
 10
1083.5772
 20
875.1979
 30
0.0
 40
0.188
  0
CIRCLE
  5
231
330
20
100
AcDbEntity
  8
_0-3_LAYER005
  6
Continuous
 62
     2
100
AcDbCircle
 10
1082.0742
 20
882.9009000000002
 30
0.0
 40
0.188
  0
CIRCLE
  5
232
330
20
100
AcDbEntity
  8
_0-3_LAYER005
  6
Continuous
 62
     2
100
AcDbCircle
 10
1084.1412
 20
883.6529
 30
0.0
 40
0.188
  0
CIRCLE
  5
233
330
20
100
AcDbEntity
  8
_0-3_LAYER005
  6
Continuous
 62
     2
100
AcDbCircle
 10
1089.9652
 20
876.7008999999999
 30
0.0
 40
0.188
  0
CIRCLE
  5
234
330
20
100
AcDbEntity
  8
_0-3_LAYER005
  6
Continuous
 62
     2
100
AcDbCircle
 10
1092.0322
 20
877.4528999999999
 30
0.0
 40
0.188
  0
CIRCLE
  5
235
330
20
100
AcDbEntity
  8
_0-3_LAYER005
  6
Continuous
 62
     2
100
AcDbCircle
 10
1093.7232
 20
873.1309000000001
 30
0.0
 40
0.188
  0
CIRCLE
  5
236
330
20
100
AcDbEntity
  8
_0-3_LAYER005
  6
Continuous
 62
     2
100
AcDbCircle
 10
1095.7902
 20
873.8828999999999
 30
0.0
 40
0.188
  0
CIRCLE
  5
237
330
20
100
AcDbEntity
  8
_0-3_LAYER005
  6
Continuous
 62
     2
100
AcDbCircle
 10
1078.3162
 20
868.0588999999999
 30
0.0
 40
0.188
  0
CIRCLE
  5
238
330
20
100
AcDbEntity
  8
_0-3_LAYER005
  6
Continuous
 62
     2
100
AcDbCircle
 10
1080.3832
 20
868.8098999999999
 30
0.0
 40
0.188
  0
CIRCLE
  5
239
330
20
100
AcDbEntity
  8
_0-3_LAYER005
  6
Continuous
 62
     2
100
AcDbCircle
 10
1077.7532
 20
867.3068999999999
 30
0.0
 40
0.188
  0
CIRCLE
  5
23A
330
20
100
AcDbEntity
  8
_0-3_LAYER005
  6
Continuous
 62
     2
100
AcDbCircle
 10
1079.8192
 20
868.0588999999999
 30
0.0
 40
0.188
  0
CIRCLE
  5
23B
330
20
100
AcDbEntity
  8
_0-3_LAYER005
  6
Continuous
 62
     2
100
AcDbCircle
 10
1077.0012
 20
867.1188999999998
 30
0.0
 40
0.188
  0
CIRCLE
  5
23C
330
20
100
AcDbEntity
  8
_0-3_LAYER005
  6
Continuous
 62
     2
100
AcDbCircle
 10
1079.0682
 20
867.8708999999999
 30
0.0
 40
0.188
  0
CIRCLE
  5
23D
330
20
100
AcDbEntity
  8
_0-3_LAYER005
  6
Continuous
 62
     2
100
AcDbCircle
 10
1088.8382
 20
868.4338999999999
 30
0.0
 40
0.188
  0
CIRCLE
  5
23E
330
20
100
AcDbEntity
  8
_0-3_LAYER005
  6
Continuous
 62
     2
100
AcDbCircle
 10
1090.9052
 20
869.1858999999999
 30
0.0
 40
0.188
  0
CIRCLE
  5
23F
330
20
100
AcDbEntity
  8
_0-3_LAYER005
  6
Continuous
 62
     2
100
AcDbCircle
 10
1083.2012
 20
858.6638999999999
 30
0.0
 40
0.188
  0
CIRCLE
  5
240
330
20
100
AcDbEntity
  8
_0-3_LAYER005
  6
Continuous
 62
     2
100
AcDbCircle
 10
1085.2682
 20
859.4158999999999
 30
0.0
 40
0.188
  0
CIRCLE
  5
241
330
20
100
AcDbEntity
  8
_0-3_LAYER005
  6
Continuous
 62
     2
100
AcDbCircle
 10
1082.0742
 20
850.9609000000001
 30
0.0
 40
0.188
  0
CIRCLE
  5
242
330
20
100
AcDbEntity
  8
_0-3_LAYER005
  6
Continuous
 62
     2
100
AcDbCircle
 10
1084.1412
 20
851.7129
 30
0.0
 40
0.188
  0
CIRCLE
  5
243
330
20
100
AcDbEntity
  8
_0-3_LAYER005
  6
Continuous
 62
     2
100
AcDbCircle
 10
1083.7652
 20
849.2698999999999
 30
0.0
 40
0.188
  0
CIRCLE
  5
244
330
20
100
AcDbEntity
  8
_0-3_LAYER005
  6
Continuous
 62
     2
100
AcDbCircle
 10
1085.8322
 20
850.0218999999997
 30
0.0
 40
0.188
  0
CIRCLE
  5
245
330
20
100
AcDbEntity
  8
_0-3_LAYER005
  6
Continuous
 62
     2
100
AcDbCircle
 10
1087.3352
 20
843.6339
 30
0.0
 40
0.188
  0
CIRCLE
  5
246
330
20
100
AcDbEntity
  8
_0-3_LAYER005
  6
Continuous
 62
     2
100
AcDbCircle
 10
1089.4012
 20
844.3849
 30
0.0
 40
0.188
  0
CIRCLE
  5
247
330
20
100
AcDbEntity
  8
_0-3_LAYER005
  6
Continuous
 62
     2
100
AcDbCircle
 10
1091.8442
 20
852.4638999999998
 30
0.0
 40
0.188
  0
CIRCLE
  5
248
330
20
100
AcDbEntity
  8
_0-3_LAYER005
  6
Continuous
 62
     2
100
AcDbCircle
 10
1093.9112
 20
853.2158999999998
 30
0.0
 40
0.188
  0
CIRCLE
  5
249
330
20
100
AcDbEntity
  8
_0-3_LAYER005
  6
Continuous
 62
     2
100
AcDbCircle
 10
1098.0442
 20
854.9068999999999
 30
0.0
 40
0.188
  0
CIRCLE
  5
24A
330
20
100
AcDbEntity
  8
_0-3_LAYER005
  6
Continuous
 62
     2
100
AcDbCircle
 10
1100.1112
 20
855.6578999999997
 30
0.0
 40
0.188
  0
CIRCLE
  5
24B
330
20
100
AcDbEntity
  8
_0-3_LAYER005
  6
Continuous
 62
     2
100
AcDbCircle
 10
1097.6682
 20
859.4158999999999
 30
0.0
 40
0.188
  0
CIRCLE
  5
24C
330
20
100
AcDbEntity
  8
_0-3_LAYER005
  6
Continuous
 62
     2
100
AcDbCircle
 10
1099.7352
 20
860.1668999999999
 30
0.0
 40
0.188
  0
CIRCLE
  5
24D
330
20
100
AcDbEntity
  8
_0-3_LAYER005
  6
Continuous
 62
     2
100
AcDbCircle
 10
1097.2932
 20
857.9129
 30
0.0
 40
0.188
  0
CIRCLE
  5
24E
330
20
100
AcDbEntity
  8
_0-3_LAYER005
  6
Continuous
 62
     2
100
AcDbCircle
 10
1099.3592
 20
858.6638999999999
 30
0.0
 40
0.188
  0
CIRCLE
  5
24F
330
20
100
AcDbEntity
  8
_0-3_LAYER005
  6
Continuous
 62
     2
100
AcDbCircle
 10
1091.6562
 20
854.3429000000001
 30
0.0
 40
0.188
  0
CIRCLE
  5
250
330
20
100
AcDbEntity
  8
_0-3_LAYER005
  6
Continuous
 62
     2
100
AcDbCircle
 10
1093.7232
 20
855.0949000000001
 30
0.0
 40
0.188
  0
CIRCLE
  5
251
330
20
100
AcDbEntity
  8
_0-3_LAYER005
  6
Continuous
 62
     2
100
AcDbCircle
 10
1089.0262
 20
854.3429000000001
 30
0.0
 40
0.188
  0
CIRCLE
  5
252
330
20
100
AcDbEntity
  8
_0-3_LAYER005
  6
Continuous
 62
     2
100
AcDbCircle
 10
1091.0922
 20
855.0949000000001
 30
0.0
 40
0.188
  0
CIRCLE
  5
253
330
20
100
AcDbEntity
  8
_0-3_LAYER005
  6
Continuous
 62
     2
100
AcDbCircle
 10
1087.7112
 20
870.1249
 30
0.0
 40
0.188
  0
CIRCLE
  5
254
330
20
100
AcDbEntity
  8
_0-3_LAYER005
  6
Continuous
 62
     2
100
AcDbCircle
 10
1089.7772
 20
870.8769
 30
0.0
 40
0.188
  0
CIRCLE
  5
255
330
20
100
AcDbEntity
  8
_0-3_LAYER005
  6
Continuous
 62
     2
100
AcDbCircle
 10
1081.6982
 20
870.1249
 30
0.0
 40
0.188
  0
CIRCLE
  5
256
330
20
100
AcDbEntity
  8
_0-3_LAYER005
  6
Continuous
 62
     2
100
AcDbCircle
 10
1083.7652
 20
870.8769
 30
0.0
 40
0.188
  0
LINE
  5
257
330
20
100
AcDbEntity
  8
_0-0_LAYER001
  6
Continuous
 62
     2
100
AcDbLine
 10
1799.7056
 20
793.8805999999998
 30
0.0
 11
2004.5283
 21
793.8805999999998
 31
0.0
  0
LINE
  5
258
330
20
100
AcDbEntity
  8
_0-0_LAYER001
  6
Continuous
 62
     2
100
AcDbLine
 10
1815.5082
 20
731.4186999999998
 30
0.0
 11
2069.5033
 21
731.4186999999998
 31
0.0
  0
LINE
  5
259
330
20
100
AcDbEntity
  8
_0-0_LAYER001
  6
Continuous
 62
     2
100
AcDbLine
 10
1708.4911
 20
1120.2159
 30
0.0
 11
1708.4911
 21
1127.7159
 31
0.0
  0
LINE
  5
25A
330
20
100
AcDbEntity
  8
_0-0_LAYER001
  6
Continuous
 62
     2
100
AcDbLine
 10
1708.4911
 20
1127.7159
 30
0.0
 11
1712.2411
 21
1121.2207
 31
0.0
  0
LINE
  5
25B
330
20
100
AcDbEntity
  8
_0-0_LAYER001
  6
Continuous
 62
     2
100
AcDbLine
 10
1708.4911
 20
1127.7159
 30
0.0
 11
1814.7342
 21
731.2112999999998
 31
0.0
  0
LINE
  5
25C
330
20
100
AcDbEntity
  8
_0-1_LAYER003
  6
Continuous
 62
     7
100
AcDbLine
 10
809.7890999999998
 20
1012.8291
 30
0.0
 11
1048.2891
 21
1012.8291
 31
0.0
  0
LINE
  5
25D
330
20
100
AcDbEntity
  8
_0-1_LAYER003
  6
Continuous
 62
     7
100
AcDbLine
 10
1048.2891
 20
1012.8291
 30
0.0
 11
1124.5448
 21
880.7503999999999
 31
0.0
  0
LINE
  5
25E
330
20
100
AcDbEntity
  8
_0-1_LAYER003
  6
Continuous
 62
     7
100
AcDbLine
 10
1124.5448
 20
880.7503999999999
 30
0.0
 11
1122.6036
 21
887.9947999999998
 31
0.0
  0
LINE
  5
25F
330
20
100
AcDbEntity
  8
_0-1_LAYER003
  6
Continuous
 62
     7
100
AcDbLine
 10
1124.5448
 20
880.7503999999999
 30
0.0
 11
1119.2415
 21
886.0536999999998
 31
0.0
  0
LINE
  5
260
330
20
100
AcDbEntity
  8
_0-1_LAYER003
  6
Continuous
 62
     7
100
AcDbLine
 10
1086.7091
 20
875.6783999999999
 30
0.0
 11
1088.6502
 21
868.4338999999999
 31
0.0
  0
LINE
  5
261
330
20
100
AcDbEntity
  8
_0-1_LAYER003
  6
Continuous
 62
     7
100
AcDbLine
 10
1088.6502
 20
868.4338999999999
 30
0.0
 11
1083.3469
 21
873.7372
 31
0.0
  0
LINE
  5
262
330
20
100
AcDbEntity
  8
_0-1_LAYER003
  6
Continuous
 62
     7
100
AcDbLine
 10
1088.487387298084
 20
868.7159001281649
 30
0.0
 11
1039.2286
 21
954.0347
 31
0.0
  0
LINE
  5
263
330
20
100
AcDbEntity
  8
_0-1_LAYER003
  6
Continuous
 62
     7
100
AcDbLine
 10
1039.2286
 20
954.0347
 30
0.0
 11
998.7286
 21
954.0347
 31
0.0
  0
LINE
  5
264
330
20
100
AcDbEntity
  8
_0-1_LAYER003
  6
Continuous
 62
     7
100
AcDbLine
 10
1190.4967
 20
935.4496000000001
 30
0.0
 11
1188.5556
 21
942.6941000000001
 31
0.0
  0
LINE
  5
265
330
20
100
AcDbEntity
  8
_0-1_LAYER003
  6
Continuous
 62
     7
100
AcDbLine
 10
1190.4967
 20
935.4496000000001
 30
0.0
 11
1185.1934
 21
940.7529
 31
0.0
  0
LINE
  5
266
330
20
100
AcDbEntity
  8
_0-1_LAYER003
  6
Continuous
 62
     7
100
AcDbLine
 10
1190.4967
 20
935.4496000000001
 30
0.0
 11
1097.3993
 21
1096.6992
 31
0.0
  0
LINE
  5
267
330
20
100
AcDbEntity
  8
_0-1_LAYER003
  6
Continuous
 62
     7
100
AcDbLine
 10
1097.3993
 20
1096.6992
 30
0.0
 11
1032.8993
 21
1096.6992
 31
0.0
  0
LINE
  5
268
330
20
100
AcDbEntity
  8
_0-1_LAYER003
  6
Continuous
 62
     7
100
AcDbLine
 10
1071.8755
 20
752.0679
 30
0.0
 11
924.8755
 21
752.0679
 31
0.0
  0
LINE
  5
269
330
20
100
AcDbEntity
  8
_0-1_LAYER003
  6
Continuous
 62
     7
100
AcDbLine
 10
1088.0196
 20
819.8185000000002
 30
0.0
 11
1091.7696
 21
826.3136999999998
 31
0.0
  0
LINE
  5
26A
330
20
100
AcDbEntity
  8
_0-1_LAYER003
  6
Continuous
 62
     7
100
AcDbLine
 10
1091.7696
 20
826.3136999999998
 30
0.0
 11
1091.7696
 21
818.8136999999997
 31
0.0
  0
LINE
  5
26B
330
20
100
AcDbEntity
  8
_0-1_LAYER003
  6
Continuous
 62
     7
100
AcDbLine
 10
1091.7696
 20
826.3136999999998
 30
0.0
 11
1071.8755
 21
752.0679
 31
0.0
  0
LINE
  5
26C
330
20
100
AcDbEntity
  8
_0-1_LAYER003
  6
Continuous
 62
     7
100
AcDbLine
 10
845.2841188604537
 20
734.0222303132435
 30
0.0
 11
892.6161999999997
 21
754.8203000000001
 31
0.0
  0
LINE
  5
26D
330
20
100
AcDbEntity
  8
_0-1_LAYER003
  6
Continuous
 62
     7
100
AcDbLine
 10
857.2999188604535
 20
706.6767303132434
 30
0.0
 11
904.6319999999999
 21
727.4747999999998
 31
0.0
  0
LINE
  5
26E
330
20
100
AcDbEntity
  8
_0-1_LAYER003
  6
Continuous
 62
     7
100
AcDbLine
 10
917.6092191070528
 20
569.4251297520223
 30
0.0
 11
964.9414
 21
590.2231999999997
 31
0.0
  0
LINE
  5
26F
330
20
100
AcDbEntity
  8
_0-1_LAYER003
  6
Continuous
 62
     7
100
AcDbLine
 10
919.1656
 20
570.109
 30
0.0
 11
846.8405
 21
734.7061
 31
0.0
  0
LINE
  5
270
330
20
100
AcDbEntity
  8
_0-1_LAYER003
  6
Continuous
 62
     7
100
AcDbLine
 10
1100.0735
 20
643.6826000000002
 30
0.0
 11
1127.766168943369
 21
580.6600185338116
 31
0.0
  0
LINE
  5
271
330
20
100
AcDbEntity
  8
_0-1_LAYER003
  6
Continuous
 62
     7
100
AcDbLine
 10
1127.0823
 20
582.2163999999999
 30
0.0
 11
2046.3045
 21
986.1314000000001
 31
0.0
  0
LINE
  5
272
330
20
100
AcDbEntity
  8
_0-1_LAYER003
  6
Continuous
 62
     7
100
AcDbLine
 10
2046.988368409532
 20
984.5750182992452
 30
0.0
 11
2026.1902
 21
1031.9071
 31
0.0
  0
LINE
  5
273
330
20
100
AcDbEntity
  8
_0-1_LAYER003
  6
Continuous
 62
     7
100
AcDbLine
 10
1830.935568409532
 20
889.639418299245
 30
0.0
 11
1810.1374
 21
936.9714999999999
 31
0.0
  0
LINE
  5
274
330
20
100
AcDbEntity
  8
_0-1_LAYER003
  6
Continuous
 62
     7
100
AcDbLine
 10
1614.882768409531
 20
794.7037182992451
 30
0.0
 11
1594.0846
 21
842.0358000000002
 31
0.0
  0
LINE
  5
275
330
20
100
AcDbEntity
  8
_0-1_LAYER003
  6
Continuous
 62
     7
100
AcDbLine
 10
1399.1518
 20
699.0356999999997
 30
0.0
 11
1378.0318
 21
747.1002000000002
 31
0.0
  0
LINE
  5
276
330
20
100
AcDbEntity
  8
_0-1_LAYER003
  6
Continuous
 62
     7
100
AcDbLine
 10
1191.852289054512
 20
608.820071315786
 30
0.0
 11
1164.1595
 21
671.8426
 31
0.0
  0
LINE
  5
277
330
20
100
AcDbEntity
  8
_0-1_LAYER003
  6
Continuous
 62
     7
100
AcDbLine
 10
1166.704705808203
 20
628.7570347326204
 30
0.0
 11
1150.4245
 21
665.8073
 31
0.0
  0
LINE
  5
278
330
20
100
AcDbEntity
  8
_0-1_LAYER003
  6
Continuous
 62
     7
100
AcDbLine
 10
1166.020821372403
 20
630.3134093913407
 30
0.0
 11
1179.7559
 21
636.3488
 31
0.0
  0
LINE
  5
279
330
20
100
AcDbEntity
  8
_0-1_LAYER003
  6
Continuous
 62
     7
100
AcDbLine
 10
1101.6682
 20
814.0539
 30
0.0
 11
1157.9926
 21
685.8778999999999
 31
0.0
  0
LINE
  5
27A
330
20
100
AcDbEntity
  8
_0-1_LAYER003
  6
Continuous
 62
     7
100
AcDbLine
 10
1157.9926
 20
685.8778999999999
 30
0.0
 11
1167.112222451469
 21
689.9817353568498
 31
0.0
  0
LINE
  5
27B
330
20
100
AcDbEntity
  8
_0-1_LAYER003
  6
Continuous
 62
     7
100
AcDbLine
 10
1167.112222451469
 20
689.9817353568498
 30
0.0
 11
1171.1346
 21
680.826
 31
0.0
  0
LINE
  5
27C
330
20
100
AcDbEntity
  8
_0-1_LAYER003
  6
Continuous
 62
     7
100
AcDbLine
 10
1171.1346
 20
680.8259000000001
 30
0.0
 11
2160.2108
 21
1125.9107
 31
0.0
  0
LINE
  5
27D
330
20
100
AcDbEntity
  8
_0-1_LAYER003
  6
Continuous
 62
     7
100
AcDbLine
 10
2156.1071
 20
1135.03
 30
0.0
 11
1167.1477
 21
689.9010000000002
 31
0.0
  0
LINE
  5
27E
330
20
100
AcDbEntity
  8
_0-1_LAYER003
  6
Continuous
 62
     7
100
AcDbLine
 10
1105.6914
 20
804.8985
 30
0.0
 11
2102.7597
 21
1253.5797
 31
0.0
  0
LINE
  5
27F
330
20
100
AcDbEntity
  8
_0-1_LAYER003
  6
Continuous
 62
     7
100
AcDbLine
 10
2084.7037
 20
1293.704
 30
0.0
 11
1104.5857
 21
852.6512999999999
 31
0.0
  0
LINE
  5
280
330
20
100
AcDbEntity
  8
_0-1_LAYER003
  6
Continuous
 62
     7
100
AcDbLine
 10
1157.9952
 20
872.2989
 30
0.0
 11
2086.3449
 21
1290.0569
 31
0.0
  0
LINE
  5
281
330
20
100
AcDbEntity
  8
_0-1_LAYER003
  6
Continuous
 62
     7
100
AcDbLine
 10
1274.9374
 20
901.9570999999999
 30
0.0
 11
1284.092499999999
 21
905.9801000000001
 31
0.0
  0
LINE
  5
282
330
20
100
AcDbEntity
  8
_0-1_LAYER003
  6
Continuous
 62
     7
100
AcDbLine
 10
1284.092499999999
 20
905.9801000000001
 30
0.0
 11
1310.8971
 21
844.9815
 31
0.0
  0
LINE
  5
283
330
20
100
AcDbEntity
  8
_0-1_LAYER003
  6
Continuous
 62
     7
100
AcDbLine
 10
1310.8971
 20
844.9815
 30
0.0
 11
1329.1808
 21
853.0159000000001
 31
0.0
  0
LINE
  5
284
330
20
100
AcDbEntity
  8
_0-1_LAYER003
  6
Continuous
 62
     7
100
AcDbLine
 10
1329.1808
 20
853.0159000000001
 30
0.0
 11
1333.2038
 21
843.8607999999998
 31
0.0
  0
LINE
  5
285
330
20
100
AcDbEntity
  8
_0-1_LAYER003
  6
Continuous
 62
     7
100
AcDbLine
 10
1333.2038
 20
843.8607999999998
 30
0.0
 11
1305.7651
 21
831.8034
 31
0.0
  0
LINE
  5
286
330
20
100
AcDbEntity
  8
_0-1_LAYER003
  6
Continuous
 62
     7
100
AcDbLine
 10
1305.7651
 20
831.8034
 30
0.0
 11
1274.9374
 21
901.9570999999999
 31
0.0
  0
LINE
  5
287
330
20
100
AcDbEntity
  8
_0-1_LAYER003
  6
Continuous
 62
     7
100
AcDbLine
 10
1321.0694
 20
901.8187000000001
 30
0.0
 11
1254.247321524754
 21
718.2267591387081
 31
0.0
  0
LINE
  5
288
330
20
100
AcDbEntity
  8
_0-1_LAYER003
  6
Continuous
 62
     7
100
AcDbLine
 10
1241.521
 20
712.4999
 30
0.0
 11
1308.343082376345
 21
896.0918515794631
 31
0.0
  0
LINE
  5
289
330
20
100
AcDbEntity
  8
_0-1_LAYER003
  6
Continuous
 62
     7
100
AcDbLine
 10
1295.615981969158
 20
890.3646504607259
 30
0.0
 11
1228.793903874432
 21
706.7727106449032
 31
0.0
  0
LINE
  5
28A
330
20
100
AcDbEntity
  8
_0-1_LAYER003
  6
Continuous
 62
     7
100
AcDbLine
 10
1110.842312928135
 20
851.0802157182091
 30
0.0
 11
1095.3564
 21
885.4936
 31
0.0
  0
LINE
  5
28B
330
20
100
AcDbEntity
  8
_0-1_LAYER003
  6
Continuous
 62
     7
100
AcDbLine
 10
1095.3564
 20
885.4936
 30
0.0
 11
1138.5406
 21
899.1866999999999
 31
0.0
  0
LINE
  5
28C
330
20
100
AcDbEntity
  8
_0-1_LAYER003
  6
Continuous
 62
     7
100
AcDbLine
 10
1138.5406
 20
899.1866999999999
 30
0.0
 11
1151.879240158534
 21
869.5467329745032
 31
0.0
  0
LINE
  5
28D
330
20
100
AcDbEntity
  8
_0-1_LAYER003
  6
Continuous
 62
     7
100
AcDbLine
 10
1151.879240158534
 20
869.5467329745032
 30
0.0
 11
1095.3564
 21
885.4936
 31
0.0
  0
LINE
  5
28E
330
20
100
AcDbEntity
  8
_0-1_LAYER003
  6
Continuous
 62
     7
100
AcDbLine
 10
1110.842307693919
 20
851.0802133628249
 30
0.0
 11
1138.5406
 21
899.1866999999999
 31
0.0
  0
LINE
  5
28F
330
20
100
AcDbEntity
  8
_0-1_LAYER003
  6
Continuous
 62
     7
100
AcDbLine
 10
1086.1392
 20
839.9638999999998
 30
0.0
 11
1069.935501613443
 21
875.9726404572198
 31
0.0
  0
LINE
  5
290
330
20
100
AcDbEntity
  8
_0-1_LAYER003
  6
Continuous
 62
     7
100
AcDbLine
 10
1259.4827
 20
941.9894000000001
 30
0.0
 11
1265.6389
 21
928.3108999999999
 31
0.0
  0
LINE
  5
291
330
20
100
AcDbEntity
  8
_0-1_LAYER003
  6
Continuous
 62
     7
100
AcDbLine
 10
1265.6389
 20
928.3108999999999
 30
0.0
 11
1292.9959
 21
940.6233
 31
0.0
  0
LINE
  5
292
330
20
100
AcDbEntity
  8
_0-1_LAYER003
  6
Continuous
 62
     7
100
AcDbLine
 10
1292.9959
 20
940.6233
 30
0.0
 11
1286.8397
 21
954.3018
 31
0.0
  0
LINE
  5
293
330
20
100
AcDbEntity
  8
_0-1_LAYER003
  6
Continuous
 62
     7
100
AcDbLine
 10
1259.4827
 20
941.9894000000001
 30
0.0
 11
1286.8397
 21
954.3018
 31
0.0
  0
LINE
  5
294
330
20
100
AcDbEntity
  8
_0-1_LAYER003
  6
Continuous
 62
     7
100
AcDbLine
 10
1286.8397
 20
954.3018
 30
0.0
 11
1265.6389
 21
928.3108999999999
 31
0.0
  0
LINE
  5
295
330
20
100
AcDbEntity
  8
_0-1_LAYER003
  6
Continuous
 62
     7
100
AcDbLine
 10
1474.6911
 20
1038.8468
 30
0.0
 11
1502.0481
 21
1051.1592
 31
0.0
  0
LINE
  5
296
330
20
100
AcDbEntity
  8
_0-1_LAYER003
  6
Continuous
 62
     7
100
AcDbLine
 10
1502.0481
 20
1051.1592
 30
0.0
 11
1508.2043
 21
1037.4807
 31
0.0
  0
LINE
  5
297
330
20
100
AcDbEntity
  8
_0-1_LAYER003
  6
Continuous
 62
     7
100
AcDbLine
 10
1508.2043
 20
1037.4807
 30
0.0
 11
1480.8473
 21
1025.1683
 31
0.0
  0
LINE
  5
298
330
20
100
AcDbEntity
  8
_0-1_LAYER003
  6
Continuous
 62
     7
100
AcDbLine
 10
1480.8473
 20
1025.1683
 30
0.0
 11
1474.6911
 21
1038.8468
 31
0.0
  0
LINE
  5
299
330
20
100
AcDbEntity
  8
_0-1_LAYER003
  6
Continuous
 62
     7
100
AcDbLine
 10
1480.8473
 20
1025.1683
 30
0.0
 11
1502.0481
 21
1051.1592
 31
0.0
  0
LINE
  5
29A
330
20
100
AcDbEntity
  8
_0-1_LAYER003
  6
Continuous
 62
     7
100
AcDbLine
 10
1596.4597
 20
1115.2387
 30
0.0
 11
1594.5186
 21
1122.4832
 31
0.0
  0
LINE
  5
29B
330
20
100
AcDbEntity
  8
_0-1_LAYER003
  6
Continuous
 62
     7
100
AcDbLine
 10
1596.4597
 20
1115.2387
 30
0.0
 11
1591.1564
 21
1120.542
 31
0.0
  0
LINE
  5
29C
330
20
100
AcDbEntity
  8
_0-1_LAYER003
  6
Continuous
 62
     7
100
AcDbLine
 10
1596.4597
 20
1115.2387
 30
0.0
 11
1544.3508
 21
1205.494
 31
0.0
  0
LINE
  5
29D
330
20
100
AcDbEntity
  8
_0-1_LAYER003
  6
Continuous
 62
     7
100
AcDbLine
 10
1544.3508
 20
1205.494
 30
0.0
 11
1503.8508
 21
1205.494
 31
0.0
  0
LINE
  5
29E
330
20
100
AcDbEntity
  8
_0-1_LAYER003
  6
Continuous
 62
     7
100
AcDbLine
 10
1689.8995
 20
1135.7042
 30
0.0
 11
1696.0557
 21
1122.0257
 31
0.0
  0
LINE
  5
29F
330
20
100
AcDbEntity
  8
_0-1_LAYER003
  6
Continuous
 62
     7
100
AcDbLine
 10
1696.0557
 20
1122.0257
 30
0.0
 11
1723.4126
 21
1134.3381
 31
0.0
  0
LINE
  5
2A0
330
20
100
AcDbEntity
  8
_0-1_LAYER003
  6
Continuous
 62
     7
100
AcDbLine
 10
1723.4126
 20
1134.3381
 30
0.0
 11
1717.2565
 21
1148.0166
 31
0.0
  0
LINE
  5
2A1
330
20
100
AcDbEntity
  8
_0-1_LAYER003
  6
Continuous
 62
     7
100
AcDbLine
 10
1717.2565
 20
1148.0166
 30
0.0
 11
1689.8995
 21
1135.7042
 31
0.0
  0
LINE
  5
2A2
330
20
100
AcDbEntity
  8
_0-1_LAYER003
  6
Continuous
 62
     7
100
AcDbLine
 10
1696.0557
 20
1122.0257
 30
0.0
 11
1717.2565
 21
1148.0166
 31
0.0
  0
LINE
  5
2A3
330
20
100
AcDbEntity
  8
_0-1_LAYER003
  6
Continuous
 62
     7
100
AcDbLine
 10
1708.4911
 20
1127.7159
 30
0.0
 11
1708.4911
 21
1120.2159
 31
0.0
  0
LINE
  5
2A4
330
20
100
AcDbEntity
  8
_0-1_LAYER003
  6
Continuous
 62
     7
100
AcDbLine
 10
1708.4911
 20
1127.622445938319
 30
0.0
 11
1712.016854977044
 21
1121.609104339494
 31
0.0
  0
LINE
  5
2A5
330
20
100
AcDbEntity
  8
_0-1_LAYER003
  6
Continuous
 62
     7
100
AcDbLine
 10
1708.533927207833
 20
1127.641720991915
 30
0.0
 11
1814.7342
 21
731.2112999999998
 31
0.0
  0
LINE
  5
2A6
330
20
100
AcDbEntity
  8
_0-1_LAYER003
  6
Continuous
 62
     7
100
AcDbLine
 10
1815.5082
 20
731.4186999999998
 30
0.0
 11
2069.5033
 21
731.4186999999998
 31
0.0
  0
LINE
  5
2A7
330
20
100
AcDbEntity
  8
_0-1_LAYER003
  6
Continuous
 62
     7
100
AcDbLine
 10
1799.7056
 20
793.8805999999998
 30
0.0
 11
2004.5283
 21
793.8805999999998
 31
0.0
  0
LINE
  5
2A8
330
20
100
AcDbEntity
  8
_0-1_LAYER003
  6
Continuous
 62
     7
100
AcDbLine
 10
1822.1115
 20
1148.1857
 30
0.0
 11
1831.2666
 21
1152.2088
 31
0.0
  0
LINE
  5
2A9
330
20
100
AcDbEntity
  8
_0-1_LAYER003
  6
Continuous
 62
     7
100
AcDbLine
 10
1831.2666
 20
1152.2088
 30
0.0
 11
1858.0712
 21
1091.2101
 31
0.0
  0
LINE
  5
2AA
330
20
100
AcDbEntity
  8
_0-1_LAYER003
  6
Continuous
 62
     7
100
AcDbLine
 10
1858.0712
 20
1091.2101
 30
0.0
 11
1876.3549
 21
1099.2445
 31
0.0
  0
LINE
  5
2AB
330
20
100
AcDbEntity
  8
_0-1_LAYER003
  6
Continuous
 62
     7
100
AcDbLine
 10
1876.3549
 20
1099.2445
 30
0.0
 11
1880.3779
 21
1090.0894
 31
0.0
  0
LINE
  5
2AC
330
20
100
AcDbEntity
  8
_0-1_LAYER003
  6
Continuous
 62
     7
100
AcDbLine
 10
1880.3779
 20
1090.0894
 30
0.0
 11
1852.9392
 21
1078.032
 31
0.0
  0
LINE
  5
2AD
330
20
100
AcDbEntity
  8
_0-1_LAYER003
  6
Continuous
 62
     7
100
AcDbLine
 10
1852.9392
 20
1078.032
 30
0.0
 11
1822.1115
 21
1148.1857
 31
0.0
  0
LINE
  5
2AE
330
20
100
AcDbEntity
  8
_0-1_LAYER003
  6
Continuous
 62
     7
100
AcDbLine
 10
1849.765
 20
1096.7035
 30
0.0
 11
1844.4617
 21
1091.4002
 31
0.0
  0
LINE
  5
2AF
330
20
100
AcDbEntity
  8
_0-1_LAYER003
  6
Continuous
 62
     7
100
AcDbLine
 10
1849.765
 20
1096.7035
 30
0.0
 11
1847.8239
 21
1089.459
 31
0.0
  0
LINE
  5
2B0
330
20
100
AcDbEntity
  8
_0-1_LAYER003
  6
Continuous
 62
     7
100
AcDbLine
 10
1849.765
 20
1096.7035
 30
0.0
 11
1828.2269
 21
1059.3984
 31
0.0
  0
LINE
  5
2B1
330
20
100
AcDbEntity
  8
_0-1_LAYER003
  6
Continuous
 62
     7
100
AcDbLine
 10
1828.2269
 20
1059.3984
 30
0.0
 11
1768.2269
 21
1059.3984
 31
0.0
  0
LINE
  5
2B2
330
20
100
AcDbEntity
  8
_0-1_LAYER003
  6
Continuous
 62
     7
100
AcDbLine
 10
1744.102377250657
 20
1092.183737496767
 30
0.0
 11
1677.2803
 21
908.5918000000001
 31
0.0
  0
LINE
  5
2B3
330
20
100
AcDbEntity
  8
_0-1_LAYER003
  6
Continuous
 62
     7
100
AcDbLine
 10
1664.554
 20
902.865
 30
0.0
 11
1731.3761
 21
1086.4569
 31
0.0
  0
LINE
  5
2B4
330
20
100
AcDbEntity
  8
_0-1_LAYER003
  6
Continuous
 62
     7
100
AcDbLine
 10
1718.650296023431
 20
1080.730289074498
 30
0.0
 11
1651.8281
 21
897.1382999999999
 31
0.0
  0
LINE
  5
2B5
330
20
100
AcDbEntity
  8
_0-1_LAYER003
  6
Continuous
 62
     7
100
AcDbLine
 10
1905.1078
 20
1232.5616
 30
0.0
 11
1911.264
 21
1218.8831
 31
0.0
  0
LINE
  5
2B6
330
20
100
AcDbEntity
  8
_0-1_LAYER003
  6
Continuous
 62
     7
100
AcDbLine
 10
1911.264
 20
1218.8831
 30
0.0
 11
1938.621
 21
1231.1954
 31
0.0
  0
LINE
  5
2B7
330
20
100
AcDbEntity
  8
_0-1_LAYER003
  6
Continuous
 62
     7
100
AcDbLine
 10
1938.621
 20
1231.1954
 30
0.0
 11
1932.4648
 21
1244.8739
 31
0.0
  0
LINE
  5
2B8
330
20
100
AcDbEntity
  8
_0-1_LAYER003
  6
Continuous
 62
     7
100
AcDbLine
 10
1932.4648
 20
1244.8739
 30
0.0
 11
1905.1078
 21
1232.5616
 31
0.0
  0
LINE
  5
2B9
330
20
100
AcDbEntity
  8
_0-1_LAYER003
  6
Continuous
 62
     7
100
AcDbLine
 10
1911.264
 20
1218.8831
 30
0.0
 11
1932.4648
 21
1244.8739
 31
0.0
  0
LINE
  5
2BA
330
20
100
AcDbEntity
  8
_0-1_LAYER003
  6
Continuous
 62
     7
100
AcDbLine
 10
1914.8289
 20
1184.3433
 30
0.0
 11
1915.843225392194
 21
1180.557725392194
 31
0.0
  0
LINE
  5
2BB
330
20
100
AcDbEntity
  8
_0-1_LAYER003
  6
Continuous
 62
     7
100
AcDbLine
 10
1914.8289
 20
1184.3433
 30
0.0
 11
1920.1322
 21
1179.04
 31
0.0
  0
LINE
  5
2BC
330
20
100
AcDbEntity
  8
_0-1_LAYER003
  6
Continuous
 62
     7
100
AcDbLine
 10
1916.77
 20
1177.0989
 30
0.0
 11
1915.843225392194
 21
1180.557725392194
 31
0.0
  0
LINE
  5
2BD
330
20
100
AcDbEntity
  8
_0-1_LAYER003
  6
Continuous
 62
     7
100
AcDbLine
 10
1914.8289
 20
1184.3433
 30
0.0
 11
1941.7117
 21
1137.7809
 31
0.0
  0
LINE
  5
2BE
330
20
100
AcDbEntity
  8
_0-1_LAYER003
  6
Continuous
 62
     7
100
AcDbLine
 10
1941.7117
 20
1137.7809
 30
0.0
 11
2001.7117
 21
1137.7809
 31
0.0
  0
LINE
  5
2BF
330
20
100
AcDbEntity
  8
_0-1_LAYER003
  6
Continuous
 62
     7
100
AcDbLine
 10
2108.9377
 20
1239.8507
 30
0.0
 11
2049.3025
 21
1076.002
 31
0.0
  0
LINE
  5
2C0
330
20
100
AcDbEntity
  8
_0-1_LAYER003
  6
Continuous
 62
     7
100
AcDbLine
 10
2062.0282
 20
1081.7285
 30
0.0
 11
2114.8213
 21
1226.7761
 31
0.0
  0
LINE
  5
2C1
330
20
100
AcDbEntity
  8
_0-1_LAYER003
  6
Continuous
 62
     7
100
AcDbLine
 10
2120.7044
 20
1213.7025
 30
0.0
 11
2074.7541
 21
1087.4552
 31
0.0
  0
LINE
  5
2C2
330
20
100
AcDbEntity
  8
_0-1_LAYER003
  6
Continuous
 62
     7
100
AcDbLine
 10
1781.9232
 20
1481.5818
 30
0.0
 11
1764.189497175169
 21
1530.145169154212
 31
0.0
  0
LINE
  5
2C3
330
20
100
AcDbEntity
  8
_0-1_LAYER003
  6
Continuous
 62
     7
100
AcDbLine
 10
1764.7726
 20
1528.5483
 30
0.0
 11
1544.02981753832
 21
1447.940406404409
 31
0.0
  0
LINE
  5
2C4
330
20
100
AcDbEntity
  8
_0-1_LAYER003
  6
Continuous
 62
     7
100
AcDbLine
 10
1543.446697175169
 20
1449.537269154212
 30
0.0
 11
1574.9009
 21
1363.4006
 31
0.0
  0
LINE
  5
2C5
330
20
100
AcDbEntity
  8
_0-1_LAYER003
  6
Continuous
 62
     7
100
AcDbLine
 10
1557.750285614038
 20
1410.367194746724
 30
0.0
 11
1337.0076
 21
1329.7593
 31
0.0
  0
LINE
  5
2C6
330
20
100
AcDbEntity
  8
_0-1_LAYER003
  6
Continuous
 62
     7
100
AcDbLine
 10
1336.424409794959
 20
1331.356137244288
 30
0.0
 11
1367.8787
 21
1245.2195
 31
0.0
  0
LINE
  5
2C7
330
20
100
AcDbEntity
  8
_0-1_LAYER003
  6
Continuous
 62
     7
100
AcDbLine
 10
1350.7281
 20
1292.185999999999
 30
0.0
 11
1129.9853
 21
1211.5781
 31
0.0
  0
LINE
  5
2C8
330
20
100
AcDbEntity
  8
_0-1_LAYER003
  6
Continuous
 62
     7
100
AcDbLine
 10
1129.402228904581
 20
1213.17498073997
 30
0.0
 11
1160.8564
 21
1127.0384
 31
0.0
  0
LINE
  5
2C9
330
20
100
AcDbEntity
  8
_0-1_LAYER003
  6
Continuous
 62
     7
100
AcDbLine
 10
1143.705791997975
 20
1174.004897077928
 30
0.0
 11
922.9630175383203
 21
1093.397006404409
 31
0.0
  0
LINE
  5
2CA
330
20
100
AcDbEntity
  8
_0-1_LAYER003
  6
Continuous
 62
     7
100
AcDbLine
 10
922.3798971751692
 20
1094.993869154212
 30
0.0
 11
940.1136000000001
 21
1046.4305
 31
0.0
  0
LINE
  5
2CB
330
20
100
AcDbEntity
  8
_0-0_LAYER001
  6
Continuous
 62
     7
100
AcDbLine
 10
1503.8508
 20
1205.494
 30
0.0
 11
1481.62076634291
 21
1205.494
 31
0.0
  0
LINE
  5
2CC
330
20
100
AcDbEntity
  8
_0-0_LAYER001
  6
Continuous
 62
     7
100
AcDbLine
 10
998.7286
 20
954.0347
 30
0.0
 11
977.7743480508528
 21
954.0347
 31
0.0
  0
LINE
  5
2CD
330
20
100
AcDbEntity
  8
_0-0_LAYER001
  6
Continuous
 62
     7
100
AcDbLine
 10
809.7890999999998
 20
1012.8291
 30
0.0
 11
767.1144231615009
 21
1012.8291
 31
0.0
  0
LINE
  5
2CE
330
20
100
AcDbEntity
  8
_0-0_LAYER001
  6
Continuous
 62
     7
100
AcDbLine
 10
924.8755
 20
752.0679
 30
0.0
 11
906.1065385524136
 21
752.0679
 31
0.0
  0
LINE
  5
2CF
330
20
100
AcDbEntity
  8
_0-0_LAYER001
  6
Continuous
 62
     7
100
AcDbLine
 10
2069.5033
 20
731.4186999999998
 30
0.0
 11
2109.257037405
 21
731.4186999999998
 31
0.0
  0
LINE
  5
2D0
330
20
100
AcDbEntity
  8
_0-0_LAYER001
  6
Continuous
 62
     7
100
AcDbLine
 10
2001.7117
 20
1137.7809
 30
0.0
 11
2038.413872284286
 21
1137.7809
 31
0.0
  0
LINE
  5
2D1
330
20
100
AcDbEntity
  8
_0-0_LAYER001
  6
Continuous
 62
     7
100
AcDbLine
 10
1032.8993
 20
1096.6992
 30
0.0
 11
1013.931615064625
 21
1096.6992
 31
0.0
  0
TEXT
  5
2D2
330
20
100
AcDbEntity
  8
_0-2_LAYER004
 62
     7
100
AcDbText
 10
1024.753553289405
 20
1149.874304732342
 30
0.0
 40
20.0
  1
235
 50
20.06050700000011
100
AcDbText
  0
TEXT
  5
2D3
330
20
100
AcDbEntity
  8
_0-2_LAYER004
 62
     7
100
AcDbText
 10
1229.725873003974
 20
1266.573873620929
 30
0.0
 40
20.0
  1
235
 50
20.06050700000021
100
AcDbText
  0
TEXT
  5
2D4
330
20
100
AcDbEntity
  8
_0-2_LAYER004
 62
     7
100
AcDbText
 10
1436.674189122769
 20
1379.899068441624
 30
0.0
 40
20.0
  1
235
 50
20.06050700000006
100
AcDbText
  0
TEXT
  5
2D5
330
20
100
AcDbEntity
  8
_0-2_LAYER004
 62
     7
100
AcDbText
 10
1651.872547520402
 20
1503.638124520262
 30
0.0
 40
20.0
  1
235
 50
20.06050700000008
100
AcDbText
  0
TEXT
  5
2D6
330
20
100
AcDbEntity
  8
_0-2_LAYER004
 62
     7
100
AcDbText
 10
764.2749217256153
 20
1019.935250876287
 30
0.0
 40
20.0
  1
瓦　座：36x45（防腐処理）
100
AcDbText
  0
TEXT
  5
2D7
330
20
100
AcDbEntity
  8
_0-2_LAYER004
 62
     7
100
AcDbText
 10
1013.002035533094
 20
1105.163422740387
 30
0.0
 40
20.0
  1
万十軒瓦
100
AcDbText
  0
TEXT
  5
2D8
330
20
100
AcDbEntity
  8
_0-2_LAYER004
 62
     7
100
AcDbText
 10
1482.626656008752
 20
1214.742500851374
 30
0.0
 40
20.0
  1
桟　瓦
100
AcDbText
  0
TEXT
  5
2D9
330
20
100
AcDbEntity
  8
_0-2_LAYER004
 62
     7
100
AcDbText
 10
1297.746596031582
 20
626.4394435585041
 30
0.0
 40
20.0
  1
236
 50
20.06050699999943
100
AcDbText
  0
TEXT
  5
2DA
330
20
100
AcDbEntity
  8
_0-2_LAYER004
 62
     7
100
AcDbText
 10
1521.781266638498
 20
721.1741042722856
 30
0.0
 40
20.0
  1
236
 50
20.06050699999965
100
AcDbText
  0
TEXT
  5
2DB
330
20
100
AcDbEntity
  8
_0-2_LAYER004
 62
     7
100
AcDbText
 10
1718.931776772583
 20
814.628566868313
 30
0.0
 40
20.0
  1
236
 50
20.06050700000005
100
AcDbText
  0
TEXT
  5
2DC
330
20
100
AcDbEntity
  8
_0-2_LAYER004
 62
     7
100
AcDbText
 10
1951.927834203776
 20
896.5612464045564
 30
0.0
 40
20.0
  1
236
 50
20.06050700000004
100
AcDbText
  0
TEXT
  5
2DD
330
20
100
AcDbEntity
  8
_0-2_LAYER004
 62
     7
100
AcDbText
 10
1805.985248779843
 20
801.8265856907749
 30
0.0
 40
20.0
  1
瓦桟：15x30以上
100
AcDbText
  0
TEXT
  5
2DE
330
20
100
AcDbEntity
  8
_0-2_LAYER004
 62
     7
100
AcDbText
 10
1813.666437486365
 20
732.6958873320698
 30
0.0
 40
20.0
  1
パーライト系モルタルｔ＝40
100
AcDbText
  0
TEXT
  5
2DF
330
20
100
AcDbEntity
  8
_0-2_LAYER004
 62
     7
100
AcDbText
 10
935.6070158633915
 20
724.5752027827807
 30
0.0
 40
20.0
  1
（防腐処理）
100
AcDbText
  0
TEXT
  5
2E0
330
20
100
AcDbEntity
  8
_0-2_LAYER004
 62
     7
100
AcDbText
 10
914.9307341696305
 20
760.4140910519667
 30
0.0
 40
20.0
  1
広小舞：30x90
100
AcDbText
  0
TEXT
  5
2E1
330
20
100
AcDbEntity
  8
_0-2_LAYER004
 62
     7
100
AcDbText
 10
979.7164168100819
 20
960.2848140916572
 30
0.0
 40
20.0
  1
面　戸
100
AcDbText
  0
TEXT
  5
2E2
330
20
100
AcDbEntity
  8
_0-2_LAYER004
 62
     7
100
AcDbText
 10
1165.802952053931
 20
572.9491370285333
 30
0.0
 40
20.0
  1
70
 50
20.06050699999946
100
AcDbText
  0
TEXT
  5
2E3
330
20
100
AcDbEntity
  8
_0-2_LAYER004
 62
     7
100
AcDbText
 10
1168.559789613099
 20
608.788025297719
 30
0.0
 40
20.0
  1
15
 50
20.06050699999946
100
AcDbText
  0
TEXT
  5
2E4
330
20
100
AcDbEntity
  8
_0-2_LAYER004
 62
     7
100
AcDbText
 10
855.5906123255072
 20
709.5972218696413
 30
0.0
 40
15.0
  1
30
 50
113.7211000000006
 41
1.333333333333333
100
AcDbText
  0
TEXT
  5
2E5
330
20
100
AcDbEntity
  8
_0-2_LAYER004
 62
     7
100
AcDbText
 10
889.0889477866052
 20
615.3436616701359
 30
0.0
 40
15.0
  1
160
 50
113.7210999999988
 41
1.333333333333333
100
AcDbText
  0
TEXT
  5
2E6
330
20
100
AcDbEntity
  8
_0-2_LAYER004
 62
     7
100
AcDbText
 10
1945.896134963279
 20
1140.308883580798
 30
0.0
 40
20.0
  1
溶接金網
100
AcDbText
  0
TEXT
  5
2E7
330
20
100
AcDbEntity
  8
_0-2_LAYER004
 62
     7
100
AcDbText
 10
1744.095488885315
 20
1063.487046721574
 30
0.0
 40
20.0
  1
アンカー
100
AcDbText
  0
LINE
  5
2E8
330
20
100
AcDbEntity
  8
_0-2_LAYER004
  6
Continuous
 62
     7
100
AcDbLine
 10
1768.2269
 20
1059.3984
 30
0.0
 11
1741.612985079586
 21
1059.3984
 31
0.0
  0
TEXT
  5
2E9
330
20
100
AcDbEntity
  8
_0-2_LAYER004
 62
     7
100
AcDbText
 10
1808.545645015351
 20
771.1018308646838
 30
0.0
 40
20.0
  1
下葺材：ルーフィング
100
AcDbText
  0
LINE
  5
2EA
330
20
100
AcDbEntity
  8
_0-2_LAYER004
  6
Continuous
 62
     7
100
AcDbLine
 10
1804.944808894086
 20
765.2463305629692
 30
0.0
 11
2037.139247965275
 21
765.2463305629692
 31
0.0
  0
ENDSEC
  0
SECTION
  2
OBJECTS
  0
DICTIONARY
  5
C
330
0
100
AcDbDictionary
281
     1
  3
ACAD_COLOR
350
1B
  3
ACAD_GROUP
350
D
  3
ACAD_LAYOUT
350
19
  3
ACAD_MATERIAL
350
1A
  3
ACAD_MLINESTYLE
350
16
  3
ACAD_PLOTSETTINGS
350
18
  3
ACAD_PLOTSTYLENAME
350
E
  0
DICTIONARY
  5
1B
102
{ACAD_REACTORS
330
C
102
}
330
C
100
AcDbDictionary
281
     1
  0
DICTIONARY
  5
D
102
{ACAD_REACTORS
330
C
102
}
330
C
100
AcDbDictionary
281
     1
  0
DICTIONARY
  5
19
102
{ACAD_REACTORS
330
C
102
}
330
C
100
AcDbDictionary
281
     1
  3
Model
350
23
  3
レイアウト1
350
1F
  0
DICTIONARY
  5
1A
102
{ACAD_REACTORS
330
C
102
}
330
C
100
AcDbDictionary
281
     1
  0
DICTIONARY
  5
16
102
{ACAD_REACTORS
330
C
102
}
330
C
100
AcDbDictionary
281
     1
  3
Standard
350
17
  0
DICTIONARY
  5
18
102
{ACAD_REACTORS
330
C
102
}
330
C
100
AcDbDictionary
281
     1
  0
ACDBDICTIONARYWDFLT
  5
E
102
{ACAD_REACTORS
330
C
102
}
330
C
100
AcDbDictionary
281
     1
  3
Normal
350
F
100
AcDbDictionaryWithDefault
340
F
  0
LAYOUT
  5
23
102
{ACAD_REACTORS
330
19
102
}
330
19
100
AcDbPlotSettings
  1

  2
Microsoft Office Document Image Writer
  4

  6

 40
0.0
 41
0.0
 42
0.0
 43
0.0
 44
0.0
 45
0.0
 46
0.0
 47
0.0
 48
0.0
 49
0.0
140
0.0
141
0.0
142
1.0
143
1.0
 70
  1712
 72
     0
 73
     0
 74
     0
  7

 75
     0
147
1.0
 76
     0
 77
     2
 78
   300
148
0.0
149
0.0
100
AcDbLayout
  1
Model
 70
     1
 71
     0
 10
0.0
 20
0.0
 11
12.0
 21
9.0
 12
0.0
 22
0.0
 32
0.0
 14
0.0
 24
0.0
 34
0.0
 15
0.0
 25
0.0
 35
0.0
146
0.0
 13
0.0
 23
0.0
 33
0.0
 16
1.0
 26
0.0
 36
0.0
 17
0.0
 27
1.0
 37
0.0
 76
     0
330
20
  0
LAYOUT
  5
1F
102
{ACAD_REACTORS
330
19
102
}
330
19
100
AcDbPlotSettings
  1

  2
Microsoft Office Document Image Writer
  4

  6

 40
0.0
 41
0.0
 42
0.0
 43
0.0
 44
0.0
 45
0.0
 46
0.0
 47
0.0
 48
0.0
 49
0.0
140
0.0
141
0.0
142
1.0
143
1.0
 70
   688
 72
     0
 73
     0
 74
     5
  7

 75
    16
147
1.0
 76
     0
 77
     2
 78
   300
148
0.0
149
0.0
100
AcDbLayout
  1
レイアウト1
 70
     1
 71
     1
 10
0.0
 20
0.0
 11
12.0
 21
9.0
 12
0.0
 22
0.0
 32
0.0
 14
1.000000000000000E+20
 24
1.000000000000000E+20
 34
1.000000000000000E+20
 15
-1.000000000000000E+20
 25
-1.000000000000000E+20
 35
-1.000000000000000E+20
146
0.0
 13
0.0
 23
0.0
 33
0.0
 16
1.0
 26
0.0
 36
0.0
 17
0.0
 27
1.0
 37
0.0
 76
     0
330
1C
  0
MLINESTYLE
  5
17
102
{ACAD_REACTORS
330
16
102
}
330
16
100
AcDbMlineStyle
  2
STANDARD
 70
     0
  3

 62
   256
 51
90.0
 52
90.0
 71
     2
 49
0.5
 62
   256
  6
BYLAYER
 49
-0.5
 62
   256
  6
BYLAYER
  0
ACDBPLACEHOLDER
  5
F
102
{ACAD_REACTORS
330
E
102
}
330
E
  0
ENDSEC
  0
EOF
