  0
SECTION
  2
HEADER
  9
$ACADVER
  1
AC1009
  9
$INSBASE
 10
0
 20
0
 30
0
  9
$EXTMIN
 10
0
 20
0
  9
$EXTMAX
 10
2970
 20
2100
  9
$LIMMIN
 10
0
 20
0
  9
$LIMMAX
 10
2970
 20
2100
  9
$LTSCALE
 40
10
  0
ENDSEC
  0
SECTION
  2
TABLES
  0
TABLE
  2
LTYPE
 70
     9
  0
LTYPE
  2
CONTINUOUS
 70
    64
  3
実線
 72
    65
 73
     0
 40
0.0
  0
LTYPE
  2
DASHED1
 70
    64
  3
--  --  --  --  --  --  --  --  
 72
    65
 73
     2
 40
2.5
 49
1.25
 49
-1.25
  0
LTYPE
  2
DASHED2
 70
    64
  3
----    ----    ----    ----    
 72
    65
 73
     2
 40
5.0
 49
2.5
 49
-2.5
  0
LTYPE
  2
DASHED3
 70
    64
  3
------  ------  ------  ------  
 72
    65
 73
     2
 40
5.0
 49
3.75
 49
-1.25
  0
LTYPE
  2
CENTER1
 70
    64
  3
----- - ----- - ----- - ----- - 
 72
    65
 73
     4
 40
10.0
 49
6.25
 49
-1.25
 49
1.25
 49
-1.25
  0
LTYPE
  2
CENTER2
 70
    64
  3
----------  --  ----------  --  
 72
    65
 73
     4
 40
20.0
 49
12.5
 49
-2.5
 49
2.5
 49
-2.5
  0
LTYPE
  2
PHANTOM1
 70
    64
  3
--- - - --- - - --- - - --- - - 
 72
    65
 73
     6
 40
10.0
 49
3.25
 49
-1.25
 49
1.25
 49
-1.25
 49
1.25
 49
-1.25
  0
LTYPE
  2
PHANTOM2
 70
    64
  3
--------  -  -  --------  -  -  
 72
    65
 73
     6
 40
20.0
 49
10.0
 49
-2.5
 49
1.25
 49
-2.5
 49
1.25
 49
-2.5
  0
LTYPE
  2
DOT
 70
    64
  3
-   -   -   -   -   -   -   -   
 72
    65
 73
     2
 40
2.5
 49
0.625
 49
-1.875
  0
LTYPE
  2
DUMMY
 70
    64
  3
ダミー
 72
    65
 73
     0
 40
0.0
  0
LTYPE
  2
RAND1
 70
    64
  3
ランダム線1
 72
    65
 73
     4
 40
10.0
 49
1.0
 49
-2.0
 49
3.0
 49
-4.0
  0
LTYPE
  2
RAND2
 70
    64
  3
ランダム線2
 72
    65
 73
     4
 40
14.0
 49
2.0
 49
-3.0
 49
4.0
 49
-5.0
  0
LTYPE
  2
RAND3
 70
    64
  3
ランダム線3
 72
    65
 73
     4
 40
18.0
 49
3.0
 49
-4.0
 49
5.0
 49
-6.0
  0
LTYPE
  2
RAND4
 70
    64
  3
ランダム線4
 72
    65
 73
     4
 40
22.0
 49
4.0
 49
-5.0
 49
6.0
 49
-7.0
  0
LTYPE
  2
RAND5
 70
    64
  3
ランダム線5
 72
    65
 73
     4
 40
26.0
 49
5.0
 49
-6.0
 49
7.0
 49
-8.0
  0
LTYPE
  2
LONG1
 70
    64
  3
----------  --  ----------  --  
 72
    65
 73
     4
 40
40.0
 49
32.5
 49
-2.5
 49
2.5
 49
-2.5
  0
LTYPE
  2
LONG2
 70
    64
  3
--------  -  -  --------  -  -  
 72
    65
 73
     6
 40
40.0
 49
30.0
 49
-2.5
 49
1.25
 49
-2.5
 49
1.25
 49
-2.5
  0
LTYPE
  2
LONG3
 70
    64
  3
+++++++++++++++..+++++++++++++++
 72
    65
 73
     2
 40
40.0
 49
37.5
 49
-2.5
  0
LTYPE
  2
LONG4
 70
    64
  3
+++++++++++++++..+++++++++++++++
 72
    65
 73
     2
 40
80.0
 49
75.0
 49
-5.0
  0
LTYPE
  2
LONG5
 70
    64
  3
----------  --  ----------  --  
 72
    65
 73
     4
 40
60.0
 49
37.5
 49
-7.5
 49
7.5
 49
-7.5
  0
LTYPE
  2
dashed
 70
   64
  3
-------   -------------   ------
 72
   65
 73
    2
 40
7.5
 49
6
 49
-1.5
  0
LTYPE
  2
dashed_spaced
 70
   64
  3
----        --------        ----
 72
   65
 73
    2
 40
12
 49
6
 49
-6
  0
LTYPE
  2
long_dashed_dotted
 70
   64
  3
------------- --- --------------
 72
   65
 73
    4
 40
15.25
 49
12
 49
-1.5
 49
0.25
 49
-1.5
  0
LTYPE
  2
long_dashed_double-dotted
 70
   64
  3
----------- --- --- ------------
 72
   65
 73
    6
 40
17
 49
12
 49
-1.5
 49
0.25
 49
-1.5
 49
0.25
 49
-1.5
  0
LTYPE
  2
long_dashed_triplicate-dotted
 70
   64
  3
--------- --- --- --- ----------
 72
   65
 73
    8
 40
18.75
 49
12
 49
-1.5
 49
0.25
 49
-1.5
 49
0.25
 49
-1.5
 49
0.25
 49
-1.5
  0
LTYPE
  2
dotted
 70
   64
  3
   -       -       -       -    
 72
   65
 73
    2
 40
1.75
 49
0.25
 49
-1.5
  0
LTYPE
  2
chain
 70
   64
  3
-------------- -- --------------
 72
   65
 73
    4
 40
18.5
 49
12
 49
-1.5
 49
3.5
 49
-1.5
  0
LTYPE
  2
chain_double_dash
 70
   64
  3
------------ -- -- -------------
 72
   65
 73
    6
 40
23.5
 49
12
 49
-1.5
 49
3.5
 49
-1.5
 49
3.5
 49
-1.5
  0
LTYPE
  2
dashed_dotted
 70
   64
  3
-----------     -     ----------
 72
   65
 73
    4
 40
9.25
 49
6
 49
-1.5
 49
0.25
 49
-1.5
  0
LTYPE
  2
double-dashed_dotted
 70
   64
  3
------   -----------   -   -----
 72
   65
 73
    6
 40
16.75
 49
6
 49
-1.5
 49
6
 49
-1.5
 49
0.25
 49
-1.5
  0
LTYPE
  2
dashed_double-dotted
 70
   64
  3
---------    -    -    ---------
 72
   65
 73
    6
 40
11
 49
6
 49
-1.5
 49
0.25
 49
-1.5
 49
0.25
 49
-1.5
  0
LTYPE
  2
double-dashed_double-dotted
 70
   64
  3
-----   ---------   -   -   ----
 72
   65
 73
    8
 40
18.5
 49
6
 49
-1.5
 49
6
 49
-1.5
 49
0.25
 49
-1.5
 49
0.25
 49
-1.5
  0
LTYPE
  2
dashed_triplicate-dotted
 70
   64
  3
-------    -    -    -    ------
 72
   65
 73
    8
 40
12.75
 49
6
 49
-1.5
 49
0.25
 49
-1.5
 49
0.25
 49
-1.5
 49
0.25
 49
-1.5
  0
LTYPE
  2
double-dashed_triplicate-dotted
 70
   64
  3
-----  ---------  -  -  -  -----
 72
   65
 73
   10
 40
20.25
 49
6
 49
-1.5
 49
6
 49
-1.5
 49
0.25
 49
-1.5
 49
0.25
 49
-1.5
 49
0.25
 49
-1.5
  0
LTYPE
  2
undefined
 70
   64
  3
--------------------------------
 72
   65
 73
    0
 40
0
  0
ENDTAB
  0
TABLE
  2
STYLE
  5
3
100
AcDbSymbolTable
 70
     1
  0
STYLE
  5
10
100
AcDbSymbolTableRecord
100
AcDbTextStyleTableRecord
  2
STANDARD
 70
     0
 40
0.0
 41
1.0
 50
0.0
 71
     0
 42
0.2
  3
txt
  4
bigfont.shx
  0
STYLE
  5
26
100
AcDbSymbolTableRecord
100
AcDbTextStyleTableRecord
  2
TATEGAKI
 70
    68
 40
0.0
 41
1.0
 50
0.0
 71
     0
 42
1.0
  3
txt
  4
bigfont.shx
  0
ENDTAB
  0
TABLE
  2
LAYER
 70
    6
  0
LAYER
  2
_0-0_LAYER001
 70
   64
 62
    7
  6
CONTINUOUS
  0
LAYER
  2
_0-1_LAYER003
 70
   64
 62
    7
  6
CONTINUOUS
  0
LAYER
  2
_0-2_LAYER004
 70
   64
 62
    7
  6
CONTINUOUS
  0
LAYER
  2
_0-3_LAYER005
 70
   64
 62
    7
  6
CONTINUOUS
  0
LAYER
  2
_0-4_LAYER006
 70
   64
 62
    7
  6
CONTINUOUS
  0
LAYER
  2
ADD_LINE
 70
   64
 62
    7
  6
CONTINUOUS
  0
ENDTAB
  0
ENDSEC
  0
SECTION
  2
BLOCKS
  0
ENDSEC
  0
SECTION
  2
ENTITIES
  0
LINE
  8
_0-0_LAYER001
  6
CONTINUOUS
 62
    2
 10
1377.9847
 20
604.50549999999998
 11
1582.8074000000001
 21
604.50549999999998
  0
LINE
  8
_0-0_LAYER001
  6
CONTINUOUS
 62
    2
 10
1764.8865000000001
 20
951.18460000000005
 11
1764.8865000000001
 21
773.0347999999999
  0
LINE
  8
_0-0_LAYER001
  6
CONTINUOUS
 62
    2
 10
1650.2339999999999
 20
1175.3988999999999
 11
1648.4787999999999
 21
1149.4801
  0
LINE
  8
_0-0_LAYER001
  6
CONTINUOUS
 62
    2
 10
1648.4787999999999
 20
1149.4801
 11
1652.8226
 21
1155.5098
  0
LINE
  8
_0-0_LAYER001
  6
CONTINUOUS
 62
    2
 10
1764.942
 20
1188.3127999999999
 11
1760.8587000000002
 21
1202.7463
  0
LINE
  8
_0-0_LAYER001
  6
CONTINUOUS
 62
    2
 10
1760.8587000000002
 20
1202.7463
 11
1659.8240999999998
 21
1174.1628000000001
  0
LINE
  8
_0-0_LAYER001
  6
CONTINUOUS
 62
    2
 10
1764.942
 20
1188.3127999999999
 11
1663.9074999999998
 21
1159.7293
  0
LINE
  8
_0-0_LAYER001
  6
CONTINUOUS
 62
    2
 10
1663.9074999999998
 20
1159.7293
 11
1659.8240999999998
 21
1174.1628000000001
  0
LINE
  8
_0-0_LAYER001
  6
CONTINUOUS
 62
    2
 10
1663.9074999999998
 20
1159.7293
 11
1760.8587000000002
 21
1202.7463
  0
LINE
  8
_0-0_LAYER001
  6
CONTINUOUS
 62
    2
 10
1739.8865000000001
 20
1200.7621999999999
 11
1650.2339999999999
 21
1175.3988999999999
  0
LINE
  8
_0-0_LAYER001
  6
CONTINUOUS
 62
    2
 10
1754.6972999999998
 20
1185.4145000000001
 11
1765.1376
 21
1185.4145000000001
  0
LINE
  8
_0-0_LAYER001
  6
CONTINUOUS
 62
    2
 10
1813.1376
 20
1165.4145000000001
 11
1808.1376
 21
1168.4143999999999
  0
LINE
  8
_0-0_LAYER001
  6
CONTINUOUS
 62
    2
 10
1808.1376
 20
1162.4145000000001
 11
1813.1376
 21
1165.4145000000001
  0
LINE
  8
_0-0_LAYER001
  6
CONTINUOUS
 62
    2
 10
1807.0626000000002
 20
1162.4145000000001
 11
1809.9115999999999
 21
1167.3506
  0
LINE
  8
_0-0_LAYER001
  6
CONTINUOUS
 62
    2
 10
1741.1374999999998
 20
1162.4145000000001
 11
1741.1374999999998
 21
1168.4143999999999
  0
LINE
  8
_0-0_LAYER001
  6
CONTINUOUS
 62
    2
 10
1735.1376
 20
1159.4143999999999
 11
1735.1376
 21
1171.4145000000001
  0
LINE
  8
_0-0_LAYER001
  6
CONTINUOUS
 62
    2
 10
1744.0246000000002
 20
1162.4145000000001
 11
1747.4875999999999
 21
1168.4143999999999
  0
LINE
  8
_0-0_LAYER001
  6
CONTINUOUS
 62
    2
 10
1735.1376
 20
1159.4143999999999
 11
1741.1374999999998
 21
1162.4145000000001
  0
LINE
  8
_0-0_LAYER001
  6
CONTINUOUS
 62
    2
 10
1741.1374999999998
 20
1168.4143999999999
 11
1735.1376
 21
1171.4145000000001
  0
LINE
  8
_0-0_LAYER001
  6
CONTINUOUS
 62
    2
 10
1808.1376
 20
1168.4143999999999
 11
1798.1226000000001
 21
1168.4143999999999
  0
LINE
  8
_0-0_LAYER001
  6
CONTINUOUS
 62
    2
 10
1789.4706999999999
 20
1163.9416000000001
 11
1791.3647000000001
 21
1167.2225000000001
  0
LINE
  8
_0-0_LAYER001
  6
CONTINUOUS
 62
    2
 10
1797.8546999999999
 20
1162.4635000000001
 11
1801.2896000000001
 21
1168.4143999999999
  0
LINE
  8
_0-0_LAYER001
  6
CONTINUOUS
 62
    2
 10
1808.1376
 20
1162.4145000000001
 11
1798.1307000000002
 21
1162.4145000000001
  0
LINE
  8
_0-0_LAYER001
  6
CONTINUOUS
 62
    2
 10
1805.9866000000002
 20
1172.1375
 11
1806.3865999999998
 21
1169.8715
  0
LINE
  8
_0-0_LAYER001
  6
CONTINUOUS
 62
    2
 10
1805.8137000000002
 20
1158.7246
 11
1806.2116000000001
 21
1160.9894999999999
  0
LINE
  8
_0-0_LAYER001
  6
CONTINUOUS
 62
    2
 10
1801.3935000000001
 20
1171.1234999999999
 11
1803.0675999999999
 21
1171.4185
  0
LINE
  8
_0-0_LAYER001
  6
CONTINUOUS
 62
    2
 10
1797.0605999999998
 20
1170.3595
 11
1798.7334999999998
 21
1170.6545000000001
  0
LINE
  8
_0-0_LAYER001
  6
CONTINUOUS
 62
    2
 10
1792.7276000000002
 20
1169.5954999999999
 11
1794.4005000000002
 21
1169.8905
  0
LINE
  8
_0-0_LAYER001
  6
CONTINUOUS
 62
    2
 10
1792.4315000000001
 20
1171.2686000000001
 11
1783.3375999999998
 21
1169.6656
  0
LINE
  8
_0-0_LAYER001
  6
CONTINUOUS
 62
    2
 10
1796.7645000000002
 20
1172.0325
 11
1794.1055999999999
 21
1171.5635
  0
LINE
  8
_0-0_LAYER001
  6
CONTINUOUS
 62
    2
 10
1801.0976000000001
 20
1172.7965999999999
 11
1798.4386
 21
1172.3276000000001
  0
LINE
  8
_0-0_LAYER001
  6
CONTINUOUS
 62
    2
 10
1804.2494999999999
 20
1173.3525
 11
1802.7716999999998
 21
1173.0914
  0
LINE
  8
_0-0_LAYER001
  6
CONTINUOUS
 62
    2
 10
1803.0675999999999
 20
1171.4185
 11
1802.7716999999998
 21
1173.0925
  0
LINE
  8
_0-0_LAYER001
  6
CONTINUOUS
 62
    2
 10
1801.3935000000001
 20
1171.1234999999999
 11
1801.0976000000001
 21
1172.7976000000001
  0
LINE
  8
_0-0_LAYER001
  6
CONTINUOUS
 62
    2
 10
1798.7347
 20
1170.6545000000001
 11
1798.4386
 21
1172.3286000000001
  0
LINE
  8
_0-0_LAYER001
  6
CONTINUOUS
 62
    2
 10
1797.0605999999998
 20
1170.3595
 11
1796.7645000000002
 21
1172.0335
  0
LINE
  8
_0-0_LAYER001
  6
CONTINUOUS
 62
    2
 10
1794.4016000000001
 20
1169.8905
 11
1794.1055999999999
 21
1171.5645
  0
LINE
  8
_0-0_LAYER001
  6
CONTINUOUS
 62
    2
 10
1792.7276000000002
 20
1169.5954999999999
 11
1792.4315000000001
 21
1171.2695000000001
  0
LINE
  8
_0-0_LAYER001
  6
CONTINUOUS
 62
    2
 10
1801.2186000000002
 20
1159.7375
 11
1802.8926999999999
 21
1159.4425000000001
  0
LINE
  8
_0-0_LAYER001
  6
CONTINUOUS
 62
    2
 10
1796.8856999999998
 20
1160.5015000000001
 11
1798.5596
 21
1160.2065
  0
LINE
  8
_0-0_LAYER001
  6
CONTINUOUS
 62
    2
 10
1792.5526
 20
1161.2655
 11
1794.2266
 21
1160.9704999999999
  0
LINE
  8
_0-0_LAYER001
  6
CONTINUOUS
 62
    2
 10
1792.5536000000002
 20
1161.2655
 11
1792.2575999999999
 21
1159.5925999999999
  0
LINE
  8
_0-0_LAYER001
  6
CONTINUOUS
 62
    2
 10
1794.2275
 20
1160.9704999999999
 11
1793.9315000000001
 21
1159.2974999999999
  0
LINE
  8
_0-0_LAYER001
  6
CONTINUOUS
 62
    2
 10
1796.8867
 20
1160.5015000000001
 11
1796.5906
 21
1158.8285000000001
  0
LINE
  8
_0-0_LAYER001
  6
CONTINUOUS
 62
    2
 10
1798.5605999999998
 20
1160.2065
 11
1798.2645000000002
 21
1158.5335
  0
LINE
  8
_0-0_LAYER001
  6
CONTINUOUS
 62
    2
 10
1801.2195999999999
 20
1159.7375
 11
1800.9236000000001
 21
1158.0645
  0
LINE
  8
_0-0_LAYER001
  6
CONTINUOUS
 62
    2
 10
1802.8935999999999
 20
1159.4425000000001
 11
1802.5976000000001
 21
1157.7696000000001
  0
LINE
  8
_0-0_LAYER001
  6
CONTINUOUS
 62
    2
 10
1792.2575999999999
 20
1159.5925999999999
 11
1783.3375999999998
 21
1161.1645000000001
  0
LINE
  8
_0-0_LAYER001
  6
CONTINUOUS
 62
    2
 10
1796.5906
 20
1158.8285000000001
 11
1793.9315000000001
 21
1159.2974999999999
  0
LINE
  8
_0-0_LAYER001
  6
CONTINUOUS
 62
    2
 10
1800.9236000000001
 20
1158.0645
 11
1798.2645000000002
 21
1158.5335
  0
LINE
  8
_0-0_LAYER001
  6
CONTINUOUS
 62
    2
 10
1804.0747000000001
 20
1157.5084999999999
 11
1802.5976000000001
 21
1157.7684999999999
  0
LINE
  8
_0-0_LAYER001
  6
CONTINUOUS
 62
    2
 10
1781.1136000000001
 20
1165.4156
 11
1806.3865999999998
 21
1169.8715
  0
LINE
  8
_0-0_LAYER001
  6
CONTINUOUS
 62
    2
 10
1781.1136000000001
 20
1165.4156
 11
1806.2116000000001
 21
1160.9894999999999
  0
LINE
  8
_0-0_LAYER001
  6
CONTINUOUS
 62
    2
 10
1765.1376
 20
1169.6645000000001
 11
1783.3375999999998
 21
1169.6645000000001
  0
LINE
  8
_0-0_LAYER001
  6
CONTINUOUS
 62
    2
 10
1765.1376
 20
1161.1645000000001
 11
1783.3375999999998
 21
1161.1645000000001
  0
LINE
  8
_0-0_LAYER001
  6
CONTINUOUS
 62
    2
 10
1765.1376
 20
1161.1645000000001
 11
1765.1376
 21
1169.6645000000001
  0
LINE
  8
_0-0_LAYER001
  6
CONTINUOUS
 62
    2
 10
1735.1376
 20
1145.4145000000001
 11
1765.1376
 21
1145.4145000000001
  0
LINE
  8
_0-0_LAYER001
  6
CONTINUOUS
 62
    2
 10
1765.1376
 20
1168.4143999999999
 11
1741.1374999999998
 21
1168.4143999999999
  0
LINE
  8
_0-0_LAYER001
  6
CONTINUOUS
 62
    2
 10
1765.1376
 20
1162.4145000000001
 11
1741.1374999999998
 21
1162.4145000000001
  0
LINE
  8
_0-0_LAYER001
  6
CONTINUOUS
 62
    2
 10
1749.7476999999999
 20
1162.4145000000001
 11
1753.2107999999998
 21
1168.4143999999999
  0
LINE
  8
_0-0_LAYER001
  6
CONTINUOUS
 62
    2
 10
1755.4708999999998
 20
1162.4145000000001
 11
1758.9339
 21
1168.4143999999999
  0
LINE
  8
_0-0_LAYER001
  6
CONTINUOUS
 62
    2
 10
1761.194
 20
1162.4145000000001
 11
1764.6570999999999
 21
1168.4143999999999
  0
LINE
  8
_0-0_LAYER001
  6
CONTINUOUS
 62
    2
 10
1735.1376
 20
1145.4145000000001
 11
1735.1376
 21
1180.1246000000001
  0
LINE
  8
_0-0_LAYER001
  6
CONTINUOUS
 62
    2
 10
1765.1376
 20
1145.4145000000001
 11
1738.6415999999999
 21
1180.7425000000001
  0
ARC
  8
_0-0_LAYER001
  6
CONTINUOUS
 62
    2
 10
1804.5016000000001
 20
1171.8705
 40
1.5049999999999999
 50
10.451269999999999
 51
99.637527999999989
  0
ARC
  8
_0-0_LAYER001
  6
CONTINUOUS
 62
    2
 10
1804.3335999999999
 20
1158.9875
 40
1.4969999999999999
 50
259.83899000000008
 51
350.14733000000001
  0
LINE
  8
_0-0_LAYER001
  6
CONTINUOUS
 62
    2
 10
1732.6475999999998
 20
1195.2092
 11
1740.7183
 21
1198.9718
  0
LINE
  8
_0-0_LAYER001
  6
CONTINUOUS
 62
    2
 10
1747.0873000000001
 20
1170.3882000000001
 11
1752.5436
 21
1163.3203000000001
  0
LINE
  8
_0-0_LAYER001
  6
CONTINUOUS
 62
    2
 10
1739.0358999999999
 20
1196.4273000000001
 11
1750.4465
 21
1171.9544000000001
  0
LINE
  8
_0-0_LAYER001
  6
CONTINUOUS
 62
    2
 10
1752.5436
 20
1163.3203000000001
 11
1750.4465
 21
1171.9544000000001
  0
LINE
  8
_0-0_LAYER001
  6
CONTINUOUS
 62
    2
 10
1735.6763999999998
 20
1194.8624
 11
1732.6475999999998
 21
1195.2092
  0
LINE
  8
_0-0_LAYER001
  6
CONTINUOUS
 62
    2
 10
1739.0358999999999
 20
1196.4273000000001
 11
1740.7183
 21
1198.9718
  0
LINE
  8
_0-0_LAYER001
  6
CONTINUOUS
 62
    2
 10
1735.6763999999998
 20
1194.8624
 11
1747.0873000000001
 21
1170.3882000000001
  0
LINE
  8
_0-0_LAYER001
  6
CONTINUOUS
 62
    2
 10
1755.3694999999998
 20
1319.7982
 11
1755.3694999999998
 21
1300.7621999999997
  0
LINE
  8
_0-0_LAYER001
  6
CONTINUOUS
 62
    2
 10
1760.8314999999998
 20
1319.7982
 11
1755.3694999999998
 21
1300.7621999999997
  0
LINE
  8
_0-0_LAYER001
  6
CONTINUOUS
 62
    2
 10
1760.8314999999998
 20
1300.7621999999997
 11
1755.3694999999998
 21
1319.7982
  0
ARC
  8
_0-0_LAYER001
  6
CONTINUOUS
 62
    2
 10
1723.0673999999999
 20
1309.3949
 40
20.694040000000001
 50
335.49168000000003
 51
29.733201000000058
  0
LINE
  8
_0-3_LAYER005
  6
CONTINUOUS
 62
    2
 10
1739.8865000000001
 20
1319.7982
 11
1764.8865000000001
 21
1319.7982
  0
LINE
  8
_0-3_LAYER005
  6
CONTINUOUS
 62
    2
 10
1739.8865000000001
 20
1300.7621999999997
 11
1760.8314999999998
 21
1300.7621999999997
  0
LINE
  8
_0-3_LAYER005
  6
CONTINUOUS
 62
    2
 10
1760.8314999999998
 20
1300.7621999999997
 11
1760.8314999999998
 21
1319.7982
  0
LINE
  8
_0-3_LAYER005
  6
CONTINUOUS
 62
    2
 10
1749.0614999999998
 20
1300.7621999999997
 11
1755.3694999999998
 21
1307.0702000000001
  0
LINE
  8
_0-3_LAYER005
  6
CONTINUOUS
 62
    2
 10
1744.8184999999999
 20
1300.7621999999997
 11
1755.3694999999998
 21
1311.3132000000001
  0
LINE
  8
_0-3_LAYER005
  6
CONTINUOUS
 62
    2
 10
1742.7172
 20
1302.9041000000002
 11
1755.3694999999998
 21
1315.5554999999999
  0
LINE
  8
_0-3_LAYER005
  6
CONTINUOUS
 62
    2
 10
1743.7242000000001
 20
1308.1529
 11
1755.3694999999998
 21
1319.7982
  0
LINE
  8
_0-3_LAYER005
  6
CONTINUOUS
 62
    2
 10
1743.5655000000002
 20
1312.2360000000001
 11
1751.1264999999999
 21
1319.7982
  0
LINE
  8
_0-3_LAYER005
  6
CONTINUOUS
 62
    2
 10
1742.7800999999999
 20
1315.6921
 11
1746.8834999999999
 21
1319.7982
  0
LINE
  8
_0-0_LAYER001
  6
CONTINUOUS
 62
    2
 10
1850.6502
 20
1200.7621999999999
 11
1823.1502
 21
1200.7621999999999
  0
CIRCLE
  8
_0-0_LAYER001
  6
CONTINUOUS
 62
    2
 10
1848.1502
 20
1200.7621999999999
 40
1.6999999999999997
  0
LINE
  8
_0-0_LAYER001
  6
CONTINUOUS
 62
    2
 10
1848.1502
 20
1200.7621999999999
 11
1848.1502
 21
1300.7621999999997
  0
CIRCLE
  8
_0-0_LAYER001
  6
CONTINUOUS
 62
    2
 10
1848.1502
 20
1300.7621999999997
 40
1.6999999999999997
  0
LINE
  8
_0-0_LAYER001
  6
CONTINUOUS
 62
    2
 10
1850.6502
 20
1300.7621999999997
 11
1823.1502
 21
1300.7621999999997
  0
CIRCLE
  8
_0-0_LAYER001
  6
CONTINUOUS
 62
    2
 10
1848.1502
 20
1300.7621999999997
 40
1.6999999999999997
  0
LINE
  8
_0-0_LAYER001
  6
CONTINUOUS
 62
    2
 10
1848.1502
 20
1300.7621999999997
 11
1848.1502
 21
1320.7621999999997
  0
CIRCLE
  8
_0-0_LAYER001
  6
CONTINUOUS
 62
    2
 10
1848.1502
 20
1320.7621999999997
 40
1.6999999999999997
  0
LINE
  8
_0-0_LAYER001
  6
CONTINUOUS
 62
    2
 10
1850.6502
 20
1320.7621999999997
 11
1823.1502
 21
1320.7621999999997
  0
LINE
  8
_0-0_LAYER001
  6
CONTINUOUS
 62
    2
 10
1972.0227
 20
1082.7746
 11
1919.5227
 21
1082.7746
  0
CIRCLE
  8
_0-0_LAYER001
  6
CONTINUOUS
 62
    2
 10
1969.5227
 20
1082.7746
 40
1.6999999999999997
  0
LINE
  8
_0-0_LAYER001
  6
CONTINUOUS
 62
    2
 10
1969.5227
 20
1082.7746
 11
1969.5227
 21
1282.7746
  0
CIRCLE
  8
_0-0_LAYER001
  6
CONTINUOUS
 62
    2
 10
1969.5227
 20
1282.7746
 40
1.6999999999999997
  0
LINE
  8
_0-0_LAYER001
  6
CONTINUOUS
 62
    2
 10
1972.0227
 20
1282.7746
 11
1919.5227
 21
1282.7746
  0
LINE
  8
_0-0_LAYER001
  6
CONTINUOUS
 62
    2
 10
1646.7534999999998
 20
1374.7063000000001
 11
1646.7534999999998
 21
1298.1684999999998
  0
CIRCLE
  8
_0-0_LAYER001
  6
CONTINUOUS
 62
    2
 10
1646.7534999999998
 20
1372.2063000000001
 40
1.6999999999999997
  0
LINE
  8
_0-0_LAYER001
  6
CONTINUOUS
 62
    2
 10
1646.7534999999998
 20
1372.2063000000001
 11
1739.8865000000001
 21
1372.2063000000001
  0
CIRCLE
  8
_0-0_LAYER001
  6
CONTINUOUS
 62
    2
 10
1739.8865000000001
 20
1372.2063000000001
 40
1.6999999999999997
  0
LINE
  8
_0-0_LAYER001
  6
CONTINUOUS
 62
    2
 10
1697.4400999999998
 20
1196.4473
 11
1699.3811999999998
 21
1189.2029
  0
LINE
  8
_0-0_LAYER001
  6
CONTINUOUS
 62
    2
 10
1699.3811999999998
 20
1189.2029
 11
1694.0779000000002
 21
1194.5062
  0
LINE
  8
_0-0_LAYER001
  6
CONTINUOUS
 62
    2
 10
1699.3811999999998
 20
1189.2029
 11
1591.1626999999999
 21
1376.6428999999998
  0
LINE
  8
_0-0_LAYER001
  6
CONTINUOUS
 62
    2
 10
1591.1626999999999
 20
1376.6428999999998
 11
1357.1627000000001
 21
1376.6428999999998
  0
LINE
  8
_0-0_LAYER001
  6
CONTINUOUS
 62
    2
 10
1719.9052999999999
 20
1071.3931
 11
1747.2622999999999
 21
1083.7054000000001
  0
LINE
  8
_0-0_LAYER001
  6
CONTINUOUS
 62
    2
 10
1747.2622999999999
 20
1083.7054000000001
 11
1741.1061
 21
1097.3839
  0
LINE
  8
_0-0_LAYER001
  6
CONTINUOUS
 62
    2
 10
1741.1061
 20
1097.3839
 11
1713.7491
 21
1085.0716
  0
LINE
  8
_0-0_LAYER001
  6
CONTINUOUS
 62
    2
 10
1713.7491
 20
1085.0716
 11
1719.9052999999999
 21
1071.3931
  0
LINE
  8
_0-0_LAYER001
  6
CONTINUOUS
 62
    2
 10
1741.1061
 20
1097.3839
 11
1719.9052999999999
 21
1071.3931
  0
LINE
  8
_0-0_LAYER001
  6
CONTINUOUS
 62
    4
 10
1753.8861000000002
 20
1089.2511999999999
 11
1743.5408000000002
 21
1117.5815
  0
LINE
  8
_0-0_LAYER001
  6
CONTINUOUS
 62
    4
 10
1753.8861000000002
 20
1089.2511999999999
 11
1746.7917000000002
 21
1086.6773000000001
  0
LINE
  8
_0-0_LAYER001
  6
CONTINUOUS
 62
    4
 10
1742.5354000000002
 20
1098.4091000000001
 11
1746.7917000000002
 21
1086.6773000000001
  0
LINE
  8
_0-0_LAYER001
  6
CONTINUOUS
 62
    4
 10
1743.5408000000002
 20
1117.5815
 11
1723.8508000000002
 21
1164.4607000000001
  0
LINE
  8
_0-0_LAYER001
  6
CONTINUOUS
 62
    2
 10
1074.2800999999999
 20
780.82089999999994
 11
1101.6370999999999
 21
793.13329999999996
  0
LINE
  8
_0-0_LAYER001
  6
CONTINUOUS
 62
    2
 10
1101.6370999999999
 20
793.13329999999996
 11
1095.4809
 21
806.81179999999995
  0
LINE
  8
_0-0_LAYER001
  6
CONTINUOUS
 62
    2
 10
1095.4809
 20
806.81179999999995
 11
1068.1239
 21
794.49939999999992
  0
LINE
  8
_0-0_LAYER001
  6
CONTINUOUS
 62
    2
 10
1068.1239
 20
794.49939999999992
 11
1074.2800999999999
 21
780.82089999999994
  0
LINE
  8
_0-0_LAYER001
  6
CONTINUOUS
 62
    2
 10
1095.4809
 20
806.81179999999995
 11
1074.2800999999999
 21
780.82089999999994
  0
LINE
  8
_0-0_LAYER001
  6
CONTINUOUS
 62
    4
 10
1109.3465000000001
 20
798.98749999999995
 11
1099.0011999999999
 21
827.31780000000003
  0
LINE
  8
_0-0_LAYER001
  6
CONTINUOUS
 62
    2
 10
1289.4884999999999
 20
877.67830000000004
 11
1316.8454999999999
 21
889.99070000000006
  0
LINE
  8
_0-0_LAYER001
  6
CONTINUOUS
 62
    2
 10
1316.8454999999999
 20
889.99070000000006
 11
1310.6893
 21
903.66920000000005
  0
LINE
  8
_0-0_LAYER001
  6
CONTINUOUS
 62
    2
 10
1310.6893
 20
903.66920000000005
 11
1283.3323
 21
891.35680000000002
  0
LINE
  8
_0-0_LAYER001
  6
CONTINUOUS
 62
    2
 10
1283.3323
 20
891.35680000000002
 11
1289.4884999999999
 21
877.67830000000004
  0
LINE
  8
_0-0_LAYER001
  6
CONTINUOUS
 62
    2
 10
1310.6893
 20
903.66920000000005
 11
1289.4884999999999
 21
877.67830000000004
  0
LINE
  8
_0-0_LAYER001
  6
CONTINUOUS
 62
    4
 10
1324.193
 20
895.74209999999994
 11
1313.8477
 21
924.07240000000002
  0
LINE
  8
_0-0_LAYER001
  6
CONTINUOUS
 62
    2
 10
1504.6968999999999
 20
974.53569999999991
 11
1532.0538999999999
 21
986.84809999999993
  0
LINE
  8
_0-0_LAYER001
  6
CONTINUOUS
 62
    2
 10
1532.0538999999999
 20
986.84809999999993
 11
1525.8977
 21
1000.5265999999999
  0
LINE
  8
_0-0_LAYER001
  6
CONTINUOUS
 62
    2
 10
1525.8977
 20
1000.5265999999999
 11
1498.5407
 21
988.21419999999989
  0
LINE
  8
_0-0_LAYER001
  6
CONTINUOUS
 62
    2
 10
1498.5407
 20
988.21419999999989
 11
1504.6968999999999
 21
974.53569999999991
  0
LINE
  8
_0-0_LAYER001
  6
CONTINUOUS
 62
    2
 10
1525.8977
 20
1000.5265999999999
 11
1504.6968999999999
 21
974.53569999999991
  0
LINE
  8
_0-0_LAYER001
  6
CONTINUOUS
 62
    4
 10
1539.0394999999999
 20
992.49659999999994
 11
1528.6943000000001
 21
1020.8269
  0
LINE
  8
_0-0_LAYER001
  6
CONTINUOUS
 62
    4
 10
1539.0394999999999
 20
992.49659999999994
 11
1531.5924
 21
989.7947999999999
  0
LINE
  8
_0-0_LAYER001
  6
CONTINUOUS
 62
    4
 10
1527.3361
 20
1001.5265999999999
 11
1531.5924
 21
989.7947999999999
  0
LINE
  8
_0-0_LAYER001
  6
CONTINUOUS
 62
    4
 10
1324.193
 20
895.74209999999994
 11
1316.3932
 21
892.91229999999996
  0
LINE
  8
_0-0_LAYER001
  6
CONTINUOUS
 62
    4
 10
1312.1368000000002
 20
904.64409999999998
 11
1316.3932
 21
892.91229999999996
  0
LINE
  8
_0-0_LAYER001
  6
CONTINUOUS
 62
    4
 10
1109.3465000000001
 20
798.98749999999995
 11
1101.1939
 21
796.02980000000002
  0
LINE
  8
_0-0_LAYER001
  6
CONTINUOUS
 62
    4
 10
1096.9376
 20
807.76150000000007
 11
1101.1939
 21
796.02980000000002
  0
LINE
  8
_0-0_LAYER001
  6
CONTINUOUS
 62
    4
 10
1251.8164999999999
 20
920.37490000000003
 11
1742.5354000000002
 21
1098.4091000000001
  0
LINE
  8
_0-0_LAYER001
  6
CONTINUOUS
 62
    4
 10
1234.4965999999999
 20
968.11400000000003
 11
1445.4713999999999
 21
1044.6563000000001
  0
LINE
  8
_0-0_LAYER001
  6
CONTINUOUS
 62
    4
 10
1443.0882000000001
 20
1051.5360000000001
 11
1462.8910000000001
 21
996.9532999999999
  0
ARC
  8
_0-0_LAYER001
  6
CONTINUOUS
 62
    4
 10
1452.8647000000001
 20
1055.0829000000001
 40
10.4
 50
109.94091000000002
 51
199.94091
  0
ARC
  8
_0-0_LAYER001
  6
CONTINUOUS
 62
    4
 10
1255.3380999999999
 20
910.58919999999989
 40
10.4
 50
109.94091000000002
 51
199.94091
  0
ARC
  8
_0-0_LAYER001
  6
CONTINUOUS
 62
    4
 10
1470.1846
 20
1007.3438000000001
 40
10.4
 50
109.94091000000002
 51
199.94091
  0
LINE
  8
_0-0_LAYER001
  6
CONTINUOUS
 62
    4
 10
1465.7572
 20
1016.8008
 11
1743.5408000000002
 21
1117.5815
  0
LINE
  8
_0-0_LAYER001
  6
CONTINUOUS
 62
    4
 10
1443.0882000000001
 20
1051.5360000000001
 11
1456.8611999999998
 21
1013.5733
  0
LINE
  8
_0-0_LAYER001
  6
CONTINUOUS
 62
    4
 10
1099.0011999999999
 20
827.31780000000003
 11
1312.1368000000002
 21
904.64409999999998
  0
LINE
  8
_0-0_LAYER001
  6
CONTINUOUS
 62
    4
 10
1062.7101
 20
795.3436999999999
 11
1096.9376
 21
807.76150000000007
  0
LINE
  8
_0-0_LAYER001
  6
CONTINUOUS
 62
    4
 10
1055.4344000000001
 20
811.51170000000002
 11
1099.0011999999999
 21
827.31780000000003
  0
LINE
  8
_0-0_LAYER001
  6
CONTINUOUS
 62
    4
 10
1027.2605000000001
 20
874.12049999999999
 11
1230.6249
 21
947.90169999999989
  0
LINE
  8
_0-0_LAYER001
  6
CONTINUOUS
 62
    4
 10
1234.2715000000001
 20
938.16139999999996
 11
1248.0444
 21
900.19879999999989
  0
LINE
  8
_0-0_LAYER001
  6
CONTINUOUS
 62
    4
 10
1048.1587999999999
 20
827.67969999999991
 11
1527.3361
 21
1001.5265999999999
  0
LINE
  8
_0-0_LAYER001
  6
CONTINUOUS
 62
    4
 10
1448.4373000000001
 20
1064.5399
 11
1723.8508000000002
 21
1164.4607000000001
  0
LINE
  8
_0-0_LAYER001
  6
CONTINUOUS
 62
    4
 10
1228.2417
 20
954.78140000000008
 11
1248.0444
 21
900.19879999999989
  0
ARC
  8
_0-0_LAYER001
  6
CONTINUOUS
 62
    4
 10
1238.0182
 20
958.3284000000001
 40
10.4
 50
109.94091000000002
 51
199.94091
  0
LINE
  8
_0-0_LAYER001
  6
CONTINUOUS
 62
    2
 10
977.3762999999999
 20
974.35750000000007
 11
1192.3042
 21
1052.8420000000001
  0
CIRCLE
  8
_0-0_LAYER001
  6
CONTINUOUS
 62
    2
 10
1192.3042
 20
1052.8420000000001
 40
1.6999999999999997
  0
LINE
  8
_0-0_LAYER001
  6
CONTINUOUS
 62
    2
 10
1191.4467
 20
1055.1903
 11
1209.4548
 21
1005.8755000000001
  0
LINE
  8
_0-0_LAYER001
  6
CONTINUOUS
 62
    2
 10
1177.7262000000001
 20
1092.7636
 11
1195.7343000000001
 21
1043.4486999999999
  0
CIRCLE
  8
_0-0_LAYER001
  6
CONTINUOUS
 62
    2
 10
1178.5836999999999
 20
1090.4152999999999
 40
1.6999999999999997
  0
LINE
  8
_0-0_LAYER001
  6
CONTINUOUS
 62
    2
 10
1178.5836999999999
 20
1090.4152999999999
 11
1399.3264999999999
 21
1171.0231000000001
  0
CIRCLE
  8
_0-0_LAYER001
  6
CONTINUOUS
 62
    2
 10
1399.3264999999999
 20
1171.0231000000001
 40
1.6999999999999997
  0
LINE
  8
_0-0_LAYER001
  6
CONTINUOUS
 62
    2
 10
1398.4690000000001
 20
1173.3715
 11
1416.4771000000001
 21
1124.0565999999999
  0
LINE
  8
_0-0_LAYER001
  6
CONTINUOUS
 62
    2
 10
1671.2444
 20
1315.5635000000002
 11
1689.2525000000001
 21
1266.2485999999999
  0
CIRCLE
  8
_0-0_LAYER001
  6
CONTINUOUS
 62
    2
 10
1672.1019000000001
 20
1313.2150999999999
 40
1.6999999999999997
  0
LINE
  8
_0-0_LAYER001
  6
CONTINUOUS
 62
    2
 10
1672.1019000000001
 20
1313.2150999999999
 11
1385.606
 21
1208.5963999999999
  0
CIRCLE
  8
_0-0_LAYER001
  6
CONTINUOUS
 62
    2
 10
1385.606
 20
1208.5963999999999
 40
1.6999999999999997
  0
LINE
  8
_0-0_LAYER001
  6
CONTINUOUS
 62
    2
 10
1384.7485000000001
 20
1210.9447
 11
1402.7565999999999
 21
1161.6297999999999
  0
LINE
  8
_0-0_LAYER001
  6
CONTINUOUS
 62
    2
 10
1355.1585
 20
958.77569999999992
 11
1357.0997
 21
951.5311999999999
  0
LINE
  8
_0-0_LAYER001
  6
CONTINUOUS
 62
    2
 10
1357.0997
 20
951.5311999999999
 11
1351.7964000000002
 21
956.83449999999993
  0
LINE
  8
_0-0_LAYER001
  6
CONTINUOUS
 62
    2
 10
1357.0997
 20
951.5311999999999
 11
1307.9129
 21
1036.7253000000001
  0
LINE
  8
_0-0_LAYER001
  6
CONTINUOUS
 62
    2
 10
1307.9129
 20
1036.7253000000001
 11
1267.4129
 21
1036.7253000000001
  0
LINE
  8
_0-0_LAYER001
  6
CONTINUOUS
 62
    2
 10
1191.6119000000001
 20
593.2174
 11
1170.0653
 21
641.09210000000007
  0
CIRCLE
  8
_0-0_LAYER001
  6
CONTINUOUS
 62
    2
 10
1190.5859
 20
595.49710000000005
 40
1.6999999999999997
  0
LINE
  8
_0-0_LAYER001
  6
CONTINUOUS
 62
    2
 10
1190.5859
 20
595.49710000000005
 11
1405.7943
 21
692.35449999999992
  0
CIRCLE
  8
_0-0_LAYER001
  6
CONTINUOUS
 62
    2
 10
1405.7943
 20
692.35449999999992
 40
1.6999999999999997
  0
LINE
  8
_0-0_LAYER001
  6
CONTINUOUS
 62
    2
 10
1406.8202999999999
 20
690.0748000000001
 11
1385.2737
 21
737.94949999999994
  0
CIRCLE
  8
_0-0_LAYER001
  6
CONTINUOUS
 62
    2
 10
1405.7943
 20
692.35449999999992
 40
1.6999999999999997
  0
LINE
  8
_0-0_LAYER001
  6
CONTINUOUS
 62
    2
 10
1405.7943
 20
692.35449999999992
 11
1621.0027
 21
789.21190000000001
  0
CIRCLE
  8
_0-0_LAYER001
  6
CONTINUOUS
 62
    2
 10
1621.0027
 20
789.21190000000001
 40
1.6999999999999997
  0
LINE
  8
_0-0_LAYER001
  6
CONTINUOUS
 62
    2
 10
1622.0286999999998
 20
786.93209999999999
 11
1600.482
 21
834.80690000000004
  0
CIRCLE
  8
_0-0_LAYER001
  6
CONTINUOUS
 62
    2
 10
1621.0027
 20
789.21190000000001
 40
1.6999999999999997
  0
LINE
  8
_0-0_LAYER001
  6
CONTINUOUS
 62
    2
 10
1621.0027
 20
789.21190000000001
 11
1836.2111
 21
886.06930000000011
  0
CIRCLE
  8
_0-0_LAYER001
  6
CONTINUOUS
 62
    2
 10
1836.2111
 20
886.06930000000011
 40
1.6999999999999997
  0
LINE
  8
_0-0_LAYER001
  6
CONTINUOUS
 62
    2
 10
1837.2370999999998
 20
883.78950000000009
 11
1815.6904
 21
931.66429999999991
  0
LINE
  8
_0-0_LAYER001
  6
CONTINUOUS
 62
    2
 10
1746.5154000000002
 20
1316.5291
 11
1748.4566
 21
1309.2846
  0
LINE
  8
_0-0_LAYER001
  6
CONTINUOUS
 62
    2
 10
1748.4566
 20
1309.2846
 11
1743.1532999999999
 21
1314.5879
  0
LINE
  8
_0-0_LAYER001
  6
CONTINUOUS
 62
    2
 10
1748.4566
 20
1309.2846
 11
1668.1426000000001
 21
1448.3924999999999
  0
LINE
  8
_0-0_LAYER001
  6
CONTINUOUS
 62
    2
 10
1668.1426000000001
 20
1448.3924999999999
 11
1587.1426000000001
 21
1448.3924999999999
  0
LINE
  8
_0-0_LAYER001
  6
CONTINUOUS
 62
    2
 10
1675.8534
 20
1176.5916
 11
1677.7946000000002
 21
1169.3471999999999
  0
LINE
  8
_0-0_LAYER001
  6
CONTINUOUS
 62
    2
 10
1677.7946000000002
 20
1169.3471999999999
 11
1672.4913000000001
 21
1174.6505
  0
LINE
  8
_0-0_LAYER001
  6
CONTINUOUS
 62
    2
 10
1677.7946000000002
 20
1169.3471999999999
 11
1579.8507
 21
1338.991
  0
LINE
  8
_0-0_LAYER001
  6
CONTINUOUS
 62
    2
 10
1579.8507
 20
1338.991
 11
1432.8507
 21
1338.991
  0
LINE
  8
_0-0_LAYER001
  6
CONTINUOUS
 62
    2
 10
1742.4553999999998
 20
1111.0512000000001
 11
1740.5142999999998
 21
1118.2955999999999
  0
LINE
  8
_0-0_LAYER001
  6
CONTINUOUS
 62
    2
 10
1740.5142999999998
 20
1118.2955999999999
 11
1745.8175999999999
 21
1112.9922999999999
  0
LINE
  8
_0-0_LAYER001
  6
CONTINUOUS
 62
    2
 10
1740.5142999999998
 20
1118.2955999999999
 11
1810.3101000000001
 21
997.4058
  0
LINE
  8
_0-0_LAYER001
  6
CONTINUOUS
 62
    2
 10
1810.3101000000001
 20
997.4058
 11
1895.3786
 21
997.4058
  0
LINE
  8
_0-1_LAYER003
  6
CONTINUOUS
 62
    2
 10
1078.3585
 20
773.83660000000009
 11
1764.8865000000001
 21
1082.7746
  0
LINE
  8
_0-2_LAYER004
  6
DASHED3
 62
    2
 10
1076.7165
 20
777.4846
 11
1761.8254999999999
 21
1085.7836
  0
LINE
  8
_0-4_LAYER006
  6
DASHED3
 62
    2
 10
1761.8254999999999
 20
1085.7836
 11
1761.8254999999999
 21
1282.7746
  0
LINE
  8
_0-1_LAYER003
  6
CONTINUOUS
 62
    2
 10
1739.8865000000001
 20
1525.1536000000001
 11
1739.8865000000001
 21
1319.7982
  0
LINE
  8
_0-1_LAYER003
  6
CONTINUOUS
 62
    2
 10
1739.8865000000001
 20
1300.7621999999997
 11
1739.8865000000001
 21
1200.7621999999999
  0
LINE
  8
_0-1_LAYER003
  6
CONTINUOUS
 62
    2
 10
1090.6695
 20
746.47959999999989
 11
1764.8865000000001
 21
1049.877
  0
LINE
  8
_0-1_LAYER003
  6
CONTINUOUS
 62
    2
 10
1742.1925000000001
 20
1072.5626
 11
1754.5034999999998
 21
1045.2046
  0
LINE
  8
_0-1_LAYER003
  6
CONTINUOUS
 62
    2
 10
1127.6025
 20
664.40660000000003
 11
1764.8865000000001
 21
951.18460000000005
  0
LINE
  8
_0-1_LAYER003
  6
CONTINUOUS
 62
    2
 10
1764.8865000000001
 20
1319.7982
 11
1764.8865000000001
 21
1049.877
  0
LINE
  8
_0-1_LAYER003
  6
CONTINUOUS
 62
    2
 10
1247.4847
 20
817.04639999999995
 11
1221.5125
 21
706.66560000000004
  0
LINE
  8
_0-1_LAYER003
  6
CONTINUOUS
 62
    2
 10
1256.6765
 20
821.18270000000007
 11
1230.7045000000001
 21
710.80259999999998
  0
LINE
  8
_0-1_LAYER003
  6
CONTINUOUS
 62
    2
 10
1265.8675000000001
 20
825.31860000000006
 11
1239.8965000000001
 21
714.93859999999995
  0
LINE
  8
_0-1_LAYER003
  6
CONTINUOUS
 62
    2
 10
1570.9124999999999
 20
962.58879999999999
 11
1544.9405000000002
 21
852.20859999999993
  0
LINE
  8
_0-1_LAYER003
  6
CONTINUOUS
 62
    2
 10
1589.2964999999999
 20
970.86149999999998
 11
1563.3245000000002
 21
860.48160000000007
  0
LINE
  8
_0-1_LAYER003
  6
CONTINUOUS
 62
    2
 10
1580.1046000000001
 20
966.72520000000009
 11
1554.1325000000002
 21
856.3456000000001
  0
LINE
  8
_0-1_LAYER003
  6
CONTINUOUS
 62
    2
 10
1739.8865000000001
 20
1449.5985999999998
 11
1815.4405000000002
 21
1525.1536000000001
  0
LINE
  8
_0-1_LAYER003
  6
CONTINUOUS
 62
    2
 10
1739.8865000000001
 20
1438.2855999999997
 11
1826.7545
 21
1525.1536000000001
  0
LINE
  8
_0-1_LAYER003
  6
CONTINUOUS
 62
    2
 10
1739.8865000000001
 20
1426.9715999999999
 11
1838.0684999999999
 21
1525.1536000000001
  0
ARC
  8
_0-1_LAYER003
  6
CONTINUOUS
 62
    2
 10
1481.2109999999998
 20
1108.4929999999999
 40
196.005
 50
355.66429000000005
 51
15.514044000000052
  0
CIRCLE
  8
_0-3_LAYER005
  6
CONTINUOUS
 62
    2
 10
1707.0313999999998
 20
1117.1966
 40
1.018
  0
CIRCLE
  8
_0-3_LAYER005
  6
CONTINUOUS
 62
    2
 10
1698.0245
 20
1110.7665999999999
 40
1.018
  0
CIRCLE
  8
_0-3_LAYER005
  6
CONTINUOUS
 62
    2
 10
1694.0025000000001
 20
1155.1881000000001
 40
1.018
  0
CIRCLE
  8
_0-3_LAYER005
  6
CONTINUOUS
 62
    2
 10
1691.4434999999999
 20
1149.7040999999999
 40
1.018
  0
CIRCLE
  8
_0-3_LAYER005
  6
CONTINUOUS
 62
    2
 10
1692.5394999999999
 20
1144.2191
 40
1.018
  0
CIRCLE
  8
_0-3_LAYER005
  6
CONTINUOUS
 62
    2
 10
1697.2935000000002
 20
1139.1001000000001
 40
1.018
  0
CIRCLE
  8
_0-3_LAYER005
  6
CONTINUOUS
 62
    2
 10
1699.3524000000002
 20
1121.7406000000001
 40
1.018
  0
CIRCLE
  8
_0-3_LAYER005
  6
CONTINUOUS
 62
    2
 10
1694.3685
 20
1108.7295999999999
 40
1.018
  0
CIRCLE
  8
_0-3_LAYER005
  6
CONTINUOUS
 62
    2
 10
1684.1305000000002
 20
1103.2446
 40
1.018
  0
CIRCLE
  8
_0-3_LAYER005
  6
CONTINUOUS
 62
    2
 10
1688.3834000000002
 20
1117.1966
 40
1.018
  0
CIRCLE
  8
_0-3_LAYER005
  6
CONTINUOUS
 62
    2
 10
1683.3984999999998
 20
1143.8531
 40
1.018
  0
CIRCLE
  8
_0-3_LAYER005
  6
CONTINUOUS
 62
    2
 10
1683.6293999999998
 20
1123.9346
 40
1.018
  0
CIRCLE
  8
_0-3_LAYER005
  6
CONTINUOUS
 62
    2
 10
1692.4054000000001
 20
1119.5476000000001
 40
1.018
  0
CIRCLE
  8
_0-3_LAYER005
  6
CONTINUOUS
 62
    2
 10
1705.7035000000001
 20
1106.1695999999999
 40
1.018
  0
CIRCLE
  8
_0-3_LAYER005
  6
CONTINUOUS
 62
    2
 10
1705.2033999999999
 20
1121.0096000000001
 40
1.018
  0
CIRCLE
  8
_0-3_LAYER005
  6
CONTINUOUS
 62
    2
 10
1706.8004999999998
 20
1138.3690999999999
 40
1.018
  0
CIRCLE
  8
_0-3_LAYER005
  6
CONTINUOUS
 62
    2
 10
1710.3798000000002
 20
1158.5567000000001
 40
1.018
  0
CIRCLE
  8
_0-3_LAYER005
  6
CONTINUOUS
 62
    2
 10
1714.4794999999999
 20
1129.8021000000001
 40
1.018
  0
CIRCLE
  8
_0-3_LAYER005
  6
CONTINUOUS
 62
    2
 10
1721.4265
 20
1138.9431
 40
1.018
  0
CIRCLE
  8
_0-3_LAYER005
  6
CONTINUOUS
 62
    2
 10
1708.5518000000002
 20
1155.1087
 40
1.018
  0
CIRCLE
  8
_0-3_LAYER005
  6
CONTINUOUS
 62
    2
 10
1707.5315000000001
 20
1142.9650999999999
 40
1.018
  0
CIRCLE
  8
_0-3_LAYER005
  6
CONTINUOUS
 62
    2
 10
1704.8373999999999
 20
1121.9505999999999
 40
1.018
  0
CIRCLE
  8
_0-3_LAYER005
  6
CONTINUOUS
 62
    2
 10
1697.8904000000002
 20
1123.7786000000001
 40
1.018
  0
CIRCLE
  8
_0-3_LAYER005
  6
CONTINUOUS
 62
    2
 10
1689.8454000000002
 20
1124.5096000000001
 40
1.018
  0
CIRCLE
  8
_0-3_LAYER005
  6
CONTINUOUS
 62
    2
 10
1688.1525000000001
 20
1156.6511
 40
1.018
  0
CIRCLE
  8
_0-3_LAYER005
  6
CONTINUOUS
 62
    2
 10
1706.8004999999998
 20
1106.3786
 40
1.018
  0
CIRCLE
  8
_0-3_LAYER005
  6
CONTINUOUS
 62
    2
 10
1681.5704999999998
 20
1148.6070999999999
 40
1.018
  0
CIRCLE
  8
_0-3_LAYER005
  6
CONTINUOUS
 62
    2
 10
1704.8948
 20
1159.2877000000001
 40
1.018
  0
CIRCLE
  8
_0-3_LAYER005
  6
CONTINUOUS
 62
    2
 10
1720.3294999999998
 20
1135.4431
 40
1.018
  0
CIRCLE
  8
_0-3_LAYER005
  6
CONTINUOUS
 62
    2
 10
1722.5234999999998
 20
1131.0561
 40
1.018
  0
CIRCLE
  8
_0-3_LAYER005
  6
CONTINUOUS
 62
    2
 10
1731.7995999999998
 20
1125.6094000000001
 40
1.018
  0
CIRCLE
  8
_0-3_LAYER005
  6
CONTINUOUS
 62
    2
 10
1737.8805000000002
 20
1148.9721
 40
1.018
  0
CIRCLE
  8
_0-3_LAYER005
  6
CONTINUOUS
 62
    2
 10
1748.1185
 20
1145.1591000000001
 40
1.018
  0
CIRCLE
  8
_0-3_LAYER005
  6
CONTINUOUS
 62
    2
 10
1744.0965000000001
 20
1147.3531
 40
1.018
  0
CIRCLE
  8
_0-3_LAYER005
  6
CONTINUOUS
 62
    2
 10
1739.3434999999999
 20
1144.7941000000001
 40
1.018
  0
CIRCLE
  8
_0-3_LAYER005
  6
CONTINUOUS
 62
    2
 10
1734.9555
 20
1151.3751
 40
1.018
  0
CIRCLE
  8
_0-3_LAYER005
  6
CONTINUOUS
 62
    2
 10
1734.5895
 20
1172.5831000000001
 40
1.018
  0
CIRCLE
  8
_0-3_LAYER005
  6
CONTINUOUS
 62
    2
 10
1728.0084999999999
 20
1175.1431
 40
1.018
  0
CIRCLE
  8
_0-3_LAYER005
  6
CONTINUOUS
 62
    2
 10
1737.1495
 20
1161.9791
 40
1.018
  0
CIRCLE
  8
_0-3_LAYER005
  6
CONTINUOUS
 62
    2
 10
1717.3267999999998
 20
1163.5187000000001
 40
1.018
  0
CIRCLE
  8
_0-3_LAYER005
  6
CONTINUOUS
 62
    2
 10
1731.0675999999999
 20
1125.8184000000001
 40
1.018
  0
CIRCLE
  8
_0-3_LAYER005
  6
CONTINUOUS
 62
    2
 10
1728.7395000000001
 20
1150.0690999999999
 40
1.018
  0
CIRCLE
  8
_0-3_LAYER005
  6
CONTINUOUS
 62
    2
 10
1713.0165000000002
 20
1143.8531
 40
1.018
  0
CIRCLE
  8
_0-3_LAYER005
  6
CONTINUOUS
 62
    2
 10
1714.4794999999999
 20
1138.3690999999999
 40
1.018
  0
CIRCLE
  8
_0-3_LAYER005
  6
CONTINUOUS
 62
    2
 10
1719.9634999999998
 20
1110.1916000000001
 40
1.018
  0
CIRCLE
  8
_0-3_LAYER005
  6
CONTINUOUS
 62
    2
 10
1737.8805000000002
 20
1148.6070999999999
 40
1.018
  0
CIRCLE
  8
_0-3_LAYER005
  6
CONTINUOUS
 62
    2
 10
1751.4095000000002
 20
1152.6291000000001
 40
1.018
  0
CIRCLE
  8
_0-3_LAYER005
  6
CONTINUOUS
 62
    2
 10
1748.1185
 20
1131.0561
 40
1.018
  0
CIRCLE
  8
_0-3_LAYER005
  6
CONTINUOUS
 62
    2
 10
1750.6785
 20
1110.1916000000001
 40
1.018
  0
CIRCLE
  8
_0-3_LAYER005
  6
CONTINUOUS
 62
    2
 10
1745.1934999999999
 20
1132.5181
 40
1.018
  0
CIRCLE
  8
_0-3_LAYER005
  6
CONTINUOUS
 62
    2
 10
1753.9695000000002
 20
1140.5621000000001
 40
1.018
  0
CIRCLE
  8
_0-3_LAYER005
  6
CONTINUOUS
 62
    2
 10
1741.1714999999999
 20
1151.8981000000001
 40
1.018
  0
CIRCLE
  8
_0-3_LAYER005
  6
CONTINUOUS
 62
    2
 10
1752.8724999999999
 20
1109.3036
 40
1.018
  0
CIRCLE
  8
_0-3_LAYER005
  6
CONTINUOUS
 62
    2
 10
1758.7224999999999
 20
1136.3841
 40
1.018
  0
CIRCLE
  8
_0-3_LAYER005
  6
CONTINUOUS
 62
    2
 10
1755.7975000000001
 20
1151.0101
 40
1.018
  0
CIRCLE
  8
_0-3_LAYER005
  6
CONTINUOUS
 62
    2
 10
1755.0664999999999
 20
1163.0761
 40
1.018
  0
CIRCLE
  8
_0-3_LAYER005
  6
CONTINUOUS
 62
    2
 10
1743.1675
 20
1175.2681
 40
1.018
  0
CIRCLE
  8
_0-3_LAYER005
  6
CONTINUOUS
 62
    2
 10
1708.9665
 20
1135.6670999999999
 40
1.018
  0
CIRCLE
  8
_0-3_LAYER005
  6
CONTINUOUS
 62
    2
 10
1717.2148000000002
 20
1158.5436999999999
 40
1.018
  0
CIRCLE
  8
_0-3_LAYER005
  6
CONTINUOUS
 62
    2
 10
1712.7148000000002
 20
1165.7437
 40
1.018
  0
CIRCLE
  8
_0-3_LAYER005
  6
CONTINUOUS
 62
    2
 10
1728.3395999999998
 20
1126.4964
 40
1.018
  0
CIRCLE
  8
_0-3_LAYER005
  6
CONTINUOUS
 62
    2
 10
1719.7674999999999
 20
1142.4901
 40
1.018
  0
CIRCLE
  8
_0-3_LAYER005
  6
CONTINUOUS
 62
    2
 10
1739.5675000000001
 20
1143.3901000000001
 40
1.018
  0
CIRCLE
  8
_0-3_LAYER005
  6
CONTINUOUS
 62
    2
 10
1752.1685000000002
 20
1168.0681
 40
1.018
  0
CIRCLE
  8
_0-3_LAYER005
  6
CONTINUOUS
 62
    2
 10
1744.9675000000002
 20
1158.1670999999999
 40
1.018
  0
CIRCLE
  8
_0-3_LAYER005
  6
CONTINUOUS
 62
    2
 10
1749.4684999999999
 20
1141.5900999999999
 40
1.018
  0
CIRCLE
  8
_0-3_LAYER005
  6
CONTINUOUS
 62
    2
 10
1742.2674999999999
 20
1132.0661
 40
1.018
  0
LINE
  8
_0-0_LAYER001
  6
CONTINUOUS
 62
    2
 10
1757.7809999999999
 20
1158.2393999999999
 11
1755.8398999999999
 21
1165.4838
  0
LINE
  8
_0-0_LAYER001
  6
CONTINUOUS
 62
    2
 10
1755.8398999999999
 20
1165.4838
 11
1761.1432
 21
1160.1804999999999
  0
LINE
  8
_0-0_LAYER001
  6
CONTINUOUS
 62
    2
 10
1755.8398999999999
 20
1165.4838
 11
1793.4911999999999
 21
1100.2698
  0
LINE
  8
_0-0_LAYER001
  6
CONTINUOUS
 62
    2
 10
1793.4911999999999
 20
1100.2698
 11
1940.4911999999999
 21
1100.2698
  0
LINE
  8
_0-0_LAYER001
  6
CONTINUOUS
 62
    2
 10
1302.5255999999999
 20
877.63689999999997
 11
1302.5255999999999
 21
885.13689999999997
  0
LINE
  8
_0-0_LAYER001
  6
CONTINUOUS
 62
    2
 10
1302.5255999999999
 20
885.13689999999997
 11
1306.2755999999999
 21
878.6416999999999
  0
LINE
  8
_0-0_LAYER001
  6
CONTINUOUS
 62
    2
 10
1302.5255999999999
 20
885.13689999999997
 11
1385.6677
 21
574.84630000000004
  0
LINE
  8
_0-0_LAYER001
  6
CONTINUOUS
 62
    7
 10
977.3762999999999
 20
974.35750000000007
 11
1192.3042
 21
1052.8420000000001
  0
LINE
  8
_0-0_LAYER001
  6
CONTINUOUS
 62
    7
 10
1179.1668353238938
 20
1088.8184427133185
 11
1209.4548
 21
1005.8755000000001
  0
LINE
  8
_0-0_LAYER001
  6
CONTINUOUS
 62
    7
 10
1179.1668353238938
 20
1088.8184427133185
 11
1178.0005966842155
 21
1092.0121689749383
  0
LINE
  8
_0-0_LAYER001
  6
CONTINUOUS
 62
    7
 10
1178.5836999999999
 20
1090.4152999999999
 11
1399.3264919979742
 21
1171.0230970779312
  0
LINE
  8
_0-0_LAYER001
  6
CONTINUOUS
 62
    7
 10
1416.4771000000001
 20
1124.0565999999999
 11
1385.0228966842153
 21
1210.1932689749383
  0
LINE
  8
_0-0_LAYER001
  6
CONTINUOUS
 62
    7
 10
1385.6060160040493
 20
1208.5964058441423
 11
1672.1019000000001
 21
1313.2150999999999
  0
LINE
  8
_0-0_LAYER001
  6
CONTINUOUS
 62
    7
 10
1671.5188289045816
 20
1314.8119807399701
 11
1689.2525000000001
 21
1266.2485999999999
  0
LINE
  8
_0-0_LAYER001
  6
CONTINUOUS
 62
    7
 10
1689.2525000000001
 20
1266.2485999999999
 11
1672.1019000000001
 21
1313.2150999999999
  0
LINE
  8
_0-0_LAYER001
  6
CONTINUOUS
 62
    7
 10
1646.7534999999998
 20
1298.1684999999998
 11
1646.7534999999998
 21
1373.9063000000001
  0
LINE
  8
_0-0_LAYER001
  6
CONTINUOUS
 62
    7
 10
1646.7534999999998
 20
1372.2063000000001
 11
1739.8865000000001
 21
1372.2063000000001
  0
LINE
  8
_0-0_LAYER001
  6
CONTINUOUS
 62
    7
 10
1739.8865000000001
 20
1319.7982
 11
1764.8865000000001
 21
1319.7982
  0
LINE
  8
_0-0_LAYER001
  6
CONTINUOUS
 62
    7
 10
1739.8865000000001
 20
1319.7982
 11
1739.8865000000001
 21
1525.1536000000001
  0
LINE
  8
_0-0_LAYER001
  6
CONTINUOUS
 62
    7
 10
1739.8865000000001
 20
1449.5985999999998
 11
1815.4405000000002
 21
1525.1536000000001
  0
LINE
  8
_0-0_LAYER001
  6
CONTINUOUS
 62
    7
 10
1739.8865000000001
 20
1438.2855999999997
 11
1826.7545
 21
1525.1536000000001
  0
LINE
  8
_0-0_LAYER001
  6
CONTINUOUS
 62
    7
 10
1739.8865000000001
 20
1426.9715999999999
 11
1838.0684999999999
 21
1525.1536000000001
  0
LINE
  8
_0-0_LAYER001
  6
CONTINUOUS
 62
    7
 10
1587.1426000000001
 20
1448.3924999999999
 11
1668.1426000000001
 21
1448.3924999999999
  0
LINE
  8
_0-0_LAYER001
  6
CONTINUOUS
 62
    7
 10
1668.1426000000001
 20
1448.3924999999999
 11
1748.4566
 21
1309.2846
  0
LINE
  8
_0-0_LAYER001
  6
CONTINUOUS
 62
    7
 10
1743.1532999999999
 20
1314.5879
 11
1748.4566
 21
1309.2846
  0
LINE
  8
_0-0_LAYER001
  6
CONTINUOUS
 62
    7
 10
1748.4566
 20
1309.2846
 11
1746.5154000000002
 21
1316.5291
  0
LINE
  8
_0-0_LAYER001
  6
CONTINUOUS
 62
    7
 10
1755.3694999999998
 20
1319.7982
 11
1755.3694999999998
 21
1300.7621999999997
  0
LINE
  8
_0-0_LAYER001
  6
CONTINUOUS
 62
    7
 10
1755.3694999999998
 20
1300.7621999999997
 11
1739.8865000000001
 21
1300.7621999999997
  0
LINE
  8
_0-0_LAYER001
  6
CONTINUOUS
 62
    7
 10
1755.3694999999998
 20
1300.7621999999997
 11
1760.8314999999998
 21
1300.7621999999997
  0
LINE
  8
_0-0_LAYER001
  6
CONTINUOUS
 62
    7
 10
1760.8314999999998
 20
1300.7621999999997
 11
1760.8314999999998
 21
1319.7982
  0
LINE
  8
_0-0_LAYER001
  6
CONTINUOUS
 62
    7
 10
1760.8314999999998
 20
1319.7982
 11
1755.3694999999998
 21
1300.7621999999997
  0
LINE
  8
_0-0_LAYER001
  6
CONTINUOUS
 62
    7
 10
1755.3694999999998
 20
1319.7982
 11
1760.8314999999998
 21
1300.7621999999997
  0
LINE
  8
_0-0_LAYER001
  6
CONTINUOUS
 62
    7
 10
1764.8865000000001
 20
1319.7982
 11
1764.8865000000001
 21
1049.877
  0
LINE
  8
_0-0_LAYER001
  6
CONTINUOUS
 62
    7
 10
1764.8865000000001
 20
1049.877
 11
1754.5034999999998
 21
1045.2046
  0
LINE
  8
_0-0_LAYER001
  6
CONTINUOUS
 62
    7
 10
1754.5034999999998
 20
1045.2046
 11
1742.1925000000001
 21
1072.5626
  0
LINE
  8
_0-0_LAYER001
  6
CONTINUOUS
 62
    7
 10
1742.1925000000001
 20
1072.5626
 11
1764.8865000000001
 21
1082.7746
  0
LINE
  8
_0-0_LAYER001
  6
CONTINUOUS
 62
    7
 10
1741.1061
 20
1097.3839
 11
1747.2622999999999
 21
1083.7054000000001
  0
LINE
  8
_0-0_LAYER001
  6
CONTINUOUS
 62
    7
 10
1747.2622999999999
 20
1083.7054000000001
 11
1719.9052999999999
 21
1071.3931
  0
LINE
  8
_0-0_LAYER001
  6
CONTINUOUS
 62
    7
 10
1719.9052999999999
 20
1071.3931
 11
1713.7491
 21
1085.0716
  0
LINE
  8
_0-0_LAYER001
  6
CONTINUOUS
 62
    7
 10
1713.7491
 20
1085.0716
 11
1741.1061
 21
1097.3839
  0
LINE
  8
_0-0_LAYER001
  6
CONTINUOUS
 62
    7
 10
1741.1061
 20
1097.3839
 11
1719.9052999999999
 21
1071.3931
  0
LINE
  8
_0-0_LAYER001
  6
CONTINUOUS
 62
    7
 10
1810.3101000000001
 20
997.4058
 11
1895.3786
 21
997.4058
  0
LINE
  8
_0-0_LAYER001
  6
CONTINUOUS
 62
    7
 10
1810.3101000000001
 20
997.4058
 11
1740.5142999999998
 21
1118.2955999999999
  0
LINE
  8
_0-0_LAYER001
  6
CONTINUOUS
 62
    7
 10
1740.5142999999998
 20
1118.2955999999999
 11
1742.4553999999998
 21
1111.0512000000001
  0
LINE
  8
_0-0_LAYER001
  6
CONTINUOUS
 62
    7
 10
1740.5142999999998
 20
1118.2955999999999
 11
1745.8175999999999
 21
1112.9922999999999
  0
LINE
  8
_0-0_LAYER001
  6
CONTINUOUS
 62
    7
 10
1761.8254999999999
 20
1085.7836
 11
1761.8254999999999
 21
1282.7746
  0
LINE
  8
_0-0_LAYER001
  6
CONTINUOUS
 62
    7
 10
1823.1502
 20
1200.7621999999999
 11
1849.8502000000003
 21
1200.7621999999999
  0
LINE
  8
_0-0_LAYER001
  6
CONTINUOUS
 62
    7
 10
1848.1502
 20
1200.7621999999999
 11
1848.1502
 21
1320.7621999999997
  0
LINE
  8
_0-0_LAYER001
  6
CONTINUOUS
 62
    7
 10
1823.1502
 20
1320.7621999999997
 11
1848.1502
 21
1320.7621999999997
  0
LINE
  8
_0-0_LAYER001
  6
CONTINUOUS
 62
    7
 10
1823.1502
 20
1300.7621999999997
 11
1848.1502
 21
1300.7621999999997
  0
LINE
  8
_0-0_LAYER001
  6
CONTINUOUS
 62
    7
 10
1919.5227
 20
1282.7746
 11
1971.2227000000003
 21
1282.7746
  0
LINE
  8
_0-0_LAYER001
  6
CONTINUOUS
 62
    7
 10
1969.5227
 20
1282.7746
 11
1969.5227
 21
1082.7746
  0
LINE
  8
_0-0_LAYER001
  6
CONTINUOUS
 62
    7
 10
1969.5227
 20
1082.7746
 11
1919.5227
 21
1082.7746
  0
LINE
  8
_0-0_LAYER001
  6
CONTINUOUS
 62
    7
 10
1940.4911999999999
 20
1100.2698
 11
1793.4911999999999
 21
1100.2698
  0
LINE
  8
_0-0_LAYER001
  6
CONTINUOUS
 62
    7
 10
1793.4911999999999
 20
1100.2698
 11
1755.8398999999999
 21
1165.4838
  0
LINE
  8
_0-0_LAYER001
  6
CONTINUOUS
 62
    7
 10
1755.8398999999999
 20
1165.4838
 11
1757.7809999999999
 21
1158.2393999999999
  0
LINE
  8
_0-0_LAYER001
  6
CONTINUOUS
 62
    7
 10
1755.8398999999999
 20
1165.4838
 11
1761.1432
 21
1160.1804999999999
  0
LINE
  8
_0-0_LAYER001
  6
CONTINUOUS
 62
    7
 10
1752.5436
 20
1163.3203000000001
 11
1750.4465
 21
1171.9544000000001
  0
LINE
  8
_0-0_LAYER001
  6
CONTINUOUS
 62
    7
 10
1765.1376
 20
1145.4145000000001
 11
1735.1376
 21
1145.4145000000001
  0
LINE
  8
_0-0_LAYER001
  6
CONTINUOUS
 62
    7
 10
1735.1376
 20
1145.4145000000001
 11
1735.1376
 21
1179.8808874612137
  0
LINE
  8
_0-0_LAYER001
  6
CONTINUOUS
 62
    7
 10
1735.1376
 20
1179.8808874612137
 11
1738.6415999999999
 21
1180.7425000000001
  0
LINE
  8
_0-0_LAYER001
  6
CONTINUOUS
 62
    7
 10
1738.6415999999999
 20
1180.7425000000001
 11
1765.1376
 21
1145.4145000000001
  0
LINE
  8
_0-0_LAYER001
  6
CONTINUOUS
 62
    7
 10
1735.1376
 20
1171.4145000000001
 11
1741.1374999999998
 21
1168.4143999999999
  0
LINE
  8
_0-0_LAYER001
  6
CONTINUOUS
 62
    7
 10
1741.1374999999998
 20
1168.4143999999999
 11
1741.1374999999998
 21
1162.4145000000001
  0
LINE
  8
_0-0_LAYER001
  6
CONTINUOUS
 62
    7
 10
1741.1374999999998
 20
1162.4145000000001
 11
1735.1376
 21
1159.4143999999999
  0
LINE
  8
_0-0_LAYER001
  6
CONTINUOUS
 62
    7
 10
1741.1374999999998
 20
1168.4143999999999
 11
1765.1376
 21
1168.4143999999999
  0
LINE
  8
_0-0_LAYER001
  6
CONTINUOUS
 62
    7
 10
1765.1376
 20
1162.4145000000001
 11
1741.1374999999998
 21
1162.4145000000001
  0
LINE
  8
_0-0_LAYER001
  6
CONTINUOUS
 62
    7
 10
1765.1376
 20
1161.1645000000001
 11
1765.1376
 21
1169.6645000000001
  0
LINE
  8
_0-0_LAYER001
  6
CONTINUOUS
 62
    7
 10
1765.1376
 20
1169.6645000000001
 11
1783.3375999999998
 21
1169.6645000000001
  0
LINE
  8
_0-0_LAYER001
  6
CONTINUOUS
 62
    7
 10
1765.1376
 20
1161.1645000000001
 11
1783.3375999999998
 21
1161.1645000000001
  0
LINE
  8
_0-0_LAYER001
  6
CONTINUOUS
 62
    7
 10
1781.1136000000001
 20
1165.4156
 11
1806.3865999999998
 21
1169.8715
  0
LINE
  8
_0-0_LAYER001
  6
CONTINUOUS
 62
    7
 10
1806.3865999999998
 20
1169.8715
 11
1805.9816313622896
 21
1172.1435057996453
  0
LINE
  8
_0-0_LAYER001
  6
CONTINUOUS
 62
    7
 10
1805.9816313622896
 20
1172.1435057996453
 11
1804.2496411389072
 21
1173.354259324256
  0
LINE
  8
_0-0_LAYER001
  6
CONTINUOUS
 62
    7
 10
1804.2494999999999
 20
1173.3525
 11
1802.7716999999998
 21
1173.0925
  0
LINE
  8
_0-0_LAYER001
  6
CONTINUOUS
 62
    7
 10
1802.7716999999998
 20
1173.0925
 11
1803.0675999999999
 21
1171.4185
  0
LINE
  8
_0-0_LAYER001
  6
CONTINUOUS
 62
    7
 10
1803.0675999999999
 20
1171.4185
 11
1801.3935000000001
 21
1171.1234999999999
  0
LINE
  8
_0-0_LAYER001
  6
CONTINUOUS
 62
    7
 10
1801.3935000000001
 20
1171.1234999999999
 11
1801.0976000000001
 21
1172.7976000000001
  0
LINE
  8
_0-0_LAYER001
  6
CONTINUOUS
 62
    7
 10
1801.0976000000001
 20
1172.7976000000001
 11
1798.4386
 21
1172.3276000000001
  0
LINE
  8
_0-0_LAYER001
  6
CONTINUOUS
 62
    7
 10
1798.4386
 20
1172.3276000000001
 11
1798.7334999999998
 21
1170.6545000000001
  0
LINE
  8
_0-0_LAYER001
  6
CONTINUOUS
 62
    7
 10
1798.7334999999998
 20
1170.6545000000001
 11
1797.0605999999998
 21
1170.3595
  0
LINE
  8
_0-0_LAYER001
  6
CONTINUOUS
 62
    7
 10
1797.0605999999998
 20
1170.3595
 11
1796.7645000000002
 21
1172.0335
  0
LINE
  8
_0-0_LAYER001
  6
CONTINUOUS
 62
    7
 10
1796.7645000000002
 20
1172.0335
 11
1794.1055999999999
 21
1171.5645
  0
LINE
  8
_0-0_LAYER001
  6
CONTINUOUS
 62
    7
 10
1794.1055999999999
 20
1171.5645
 11
1794.4005000000002
 21
1169.8905
  0
LINE
  8
_0-0_LAYER001
  6
CONTINUOUS
 62
    7
 10
1794.4005000000002
 20
1169.8905
 11
1792.7276000000002
 21
1169.5954999999999
  0
LINE
  8
_0-0_LAYER001
  6
CONTINUOUS
 62
    7
 10
1792.7276000000002
 20
1169.5954999999999
 11
1792.4315000000001
 21
1171.2695000000001
  0
LINE
  8
_0-0_LAYER001
  6
CONTINUOUS
 62
    7
 10
1792.4315000000001
 20
1171.2695000000001
 11
1783.3375999999998
 21
1169.6645000000001
  0
LINE
  8
_0-0_LAYER001
  6
CONTINUOUS
 62
    7
 10
1806.2116000000001
 20
1160.9894999999999
 11
1805.8137000000002
 21
1158.7246
  0
LINE
  8
_0-0_LAYER001
  6
CONTINUOUS
 62
    7
 10
1805.8137000000002
 20
1158.7246
 11
1804.0747000000001
 21
1157.5084999999999
  0
LINE
  8
_0-0_LAYER001
  6
CONTINUOUS
 62
    7
 10
1804.0799203853758
 20
1157.5121506674268
 11
1802.5976000000001
 21
1157.7696000000001
  0
LINE
  8
_0-0_LAYER001
  6
CONTINUOUS
 62
    7
 10
1802.5976000000001
 20
1157.7696000000001
 11
1802.8926999999999
 21
1159.4425000000001
  0
LINE
  8
_0-0_LAYER001
  6
CONTINUOUS
 62
    7
 10
1802.8926999999999
 20
1159.4425000000001
 11
1801.2195999999999
 21
1159.7375
  0
LINE
  8
_0-0_LAYER001
  6
CONTINUOUS
 62
    7
 10
1801.2195999999999
 20
1159.7375
 11
1800.9236000000001
 21
1158.0645
  0
LINE
  8
_0-0_LAYER001
  6
CONTINUOUS
 62
    7
 10
1800.9236000000001
 20
1158.0645
 11
1798.2645000000002
 21
1158.5335
  0
LINE
  8
_0-0_LAYER001
  6
CONTINUOUS
 62
    7
 10
1798.2645000000002
 20
1158.5335
 11
1798.5605999999998
 21
1160.2065
  0
LINE
  8
_0-0_LAYER001
  6
CONTINUOUS
 62
    7
 10
1798.5605999999998
 20
1160.2065
 11
1796.8867
 21
1160.5015000000001
  0
LINE
  8
_0-0_LAYER001
  6
CONTINUOUS
 62
    7
 10
1796.8867
 20
1160.5015000000001
 11
1796.5906
 21
1158.8285000000001
  0
LINE
  8
_0-0_LAYER001
  6
CONTINUOUS
 62
    7
 10
1796.5906
 20
1158.8285000000001
 11
1793.9315000000001
 21
1159.2974999999999
  0
LINE
  8
_0-0_LAYER001
  6
CONTINUOUS
 62
    7
 10
1793.9315000000001
 20
1159.2974999999999
 11
1794.2266
 21
1160.9704999999999
  0
LINE
  8
_0-0_LAYER001
  6
CONTINUOUS
 62
    7
 10
1794.2266
 20
1160.9704999999999
 11
1792.5536000000002
 21
1161.2655
  0
LINE
  8
_0-0_LAYER001
  6
CONTINUOUS
 62
    7
 10
1792.5536000000002
 20
1161.2655
 11
1792.2575999999999
 21
1159.5925999999999
  0
LINE
  8
_0-0_LAYER001
  6
CONTINUOUS
 62
    7
 10
1792.2575999999999
 20
1159.5925999999999
 11
1783.3375999999998
 21
1161.1645000000001
  0
LINE
  8
_0-0_LAYER001
  6
CONTINUOUS
 62
    7
 10
1781.1136000000001
 20
1165.4156
 11
1806.2116000000001
 21
1160.9894999999999
  0
LINE
  8
_0-0_LAYER001
  6
CONTINUOUS
 62
    7
 10
1798.1226000000001
 20
1168.4143999999999
 11
1808.1376
 21
1168.4143999999999
  0
LINE
  8
_0-0_LAYER001
  6
CONTINUOUS
 62
    7
 10
1808.1376
 20
1168.4143999999999
 11
1813.1376
 21
1165.4145000000001
  0
LINE
  8
_0-0_LAYER001
  6
CONTINUOUS
 62
    7
 10
1813.1376
 20
1165.4145000000001
 11
1808.1376
 21
1162.4145000000001
  0
LINE
  8
_0-0_LAYER001
  6
CONTINUOUS
 62
    7
 10
1807.0626000000002
 20
1162.4145000000001
 11
1798.1312019068698
 21
1162.4145000000001
  0
LINE
  8
_0-0_LAYER001
  6
CONTINUOUS
 62
    7
 10
1735.6763999999998
 20
1194.8624
 11
1747.0873000000001
 21
1170.3882000000001
  0
LINE
  8
_0-0_LAYER001
  6
CONTINUOUS
 62
    7
 10
1747.0873000000001
 20
1170.3882000000001
 11
1752.5436
 21
1163.3203000000001
  0
LINE
  8
_0-0_LAYER001
  6
CONTINUOUS
 62
    7
 10
1739.1539584236443
 20
1196.6058542433209
 11
1740.7183
 21
1198.9718
  0
LINE
  8
_0-0_LAYER001
  6
CONTINUOUS
 62
    7
 10
1733.7649552134449
 20
1195.0812619426761
 11
1735.6763999999998
 21
1194.8624
  0
LINE
  8
_0-0_LAYER001
  6
CONTINUOUS
 62
    7
 10
1760.8587000000002
 20
1202.7463
 11
1764.942
 21
1188.3127999999999
  0
LINE
  8
_0-0_LAYER001
  6
CONTINUOUS
 62
    7
 10
1764.8865000000001
 20
1188.2970985886009
 11
1663.9074999999998
 21
1159.7293
  0
LINE
  8
_0-0_LAYER001
  6
CONTINUOUS
 62
    7
 10
1659.8240999999998
 20
1174.1628000000001
 11
1663.9074999999998
 21
1159.7293
  0
LINE
  8
_0-0_LAYER001
  6
CONTINUOUS
 62
    7
 10
1663.9074999999998
 20
1159.7293
 11
1760.8587000000002
 21
1202.7463
  0
LINE
  8
_0-0_LAYER001
  6
CONTINUOUS
 62
    7
 10
1760.8587000000002
 20
1202.7463
 11
1659.8240999999998
 21
1174.1628000000001
  0
LINE
  8
_0-0_LAYER001
  6
CONTINUOUS
 62
    7
 10
1764.8865000000001
 20
1185.4145000000001
 11
1754.6972999999998
 21
1185.4145000000001
  0
LINE
  8
_0-0_LAYER001
  6
CONTINUOUS
 62
    7
 10
1739.8865000000001
 20
1200.7621999999999
 11
1650.2339999999999
 21
1175.3988999999999
  0
LINE
  8
_0-0_LAYER001
  6
CONTINUOUS
 62
    7
 10
1650.2339999999999
 20
1175.3988999999999
 11
1648.4787999999999
 21
1149.4801
  0
LINE
  8
_0-0_LAYER001
  6
CONTINUOUS
 62
    7
 10
1648.4787999999999
 20
1149.4801
 11
1652.8226
 21
1155.5098
  0
LINE
  8
_0-0_LAYER001
  6
CONTINUOUS
 62
    7
 10
1675.8534
 20
1176.5916
 11
1677.7946000000002
 21
1169.3471999999999
  0
LINE
  8
_0-0_LAYER001
  6
CONTINUOUS
 62
    7
 10
1677.7946000000002
 20
1169.3471999999999
 11
1672.4913000000001
 21
1174.6505
  0
LINE
  8
_0-0_LAYER001
  6
CONTINUOUS
 62
    7
 10
1697.4400999999998
 20
1196.4473
 11
1699.3031927369977
 21
1189.2809072630021
  0
LINE
  8
_0-0_LAYER001
  6
CONTINUOUS
 62
    7
 10
1699.3031927369977
 20
1189.2809072630021
 11
1694.0779000000002
 21
1194.5062
  0
LINE
  8
_0-0_LAYER001
  6
CONTINUOUS
 62
    7
 10
1733.7649552134449
 20
1195.0812619426761
 11
1732.6475999999998
 21
1195.2092
  0
LINE
  8
_0-0_LAYER001
  6
CONTINUOUS
 62
    7
 10
1732.6475999999998
 20
1195.2092
 11
1740.7183
 21
1198.9718
  0
LINE
  8
_0-0_LAYER001
  6
CONTINUOUS
 62
    7
 10
1739.0358999999999
 20
1196.4273000000001
 11
1750.4465
 21
1171.9544000000001
  0
LINE
  8
_0-0_LAYER001
  6
CONTINUOUS
 62
    7
 10
1739.8865000000001
 20
1200.7621999999999
 11
1739.8865000000001
 21
1300.7621999999997
  0
LINE
  8
_0-0_LAYER001
  6
CONTINUOUS
 62
    7
 10
1699.2761855885535
 20
1189.3847903540659
 11
1591.1626999999999
 21
1376.6428999999998
  0
LINE
  8
_0-0_LAYER001
  6
CONTINUOUS
 62
    7
 10
1591.1626999999999
 20
1376.6428999999998
 11
1357.1627000000001
 21
1376.6428999999998
  0
LINE
  8
_0-0_LAYER001
  6
CONTINUOUS
 62
    7
 10
1432.8507
 20
1338.991
 11
1579.8507
 21
1338.991
  0
LINE
  8
_0-0_LAYER001
  6
CONTINUOUS
 62
    7
 10
1579.8507
 20
1338.991
 11
1677.7946000000002
 21
1169.3471999999999
  0
ARC
  8
_0-0_LAYER001
  6
CONTINUOUS
 62
    7
 10
1727.0143722480175
 20
1310.2801999999999
 40
16.008872441973068
 50
323.51977506310078
 51
36.480224936899297
  0
ARC
  8
_0-0_LAYER001
  6
CONTINUOUS
 62
    7
 10
1540.0637258099214
 20
1114.2523260747523
 40
138.13263099904566
 50
351.4328727500403
 51
19.745461249959778
  0
LINE
  8
_0-0_LAYER001
  6
CONTINUOUS
 62
    7
 10
1267.4129
 20
1036.7253000000001
 11
1307.9129
 21
1036.7253000000001
  0
LINE
  8
_0-0_LAYER001
  6
CONTINUOUS
 62
    7
 10
1307.9129
 20
1036.7253000000001
 11
1357.0997
 21
951.5311999999999
  0
LINE
  8
_0-0_LAYER001
  6
CONTINUOUS
 62
    7
 10
1351.9333313934544
 20
956.69756860654559
 11
1357.0997
 21
951.5311999999999
  0
LINE
  8
_0-0_LAYER001
  6
CONTINUOUS
 62
    7
 10
1357.0997
 20
951.5311999999999
 11
1355.1585
 21
958.77569999999992
  0
LINE
  8
_0-0_LAYER001
  6
CONTINUOUS
 62
    7
 10
1498.5407
 20
988.21419999999989
 11
1504.6968999999999
 21
974.53569999999991
  0
LINE
  8
_0-0_LAYER001
  6
CONTINUOUS
 62
    7
 10
1504.6968999999999
 20
974.53569999999991
 11
1532.0538999999999
 21
986.84809999999993
  0
LINE
  8
_0-0_LAYER001
  6
CONTINUOUS
 62
    7
 10
1532.0538999999999
 20
986.84809999999993
 11
1525.8977
 21
1000.5265999999999
  0
LINE
  8
_0-0_LAYER001
  6
CONTINUOUS
 62
    7
 10
1525.8977
 20
1000.5265999999999
 11
1498.5407
 21
988.21419999999989
  0
LINE
  8
_0-0_LAYER001
  6
CONTINUOUS
 62
    7
 10
1504.6968999999999
 20
974.53569999999991
 11
1525.8977
 21
1000.5265999999999
  0
LINE
  8
_0-0_LAYER001
  6
CONTINUOUS
 62
    7
 10
1283.3323
 20
891.35680000000002
 11
1289.4884999999999
 21
877.67830000000004
  0
LINE
  8
_0-0_LAYER001
  6
CONTINUOUS
 62
    7
 10
1289.4884999999999
 20
877.67830000000004
 11
1316.8454999999999
 21
889.99070000000006
  0
LINE
  8
_0-0_LAYER001
  6
CONTINUOUS
 62
    7
 10
1316.8454999999999
 20
889.99070000000006
 11
1310.6893
 21
903.66920000000005
  0
LINE
  8
_0-0_LAYER001
  6
CONTINUOUS
 62
    7
 10
1310.6893
 20
903.66920000000005
 11
1283.3323
 21
891.35680000000002
  0
LINE
  8
_0-0_LAYER001
  6
CONTINUOUS
 62
    7
 10
1289.4884999999999
 20
877.67830000000004
 11
1310.6893
 21
903.66920000000005
  0
LINE
  8
_0-0_LAYER001
  6
CONTINUOUS
 62
    7
 10
1302.5255999999999
 20
885.13689999999997
 11
1302.5255999999999
 21
877.63689999999997
  0
LINE
  8
_0-0_LAYER001
  6
CONTINUOUS
 62
    7
 10
1302.5255999999999
 20
885.13689999999997
 11
1306.2755999999999
 21
878.6416999999999
  0
LINE
  8
_0-0_LAYER001
  6
CONTINUOUS
 62
    7
 10
1302.5255999999999
 20
885.13689999999997
 11
1385.6677
 21
574.84630000000004
  0
LINE
  8
_0-0_LAYER001
  6
CONTINUOUS
 62
    7
 10
1068.1239
 20
794.49939999999992
 11
1074.2800999999999
 21
780.82089999999994
  0
LINE
  8
_0-0_LAYER001
  6
CONTINUOUS
 62
    7
 10
1074.2800999999999
 20
780.82089999999994
 11
1101.6370999999999
 21
793.13329999999996
  0
LINE
  8
_0-0_LAYER001
  6
CONTINUOUS
 62
    7
 10
1101.6370999999999
 20
793.13329999999996
 11
1095.4809
 21
806.81179999999995
  0
LINE
  8
_0-0_LAYER001
  6
CONTINUOUS
 62
    7
 10
1095.4809
 20
806.81179999999995
 11
1068.1239
 21
794.49939999999992
  0
LINE
  8
_0-0_LAYER001
  6
CONTINUOUS
 62
    7
 10
1074.2800999999999
 20
780.82089999999994
 11
1095.4809
 21
806.81179999999995
  0
LINE
  8
_0-0_LAYER001
  6
CONTINUOUS
 62
    7
 10
1076.7165
 20
777.4846
 11
1761.8254999999999
 21
1085.7836
  0
LINE
  8
_0-0_LAYER001
  6
CONTINUOUS
 62
    7
 10
1742.1926172134149
 20
1072.5623395236289
 11
1078.3585
 21
773.83660000000009
  0
LINE
  8
_0-0_LAYER001
  6
CONTINUOUS
 62
    7
 10
1090.6695
 20
746.47959999999989
 11
1754.5034999999998
 21
1045.2046
  0
LINE
  8
_0-0_LAYER001
  6
CONTINUOUS
 62
    7
 10
1764.8865000000001
 20
951.18460000000005
 11
1127.6025
 21
664.40660000000003
  0
LINE
  8
_0-0_LAYER001
  6
CONTINUOUS
 62
    7
 10
1170.0653
 20
641.09210000000007
 11
1191.2835943935206
 21
593.94686694227948
  0
LINE
  8
_0-0_LAYER001
  6
CONTINUOUS
 62
    7
 10
1190.5859
 20
595.49710000000005
 11
1836.2111
 21
886.06930000000011
  0
LINE
  8
_0-0_LAYER001
  6
CONTINUOUS
 62
    7
 10
1836.908756270891
 20
884.51904978545849
 11
1815.6904
 21
931.66429999999991
  0
LINE
  8
_0-0_LAYER001
  6
CONTINUOUS
 62
    7
 10
1764.8865000000001
 20
951.18460000000005
 11
1764.8865000000001
 21
773.0347999999999
  0
LINE
  8
_0-0_LAYER001
  6
CONTINUOUS
 62
    7
 10
1622.0286999999998
 20
786.93209999999999
 11
1600.482
 21
834.80690000000004
  0
LINE
  8
_0-0_LAYER001
  6
CONTINUOUS
 62
    7
 10
1589.2964999999999
 20
970.86149999999998
 11
1563.3245096694325
 21
860.48164109467757
  0
LINE
  8
_0-0_LAYER001
  6
CONTINUOUS
 62
    7
 10
1554.1325000000002
 20
856.3456000000001
 11
1580.1046000000001
 21
966.72520000000009
  0
LINE
  8
_0-0_LAYER001
  6
CONTINUOUS
 62
    7
 10
1570.9124999999999
 20
962.58879999999999
 11
1544.9405000000002
 21
852.20859999999993
  0
LINE
  8
_0-0_LAYER001
  6
CONTINUOUS
 62
    7
 10
1265.8675000000001
 20
825.31860000000006
 11
1239.8965882185314
 21
714.93897493979773
  0
LINE
  8
_0-0_LAYER001
  6
CONTINUOUS
 62
    7
 10
1230.7045000000001
 20
710.80259999999998
 11
1256.6765
 21
821.18270000000007
  0
LINE
  8
_0-0_LAYER001
  6
CONTINUOUS
 62
    7
 10
1247.4847
 20
817.04639999999995
 11
1221.5125
 21
706.66560000000004
  0
LINE
  8
_0-0_LAYER001
  6
CONTINUOUS
 62
    7
 10
1406.4919943935208
 20
690.80426694227936
 11
1385.2737
 21
737.94949999999994
  0
LINE
  8
_0-0_LAYER001
  6
CONTINUOUS
 62
    7
 10
1377.9847
 20
604.50549999999998
 11
1582.8074000000001
 21
604.50549999999998
  0
TEXT
  8
_0-2_LAYER004
 62
    7
 10
1280.043575631425
 20
1039.3997580255984
 40
15
 41
0.5
 50
0
  1
　
  0
TEXT
  8
_0-2_LAYER004
 62
    7
 10
1049.002769298655
 20
1008.4704323833517
 40
20
 41
1
 50
20.060506999999994
  1
235
  0
TEXT
  8
_0-2_LAYER004
 62
    7
 10
1477.2124251328225
 20
1254.6066912486606
 40
20
 41
1
 50
20.06050700000004
  1
305
  0
TEXT
  8
_0-2_LAYER004
 62
    7
 10
1667.7151460354241
 20
1377.6748206813147
 40
20
 41
1
 50
0
  1
90
  0
TEXT
  8
_0-2_LAYER004
 62
    7
 10
1821.1288416295552
 20
1295.0674461306292
 40
20
 41
1
 50
90
  1
20
  0
TEXT
  8
_0-2_LAYER004
 62
    7
 10
1824.5005712030525
 20
1236.0621785944249
 40
20
 41
1
 50
90
  1
100
  0
TEXT
  8
_0-2_LAYER004
 62
    7
 10
1950.9404302092044
 20
1182.1145054184669
 40
20
 41
1
 50
90
  1
200
  0
TEXT
  8
_0-2_LAYER004
 62
    7
 10
1269.8510563627333
 20
1143.339615323247
 40
20
 41
1
 50
20.060506999999639
  1
235
  0
TEXT
  8
_0-2_LAYER004
 62
    7
 10
1701.4179459424809
 20
840.02746240486147
 40
20
 41
1
 50
20.060506999999422
  1
236
  0
TEXT
  8
_0-2_LAYER004
 62
    7
 10
1272.155893001539
 20
652.34707919770187
 40
20
 41
1
 50
20.060507000000211
  1
236
  0
TEXT
  8
_0-2_LAYER004
 62
    7
 10
1494.9045831055375
 20
751.05786898139843
 40
20
 41
1
 50
20.060506999999422
  1
236
  0
TEXT
  8
_0-2_LAYER004
 62
    7
 10
1256.5699788251657
 20
1379.6897407617798
 40
20
 41
1
 50
0
  1
雨押水切カラー鋼板0.35ｍｍ以上
  0
TEXT
  8
_0-2_LAYER004
 62
    7
 10
1556.5988267203477
 20
1451.125180736823
 40
20
 41
1
 50
0
  1
シーリング
  0
TEXT
  8
_0-2_LAYER004
 62
    7
 10
1429.3138609466339
 20
1342.0237815022115
 40
20
 41
1
 50
0
  1
笠木：15x105
  0
TEXT
  8
_0-2_LAYER004
 62
    7
 10
1244.5172739669047
 20
1042.8692611673662
 40
20
 41
1
 50
0
  1
桟　瓦
  0
LINE
  8
_0-2_LAYER004
  6
CONTINUOUS
 62
    7
 10
1357.1627000000001
 20
1376.6428999999998
 11
1255.5458120768312
 21
1376.6428999999998
  0
LINE
  8
_0-2_LAYER004
  6
CONTINUOUS
 62
    7
 10
1587.1426000000001
 20
1448.3924999999999
 11
1561.9601602066566
 21
1448.3924999999999
  0
LINE
  8
_0-2_LAYER004
  6
CONTINUOUS
 62
    7
 10
1267.4129
 20
1036.7253000000001
 11
1242.6592273423992
 21
1036.7253000000001
  0
TEXT
  8
_0-2_LAYER004
 62
    7
 10
1813.9644839022139
 20
1005.4668916867423
 40
20
 41
1
 50
0
  1
葺き土
  0
TEXT
  8
_0-2_LAYER004
 62
    7
 10
1799.6460564195122
 20
1104.2640413173872
 40
20
 41
1
 50
0
  1
下地：40x30
  0
TEXT
  8
_0-2_LAYER004
 62
    7
 10
1872.6700365812928
 20
1165.8332794930061
 40
20
 41
1
 50
90
  1
水切り立上がり寸法
  0
TEXT
  8
_0-2_LAYER004
 62
    7
 10
1998.6721984290716
 20
1074.1953436037127
 40
20
 41
1
 50
90
  1
下葺き材立上がり寸法
  0
TEXT
  8
_0-2_LAYER004
 62
    7
 10
1385.4041272570935
 20
613.31040412725702
 40
20
 41
1
 50
0
  1
瓦桟：15x30以上
  0
LINE
  8
_0-0_LAYER001
  6
CONTINUOUS
 62
    2
 10
1385.6677
 20
574.84630000000004
 11
1590.9390304142312
 21
574.84630000000004
  0
LINE
  8
_0-2_LAYER004
  6
CONTINUOUS
 62
    7
 10
1385.6677
 20
574.84630000000004
 11
1596.6505897599029
 21
574.84630000000004
  0
TEXT
  8
_0-2_LAYER004
 62
    7
 10
1391.6805501667695
 20
578.96608363420467
 40
20
 41
1
 50
0
  1
下葺材：ルーフィング
  0
ENDSEC
  0
EOF
