  0
SECTION
  2
HEADER
  9
$ACADVER
  1
AC1009
  9
$INSBASE
 10
0
 20
0
 30
0
  9
$EXTMIN
 10
0
 20
0
  9
$EXTMAX
 10
2970
 20
2100
  9
$LIMMIN
 10
0
 20
0
  9
$LIMMAX
 10
2970
 20
2100
  9
$LTSCALE
 40
10
  0
ENDSEC
  0
SECTION
  2
TABLES
  0
TABLE
  2
LTYPE
 70
     9
  0
LTYPE
  2
CONTINUOUS
 70
    64
  3
実線
 72
    65
 73
     0
 40
0.0
  0
LTYPE
  2
DASHED1
 70
    64
  3
--  --  --  --  --  --  --  --  
 72
    65
 73
     2
 40
2.5
 49
1.25
 49
-1.25
  0
LTYPE
  2
DASHED2
 70
    64
  3
----    ----    ----    ----    
 72
    65
 73
     2
 40
5.0
 49
2.5
 49
-2.5
  0
LTYPE
  2
DASHED3
 70
    64
  3
------  ------  ------  ------  
 72
    65
 73
     2
 40
5.0
 49
3.75
 49
-1.25
  0
LTYPE
  2
CENTER1
 70
    64
  3
----- - ----- - ----- - ----- - 
 72
    65
 73
     4
 40
10.0
 49
6.25
 49
-1.25
 49
1.25
 49
-1.25
  0
LTYPE
  2
CENTER2
 70
    64
  3
----------  --  ----------  --  
 72
    65
 73
     4
 40
20.0
 49
12.5
 49
-2.5
 49
2.5
 49
-2.5
  0
LTYPE
  2
PHANTOM1
 70
    64
  3
--- - - --- - - --- - - --- - - 
 72
    65
 73
     6
 40
10.0
 49
3.25
 49
-1.25
 49
1.25
 49
-1.25
 49
1.25
 49
-1.25
  0
LTYPE
  2
PHANTOM2
 70
    64
  3
--------  -  -  --------  -  -  
 72
    65
 73
     6
 40
20.0
 49
10.0
 49
-2.5
 49
1.25
 49
-2.5
 49
1.25
 49
-2.5
  0
LTYPE
  2
DOT
 70
    64
  3
-   -   -   -   -   -   -   -   
 72
    65
 73
     2
 40
2.5
 49
0.625
 49
-1.875
  0
LTYPE
  2
DUMMY
 70
    64
  3
ダミー
 72
    65
 73
     0
 40
0.0
  0
LTYPE
  2
RAND1
 70
    64
  3
ランダム線1
 72
    65
 73
     4
 40
10.0
 49
1.0
 49
-2.0
 49
3.0
 49
-4.0
  0
LTYPE
  2
RAND2
 70
    64
  3
ランダム線2
 72
    65
 73
     4
 40
14.0
 49
2.0
 49
-3.0
 49
4.0
 49
-5.0
  0
LTYPE
  2
RAND3
 70
    64
  3
ランダム線3
 72
    65
 73
     4
 40
18.0
 49
3.0
 49
-4.0
 49
5.0
 49
-6.0
  0
LTYPE
  2
RAND4
 70
    64
  3
ランダム線4
 72
    65
 73
     4
 40
22.0
 49
4.0
 49
-5.0
 49
6.0
 49
-7.0
  0
LTYPE
  2
RAND5
 70
    64
  3
ランダム線5
 72
    65
 73
     4
 40
26.0
 49
5.0
 49
-6.0
 49
7.0
 49
-8.0
  0
LTYPE
  2
LONG1
 70
    64
  3
----------  --  ----------  --  
 72
    65
 73
     4
 40
40.0
 49
32.5
 49
-2.5
 49
2.5
 49
-2.5
  0
LTYPE
  2
LONG2
 70
    64
  3
--------  -  -  --------  -  -  
 72
    65
 73
     6
 40
40.0
 49
30.0
 49
-2.5
 49
1.25
 49
-2.5
 49
1.25
 49
-2.5
  0
LTYPE
  2
LONG3
 70
    64
  3
+++++++++++++++..+++++++++++++++
 72
    65
 73
     2
 40
40.0
 49
37.5
 49
-2.5
  0
LTYPE
  2
LONG4
 70
    64
  3
+++++++++++++++..+++++++++++++++
 72
    65
 73
     2
 40
80.0
 49
75.0
 49
-5.0
  0
LTYPE
  2
LONG5
 70
    64
  3
----------  --  ----------  --  
 72
    65
 73
     4
 40
60.0
 49
37.5
 49
-7.5
 49
7.5
 49
-7.5
  0
LTYPE
  2
dashed
 70
   64
  3
-------   -------------   ------
 72
   65
 73
    2
 40
7.5
 49
6
 49
-1.5
  0
LTYPE
  2
dashed_spaced
 70
   64
  3
----        --------        ----
 72
   65
 73
    2
 40
12
 49
6
 49
-6
  0
LTYPE
  2
long_dashed_dotted
 70
   64
  3
------------- --- --------------
 72
   65
 73
    4
 40
15.25
 49
12
 49
-1.5
 49
0.25
 49
-1.5
  0
LTYPE
  2
long_dashed_double-dotted
 70
   64
  3
----------- --- --- ------------
 72
   65
 73
    6
 40
17
 49
12
 49
-1.5
 49
0.25
 49
-1.5
 49
0.25
 49
-1.5
  0
LTYPE
  2
long_dashed_triplicate-dotted
 70
   64
  3
--------- --- --- --- ----------
 72
   65
 73
    8
 40
18.75
 49
12
 49
-1.5
 49
0.25
 49
-1.5
 49
0.25
 49
-1.5
 49
0.25
 49
-1.5
  0
LTYPE
  2
dotted
 70
   64
  3
   -       -       -       -    
 72
   65
 73
    2
 40
1.75
 49
0.25
 49
-1.5
  0
LTYPE
  2
chain
 70
   64
  3
-------------- -- --------------
 72
   65
 73
    4
 40
18.5
 49
12
 49
-1.5
 49
3.5
 49
-1.5
  0
LTYPE
  2
chain_double_dash
 70
   64
  3
------------ -- -- -------------
 72
   65
 73
    6
 40
23.5
 49
12
 49
-1.5
 49
3.5
 49
-1.5
 49
3.5
 49
-1.5
  0
LTYPE
  2
dashed_dotted
 70
   64
  3
-----------     -     ----------
 72
   65
 73
    4
 40
9.25
 49
6
 49
-1.5
 49
0.25
 49
-1.5
  0
LTYPE
  2
double-dashed_dotted
 70
   64
  3
------   -----------   -   -----
 72
   65
 73
    6
 40
16.75
 49
6
 49
-1.5
 49
6
 49
-1.5
 49
0.25
 49
-1.5
  0
LTYPE
  2
dashed_double-dotted
 70
   64
  3
---------    -    -    ---------
 72
   65
 73
    6
 40
11
 49
6
 49
-1.5
 49
0.25
 49
-1.5
 49
0.25
 49
-1.5
  0
LTYPE
  2
double-dashed_double-dotted
 70
   64
  3
-----   ---------   -   -   ----
 72
   65
 73
    8
 40
18.5
 49
6
 49
-1.5
 49
6
 49
-1.5
 49
0.25
 49
-1.5
 49
0.25
 49
-1.5
  0
LTYPE
  2
dashed_triplicate-dotted
 70
   64
  3
-------    -    -    -    ------
 72
   65
 73
    8
 40
12.75
 49
6
 49
-1.5
 49
0.25
 49
-1.5
 49
0.25
 49
-1.5
 49
0.25
 49
-1.5
  0
LTYPE
  2
double-dashed_triplicate-dotted
 70
   64
  3
-----  ---------  -  -  -  -----
 72
   65
 73
   10
 40
20.25
 49
6
 49
-1.5
 49
6
 49
-1.5
 49
0.25
 49
-1.5
 49
0.25
 49
-1.5
 49
0.25
 49
-1.5
  0
LTYPE
  2
undefined
 70
   64
  3
--------------------------------
 72
   65
 73
    0
 40
0
  0
ENDTAB
  0
TABLE
  2
STYLE
  5
3
100
AcDbSymbolTable
 70
     1
  0
STYLE
  5
10
100
AcDbSymbolTableRecord
100
AcDbTextStyleTableRecord
  2
STANDARD
 70
     0
 40
0.0
 41
1.0
 50
0.0
 71
     0
 42
0.2
  3
txt
  4
bigfont.shx
  0
STYLE
  5
26
100
AcDbSymbolTableRecord
100
AcDbTextStyleTableRecord
  2
TATEGAKI
 70
    68
 40
0.0
 41
1.0
 50
0.0
 71
     0
 42
1.0
  3
txt
  4
bigfont.shx
  0
ENDTAB
  0
TABLE
  2
LAYER
 70
    7
  0
LAYER
  2
_0-0_LAYER001
 70
   64
 62
    7
  6
CONTINUOUS
  0
LAYER
  2
_0-1_LAYER003
 70
   64
 62
    7
  6
CONTINUOUS
  0
LAYER
  2
_0-2_LAYER004
 70
   64
 62
    7
  6
CONTINUOUS
  0
LAYER
  2
_0-3_LAYER005
 70
   64
 62
    7
  6
CONTINUOUS
  0
LAYER
  2
_0-4_LAYER006
 70
   64
 62
    7
  6
CONTINUOUS
  0
LAYER
  2
_0-5_LAYER007
 70
   64
 62
    7
  6
CONTINUOUS
  0
LAYER
  2
ADD_LINE
 70
   64
 62
    7
  6
CONTINUOUS
  0
ENDTAB
  0
ENDSEC
  0
SECTION
  2
BLOCKS
  0
ENDSEC
  0
SECTION
  2
ENTITIES
  0
LINE
  8
_0-2_LAYER004
  6
CONTINUOUS
 62
    2
 10
833.03490000000011
 20
1022.7251000000001
 11
1714.7689
 21
1022.7251000000001
  0
LINE
  8
_0-2_LAYER004
  6
CONTINUOUS
 62
    2
 10
1847.0198999999998
 20
1140.1732999999999
 11
1849.7219
 21
1125.4193
  0
LINE
  8
_0-0_LAYER001
  6
CONTINUOUS
 62
    2
 10
1861.9549000000002
 20
973.58909999999992
 11
833.03490000000011
 21
973.58909999999992
  0
LINE
  8
_0-0_LAYER001
  6
CONTINUOUS
 62
    1
 10
1853.6950000000002
 20
973.58909999999992
 11
1861.9549000000002
 21
981.84889999999996
  0
LINE
  8
_0-0_LAYER001
  6
CONTINUOUS
 62
    1
 10
1839.5529000000001
 20
973.58909999999992
 11
1861.9549000000002
 21
995.99099999999999
  0
LINE
  8
_0-0_LAYER001
  6
CONTINUOUS
 62
    1
 10
1825.4108000000001
 20
973.58909999999992
 11
1861.9549000000002
 21
1010.1332
  0
LINE
  8
_0-0_LAYER001
  6
CONTINUOUS
 62
    1
 10
1811.2685999999999
 20
973.58909999999992
 11
1851.2685999999999
 21
1013.5890999999999
  0
LINE
  8
_0-0_LAYER001
  6
CONTINUOUS
 62
    1
 10
1797.1264999999999
 20
973.58909999999992
 11
1837.1264999999999
 21
1013.5890999999999
  0
LINE
  8
_0-0_LAYER001
  6
CONTINUOUS
 62
    1
 10
1782.9843999999998
 20
973.58909999999992
 11
1822.9843999999998
 21
1013.5890999999999
  0
LINE
  8
_0-0_LAYER001
  6
CONTINUOUS
 62
    1
 10
1768.8422
 20
973.58909999999992
 11
1808.8422
 21
1013.5890999999999
  0
LINE
  8
_0-0_LAYER001
  6
CONTINUOUS
 62
    1
 10
1754.7001
 20
973.58909999999992
 11
1794.7001
 21
1013.5890999999999
  0
LINE
  8
_0-0_LAYER001
  6
CONTINUOUS
 62
    1
 10
1740.558
 20
973.58909999999992
 11
1780.558
 21
1013.5890999999999
  0
LINE
  8
_0-0_LAYER001
  6
CONTINUOUS
 62
    1
 10
1726.4158000000002
 20
973.58909999999992
 11
1766.4158000000002
 21
1013.5890999999999
  0
LINE
  8
_0-0_LAYER001
  6
CONTINUOUS
 62
    1
 10
1712.2737000000002
 20
973.58909999999992
 11
1752.2737000000002
 21
1013.5890999999999
  0
LINE
  8
_0-0_LAYER001
  6
CONTINUOUS
 62
    1
 10
1698.1315
 20
973.58909999999992
 11
1738.1315
 21
1013.5890999999999
  0
LINE
  8
_0-0_LAYER001
  6
CONTINUOUS
 62
    1
 10
1683.9893999999999
 20
973.58909999999992
 11
1723.9893999999999
 21
1013.5890999999999
  0
LINE
  8
_0-0_LAYER001
  6
CONTINUOUS
 62
    1
 10
1669.8472999999999
 20
973.58909999999992
 11
1709.8472999999999
 21
1013.5890999999999
  0
LINE
  8
_0-0_LAYER001
  6
CONTINUOUS
 62
    1
 10
1655.7051000000001
 20
973.58909999999992
 11
1695.7051000000001
 21
1013.5890999999999
  0
LINE
  8
_0-0_LAYER001
  6
CONTINUOUS
 62
    1
 10
1641.5630000000001
 20
973.58909999999992
 11
1681.5630000000001
 21
1013.5890999999999
  0
LINE
  8
_0-0_LAYER001
  6
CONTINUOUS
 62
    1
 10
1627.4209000000001
 20
973.58909999999992
 11
1667.4209000000001
 21
1013.5890999999999
  0
LINE
  8
_0-0_LAYER001
  6
CONTINUOUS
 62
    1
 10
1613.2786999999998
 20
973.58909999999992
 11
1653.2786999999998
 21
1013.5890999999999
  0
LINE
  8
_0-0_LAYER001
  6
CONTINUOUS
 62
    1
 10
1599.1365999999998
 20
973.58909999999992
 11
1639.1365999999998
 21
1013.5890999999999
  0
LINE
  8
_0-0_LAYER001
  6
CONTINUOUS
 62
    1
 10
1584.9944999999998
 20
973.58909999999992
 11
1624.9944999999998
 21
1013.5890999999999
  0
LINE
  8
_0-0_LAYER001
  6
CONTINUOUS
 62
    1
 10
1570.8523
 20
973.58909999999992
 11
1610.8523
 21
1013.5890999999999
  0
LINE
  8
_0-0_LAYER001
  6
CONTINUOUS
 62
    1
 10
1556.7102
 20
973.58909999999992
 11
1596.7102
 21
1013.5890999999999
  0
LINE
  8
_0-0_LAYER001
  6
CONTINUOUS
 62
    1
 10
1542.5681
 20
973.58909999999992
 11
1582.5681
 21
1013.5890999999999
  0
LINE
  8
_0-0_LAYER001
  6
CONTINUOUS
 62
    1
 10
1528.4259000000002
 20
973.58909999999992
 11
1568.4259000000002
 21
1013.5890999999999
  0
LINE
  8
_0-0_LAYER001
  6
CONTINUOUS
 62
    1
 10
1514.2838000000002
 20
973.58909999999992
 11
1554.2838000000002
 21
1013.5890999999999
  0
LINE
  8
_0-0_LAYER001
  6
CONTINUOUS
 62
    1
 10
1500.1415999999999
 20
973.58909999999992
 11
1540.1415999999999
 21
1013.5890999999999
  0
LINE
  8
_0-0_LAYER001
  6
CONTINUOUS
 62
    1
 10
1485.9994999999999
 20
973.58909999999992
 11
1525.9994999999999
 21
1013.5890999999999
  0
LINE
  8
_0-0_LAYER001
  6
CONTINUOUS
 62
    1
 10
1471.8573999999999
 20
973.58909999999992
 11
1511.8573999999999
 21
1013.5890999999999
  0
LINE
  8
_0-0_LAYER001
  6
CONTINUOUS
 62
    1
 10
1457.7152000000001
 20
973.58909999999992
 11
1497.7152000000001
 21
1013.5890999999999
  0
LINE
  8
_0-0_LAYER001
  6
CONTINUOUS
 62
    1
 10
1443.5731000000001
 20
973.58909999999992
 11
1483.5731000000001
 21
1013.5890999999999
  0
LINE
  8
_0-0_LAYER001
  6
CONTINUOUS
 62
    1
 10
1429.431
 20
973.58909999999992
 11
1469.431
 21
1013.5890999999999
  0
LINE
  8
_0-0_LAYER001
  6
CONTINUOUS
 62
    1
 10
1415.2888000000003
 20
973.58909999999992
 11
1455.2887999999998
 21
1013.5890999999999
  0
LINE
  8
_0-0_LAYER001
  6
CONTINUOUS
 62
    1
 10
1401.1466999999998
 20
973.58909999999992
 11
1441.1466999999998
 21
1013.5890999999999
  0
LINE
  8
_0-0_LAYER001
  6
CONTINUOUS
 62
    1
 10
1387.0046
 20
973.58909999999992
 11
1427.0046
 21
1013.5890999999999
  0
LINE
  8
_0-0_LAYER001
  6
CONTINUOUS
 62
    1
 10
1372.8624
 20
973.58909999999992
 11
1412.8624
 21
1013.5890999999999
  0
LINE
  8
_0-0_LAYER001
  6
CONTINUOUS
 62
    1
 10
1358.7203
 20
973.58909999999992
 11
1398.7203
 21
1013.5890999999999
  0
LINE
  8
_0-0_LAYER001
  6
CONTINUOUS
 62
    1
 10
1344.5781999999999
 20
973.58909999999992
 11
1384.5781999999999
 21
1013.5890999999999
  0
LINE
  8
_0-0_LAYER001
  6
CONTINUOUS
 62
    1
 10
1330.4359999999999
 20
973.58909999999992
 11
1370.4359999999999
 21
1013.5890999999999
  0
LINE
  8
_0-0_LAYER001
  6
CONTINUOUS
 62
    1
 10
1316.2939000000001
 20
973.58909999999992
 11
1356.2939000000001
 21
1013.5890999999999
  0
LINE
  8
_0-0_LAYER001
  6
CONTINUOUS
 62
    1
 10
1302.1516999999999
 20
973.58909999999992
 11
1342.1516999999999
 21
1013.5890999999999
  0
LINE
  8
_0-0_LAYER001
  6
CONTINUOUS
 62
    1
 10
1288.0096000000001
 20
973.58909999999992
 11
1328.0096000000001
 21
1013.5890999999999
  0
LINE
  8
_0-0_LAYER001
  6
CONTINUOUS
 62
    1
 10
1273.8675000000001
 20
973.58909999999992
 11
1313.8675000000001
 21
1013.5890999999999
  0
LINE
  8
_0-0_LAYER001
  6
CONTINUOUS
 62
    1
 10
1259.7253000000001
 20
973.58909999999992
 11
1299.7253000000001
 21
1013.5890999999999
  0
LINE
  8
_0-0_LAYER001
  6
CONTINUOUS
 62
    1
 10
1245.5832
 20
973.58909999999992
 11
1285.5832
 21
1013.5890999999999
  0
LINE
  8
_0-0_LAYER001
  6
CONTINUOUS
 62
    1
 10
1231.4411
 20
973.58909999999992
 11
1271.4411
 21
1013.5890999999999
  0
LINE
  8
_0-0_LAYER001
  6
CONTINUOUS
 62
    1
 10
1217.2989
 20
973.58909999999992
 11
1257.2989
 21
1013.5890999999999
  0
LINE
  8
_0-0_LAYER001
  6
CONTINUOUS
 62
    1
 10
1203.1568
 20
973.58909999999992
 11
1243.1568
 21
1013.5890999999999
  0
LINE
  8
_0-0_LAYER001
  6
CONTINUOUS
 62
    1
 10
1189.0146999999999
 20
973.58909999999992
 11
1229.0146999999999
 21
1013.5890999999999
  0
LINE
  8
_0-0_LAYER001
  6
CONTINUOUS
 62
    1
 10
1174.8724999999999
 20
973.58909999999992
 11
1214.8724999999999
 21
1013.5890999999999
  0
LINE
  8
_0-0_LAYER001
  6
CONTINUOUS
 62
    1
 10
1160.7303999999999
 20
973.58909999999992
 11
1200.7303999999999
 21
1013.5890999999999
  0
LINE
  8
_0-0_LAYER001
  6
CONTINUOUS
 62
    1
 10
1146.5882999999999
 20
973.58909999999992
 11
1186.5882999999999
 21
1013.5890999999999
  0
LINE
  8
_0-0_LAYER001
  6
CONTINUOUS
 62
    1
 10
1132.4460999999999
 20
973.58909999999992
 11
1172.4460999999999
 21
1013.5890999999999
  0
LINE
  8
_0-0_LAYER001
  6
CONTINUOUS
 62
    1
 10
1118.3040000000001
 20
973.58909999999992
 11
1158.3040000000001
 21
1013.5890999999999
  0
LINE
  8
_0-0_LAYER001
  6
CONTINUOUS
 62
    1
 10
1104.1618000000001
 20
973.58909999999992
 11
1144.1618000000001
 21
1013.5890999999999
  0
LINE
  8
_0-0_LAYER001
  6
CONTINUOUS
 62
    1
 10
1090.0197000000001
 20
973.58909999999992
 11
1130.0197000000001
 21
1013.5890999999999
  0
LINE
  8
_0-0_LAYER001
  6
CONTINUOUS
 62
    1
 10
1075.8776
 20
973.58909999999992
 11
1115.8776
 21
1013.5890999999999
  0
LINE
  8
_0-0_LAYER001
  6
CONTINUOUS
 62
    1
 10
1061.7354
 20
973.58909999999992
 11
1101.7354
 21
1013.5890999999999
  0
LINE
  8
_0-0_LAYER001
  6
CONTINUOUS
 62
    1
 10
1047.5933
 20
973.58909999999992
 11
1087.5933
 21
1013.5890999999999
  0
LINE
  8
_0-0_LAYER001
  6
CONTINUOUS
 62
    1
 10
1033.4512
 20
973.58909999999992
 11
1073.4512
 21
1013.5890999999999
  0
LINE
  8
_0-0_LAYER001
  6
CONTINUOUS
 62
    1
 10
1019.309
 20
973.58909999999992
 11
1059.309
 21
1013.5890999999999
  0
LINE
  8
_0-0_LAYER001
  6
CONTINUOUS
 62
    1
 10
1005.1668999999999
 20
973.58909999999992
 11
1045.1668999999999
 21
1013.5890999999999
  0
LINE
  8
_0-0_LAYER001
  6
CONTINUOUS
 62
    1
 10
991.02479999999991
 20
973.58909999999992
 11
1031.0247999999999
 21
1013.5890999999999
  0
LINE
  8
_0-0_LAYER001
  6
CONTINUOUS
 62
    1
 10
976.88259999999991
 20
973.58909999999992
 11
1016.8825999999999
 21
1013.5890999999999
  0
LINE
  8
_0-0_LAYER001
  6
CONTINUOUS
 62
    1
 10
962.74050000000011
 20
973.58909999999992
 11
1002.7405000000001
 21
1013.5890999999999
  0
LINE
  8
_0-0_LAYER001
  6
CONTINUOUS
 62
    1
 10
948.59840000000008
 20
973.58909999999992
 11
988.59840000000008
 21
1013.5890999999999
  0
LINE
  8
_0-0_LAYER001
  6
CONTINUOUS
 62
    1
 10
934.45620000000008
 20
973.58909999999992
 11
974.45620000000008
 21
1013.5890999999999
  0
LINE
  8
_0-0_LAYER001
  6
CONTINUOUS
 62
    1
 10
920.31410000000005
 20
973.58909999999992
 11
960.31410000000005
 21
1013.5890999999999
  0
LINE
  8
_0-0_LAYER001
  6
CONTINUOUS
 62
    1
 10
906.17190000000005
 20
973.58909999999992
 11
946.17190000000005
 21
1013.5890999999999
  0
LINE
  8
_0-0_LAYER001
  6
CONTINUOUS
 62
    1
 10
892.02980000000002
 20
973.58909999999992
 11
932.02980000000002
 21
1013.5890999999999
  0
LINE
  8
_0-0_LAYER001
  6
CONTINUOUS
 62
    1
 10
877.8877
 20
973.58909999999992
 11
917.8877
 21
1013.5890999999999
  0
LINE
  8
_0-0_LAYER001
  6
CONTINUOUS
 62
    1
 10
863.74549999999999
 20
973.58909999999992
 11
903.74549999999999
 21
1013.5890999999999
  0
LINE
  8
_0-0_LAYER001
  6
CONTINUOUS
 62
    1
 10
849.60339999999997
 20
973.58909999999992
 11
889.60339999999997
 21
1013.5890999999999
  0
LINE
  8
_0-0_LAYER001
  6
CONTINUOUS
 62
    1
 10
835.46129999999994
 20
973.58909999999992
 11
875.46129999999994
 21
1013.5890999999999
  0
LINE
  8
_0-0_LAYER001
  6
CONTINUOUS
 62
    1
 10
833.03490000000011
 20
985.30479999999989
 11
861.31909999999993
 21
1013.5890999999999
  0
LINE
  8
_0-0_LAYER001
  6
CONTINUOUS
 62
    1
 10
833.03490000000011
 20
999.44689999999991
 11
847.17699999999991
 21
1013.5890999999999
  0
LINE
  8
_0-0_LAYER001
  6
CONTINUOUS
 62
    1
 10
833.03490000000011
 20
985.30479999999989
 11
844.75060000000008
 21
973.58909999999992
  0
LINE
  8
_0-0_LAYER001
  6
CONTINUOUS
 62
    1
 10
833.03490000000011
 20
999.44689999999991
 11
858.8927000000001
 21
973.58909999999992
  0
LINE
  8
_0-0_LAYER001
  6
CONTINUOUS
 62
    1
 10
833.03490000000011
 20
1013.5890999999999
 11
873.03490000000011
 21
973.58909999999992
  0
LINE
  8
_0-0_LAYER001
  6
CONTINUOUS
 62
    1
 10
847.17699999999991
 20
1013.5890999999999
 11
887.17699999999991
 21
973.58909999999992
  0
LINE
  8
_0-0_LAYER001
  6
CONTINUOUS
 62
    1
 10
861.31909999999993
 20
1013.5890999999999
 11
901.31909999999993
 21
973.58909999999992
  0
LINE
  8
_0-0_LAYER001
  6
CONTINUOUS
 62
    1
 10
875.46129999999994
 20
1013.5890999999999
 11
915.46129999999994
 21
973.58909999999992
  0
LINE
  8
_0-0_LAYER001
  6
CONTINUOUS
 62
    1
 10
889.60339999999997
 20
1013.5890999999999
 11
929.60339999999997
 21
973.58909999999992
  0
LINE
  8
_0-0_LAYER001
  6
CONTINUOUS
 62
    1
 10
903.74549999999999
 20
1013.5890999999999
 11
943.74549999999999
 21
973.58909999999992
  0
LINE
  8
_0-0_LAYER001
  6
CONTINUOUS
 62
    1
 10
917.8877
 20
1013.5890999999999
 11
957.8877
 21
973.58909999999992
  0
LINE
  8
_0-0_LAYER001
  6
CONTINUOUS
 62
    1
 10
932.02980000000002
 20
1013.5890999999999
 11
972.02980000000002
 21
973.58909999999992
  0
LINE
  8
_0-0_LAYER001
  6
CONTINUOUS
 62
    1
 10
946.17190000000005
 20
1013.5890999999999
 11
986.17190000000005
 21
973.58909999999992
  0
LINE
  8
_0-0_LAYER001
  6
CONTINUOUS
 62
    1
 10
960.31410000000005
 20
1013.5890999999999
 11
1000.3141000000001
 21
973.58909999999992
  0
LINE
  8
_0-0_LAYER001
  6
CONTINUOUS
 62
    1
 10
974.45620000000008
 20
1013.5890999999999
 11
1014.4562000000001
 21
973.58909999999992
  0
LINE
  8
_0-0_LAYER001
  6
CONTINUOUS
 62
    1
 10
988.59840000000008
 20
1013.5890999999999
 11
1028.5984000000001
 21
973.58909999999992
  0
LINE
  8
_0-0_LAYER001
  6
CONTINUOUS
 62
    1
 10
1002.7405000000001
 20
1013.5890999999999
 11
1042.7405000000001
 21
973.58909999999992
  0
LINE
  8
_0-0_LAYER001
  6
CONTINUOUS
 62
    1
 10
1016.8825999999999
 20
1013.5890999999999
 11
1056.8825999999999
 21
973.58909999999992
  0
LINE
  8
_0-0_LAYER001
  6
CONTINUOUS
 62
    1
 10
1031.0247999999999
 20
1013.5890999999999
 11
1071.0247999999999
 21
973.58909999999992
  0
LINE
  8
_0-0_LAYER001
  6
CONTINUOUS
 62
    1
 10
1045.1668999999999
 20
1013.5890999999999
 11
1085.1668999999999
 21
973.58909999999992
  0
LINE
  8
_0-0_LAYER001
  6
CONTINUOUS
 62
    1
 10
1059.309
 20
1013.5890999999999
 11
1099.309
 21
973.58909999999992
  0
LINE
  8
_0-0_LAYER001
  6
CONTINUOUS
 62
    1
 10
1073.4512
 20
1013.5890999999999
 11
1113.4512
 21
973.58909999999992
  0
LINE
  8
_0-0_LAYER001
  6
CONTINUOUS
 62
    1
 10
1087.5933
 20
1013.5890999999999
 11
1127.5933
 21
973.58909999999992
  0
LINE
  8
_0-0_LAYER001
  6
CONTINUOUS
 62
    1
 10
1101.7354
 20
1013.5890999999999
 11
1141.7354
 21
973.58909999999992
  0
LINE
  8
_0-0_LAYER001
  6
CONTINUOUS
 62
    1
 10
1115.8776
 20
1013.5890999999999
 11
1155.8776
 21
973.58909999999992
  0
LINE
  8
_0-0_LAYER001
  6
CONTINUOUS
 62
    1
 10
1130.0197000000001
 20
1013.5890999999999
 11
1170.0197000000001
 21
973.58909999999992
  0
LINE
  8
_0-0_LAYER001
  6
CONTINUOUS
 62
    1
 10
1144.1618000000001
 20
1013.5890999999999
 11
1184.1618000000001
 21
973.58909999999992
  0
LINE
  8
_0-0_LAYER001
  6
CONTINUOUS
 62
    1
 10
1158.3040000000001
 20
1013.5890999999999
 11
1198.3040000000001
 21
973.58909999999992
  0
LINE
  8
_0-0_LAYER001
  6
CONTINUOUS
 62
    1
 10
1172.4460999999999
 20
1013.5890999999999
 11
1212.4460999999999
 21
973.58909999999992
  0
LINE
  8
_0-0_LAYER001
  6
CONTINUOUS
 62
    1
 10
1186.5882999999999
 20
1013.5890999999999
 11
1226.5882999999999
 21
973.58909999999992
  0
LINE
  8
_0-0_LAYER001
  6
CONTINUOUS
 62
    1
 10
1200.7303999999999
 20
1013.5890999999999
 11
1240.7303999999999
 21
973.58909999999992
  0
LINE
  8
_0-0_LAYER001
  6
CONTINUOUS
 62
    1
 10
1214.8724999999999
 20
1013.5890999999999
 11
1254.8724999999999
 21
973.58909999999992
  0
LINE
  8
_0-0_LAYER001
  6
CONTINUOUS
 62
    1
 10
1229.0146999999999
 20
1013.5890999999999
 11
1269.0146999999999
 21
973.58909999999992
  0
LINE
  8
_0-0_LAYER001
  6
CONTINUOUS
 62
    1
 10
1243.1568
 20
1013.5890999999999
 11
1283.1567999999997
 21
973.58909999999992
  0
LINE
  8
_0-0_LAYER001
  6
CONTINUOUS
 62
    1
 10
1257.2989
 20
1013.5890999999999
 11
1297.2989000000002
 21
973.58909999999992
  0
LINE
  8
_0-0_LAYER001
  6
CONTINUOUS
 62
    1
 10
1271.4411
 20
1013.5890999999999
 11
1311.4411
 21
973.58909999999992
  0
LINE
  8
_0-0_LAYER001
  6
CONTINUOUS
 62
    1
 10
1285.5832
 20
1013.5890999999999
 11
1325.5832
 21
973.58909999999992
  0
LINE
  8
_0-0_LAYER001
  6
CONTINUOUS
 62
    1
 10
1299.7253000000001
 20
1013.5890999999999
 11
1339.7253000000001
 21
973.58909999999992
  0
LINE
  8
_0-0_LAYER001
  6
CONTINUOUS
 62
    1
 10
1313.8675000000001
 20
1013.5890999999999
 11
1353.8675000000001
 21
973.58909999999992
  0
LINE
  8
_0-0_LAYER001
  6
CONTINUOUS
 62
    1
 10
1328.0096000000001
 20
1013.5890999999999
 11
1368.0096000000001
 21
973.58909999999992
  0
LINE
  8
_0-0_LAYER001
  6
CONTINUOUS
 62
    1
 10
1342.1516999999999
 20
1013.5890999999999
 11
1382.1516999999999
 21
973.58909999999992
  0
LINE
  8
_0-0_LAYER001
  6
CONTINUOUS
 62
    1
 10
1356.2939000000001
 20
1013.5890999999999
 11
1396.2939000000001
 21
973.58909999999992
  0
LINE
  8
_0-0_LAYER001
  6
CONTINUOUS
 62
    1
 10
1370.4359999999999
 20
1013.5890999999999
 11
1410.4359999999999
 21
973.58909999999992
  0
LINE
  8
_0-0_LAYER001
  6
CONTINUOUS
 62
    1
 10
1384.5781999999999
 20
1013.5890999999999
 11
1424.5781999999999
 21
973.58909999999992
  0
LINE
  8
_0-0_LAYER001
  6
CONTINUOUS
 62
    1
 10
1398.7203
 20
1013.5890999999999
 11
1438.7203
 21
973.58909999999992
  0
LINE
  8
_0-0_LAYER001
  6
CONTINUOUS
 62
    1
 10
1412.8624
 20
1013.5890999999999
 11
1452.8624
 21
973.58909999999992
  0
LINE
  8
_0-0_LAYER001
  6
CONTINUOUS
 62
    1
 10
1427.0046
 20
1013.5890999999999
 11
1467.0046000000002
 21
973.58909999999992
  0
LINE
  8
_0-0_LAYER001
  6
CONTINUOUS
 62
    1
 10
1441.1466999999998
 20
1013.5890999999999
 11
1481.1466999999998
 21
973.58909999999992
  0
LINE
  8
_0-0_LAYER001
  6
CONTINUOUS
 62
    1
 10
1455.2887999999998
 20
1013.5890999999999
 11
1495.2887999999998
 21
973.58909999999992
  0
LINE
  8
_0-0_LAYER001
  6
CONTINUOUS
 62
    1
 10
1469.431
 20
1013.5890999999999
 11
1509.431
 21
973.58909999999992
  0
LINE
  8
_0-0_LAYER001
  6
CONTINUOUS
 62
    1
 10
1483.5731000000001
 20
1013.5890999999999
 11
1523.5731000000001
 21
973.58909999999992
  0
LINE
  8
_0-0_LAYER001
  6
CONTINUOUS
 62
    1
 10
1497.7152000000001
 20
1013.5890999999999
 11
1537.7152000000001
 21
973.58909999999992
  0
LINE
  8
_0-0_LAYER001
  6
CONTINUOUS
 62
    1
 10
1511.8573999999999
 20
1013.5890999999999
 11
1551.8573999999999
 21
973.58909999999992
  0
LINE
  8
_0-0_LAYER001
  6
CONTINUOUS
 62
    1
 10
1525.9994999999999
 20
1013.5890999999999
 11
1565.9994999999999
 21
973.58909999999992
  0
LINE
  8
_0-0_LAYER001
  6
CONTINUOUS
 62
    1
 10
1540.1415999999999
 20
1013.5890999999999
 11
1580.1415999999999
 21
973.58909999999992
  0
LINE
  8
_0-0_LAYER001
  6
CONTINUOUS
 62
    1
 10
1554.2838000000002
 20
1013.5890999999999
 11
1594.2838000000002
 21
973.58909999999992
  0
LINE
  8
_0-0_LAYER001
  6
CONTINUOUS
 62
    1
 10
1568.4259000000002
 20
1013.5890999999999
 11
1608.4259000000002
 21
973.58909999999992
  0
LINE
  8
_0-0_LAYER001
  6
CONTINUOUS
 62
    1
 10
1582.5681
 20
1013.5890999999999
 11
1622.5681
 21
973.58909999999992
  0
LINE
  8
_0-0_LAYER001
  6
CONTINUOUS
 62
    1
 10
1596.7102
 20
1013.5890999999999
 11
1636.7102
 21
973.58909999999992
  0
LINE
  8
_0-0_LAYER001
  6
CONTINUOUS
 62
    1
 10
1610.8523
 20
1013.5890999999999
 11
1650.8523
 21
973.58909999999992
  0
LINE
  8
_0-0_LAYER001
  6
CONTINUOUS
 62
    1
 10
1624.9944999999998
 20
1013.5890999999999
 11
1664.9944999999998
 21
973.58909999999992
  0
LINE
  8
_0-0_LAYER001
  6
CONTINUOUS
 62
    1
 10
1639.1365999999998
 20
1013.5890999999999
 11
1679.1365999999998
 21
973.58909999999992
  0
LINE
  8
_0-0_LAYER001
  6
CONTINUOUS
 62
    1
 10
1653.2786999999998
 20
1013.5890999999999
 11
1693.2786999999998
 21
973.58909999999992
  0
LINE
  8
_0-0_LAYER001
  6
CONTINUOUS
 62
    1
 10
1667.4209000000001
 20
1013.5890999999999
 11
1707.4209000000001
 21
973.58909999999992
  0
LINE
  8
_0-0_LAYER001
  6
CONTINUOUS
 62
    1
 10
1681.5630000000001
 20
1013.5890999999999
 11
1721.5630000000001
 21
973.58909999999992
  0
LINE
  8
_0-0_LAYER001
  6
CONTINUOUS
 62
    1
 10
1695.7051000000001
 20
1013.5890999999999
 11
1735.7051000000001
 21
973.58909999999992
  0
LINE
  8
_0-0_LAYER001
  6
CONTINUOUS
 62
    1
 10
1709.8472999999999
 20
1013.5890999999999
 11
1749.8472999999999
 21
973.58909999999992
  0
LINE
  8
_0-0_LAYER001
  6
CONTINUOUS
 62
    1
 10
1723.9893999999999
 20
1013.5890999999999
 11
1763.9893999999999
 21
973.58909999999992
  0
LINE
  8
_0-0_LAYER001
  6
CONTINUOUS
 62
    1
 10
1738.1315
 20
1013.5890999999999
 11
1778.1315
 21
973.58909999999992
  0
LINE
  8
_0-0_LAYER001
  6
CONTINUOUS
 62
    1
 10
1752.2737000000002
 20
1013.5890999999999
 11
1792.2737000000002
 21
973.58909999999992
  0
LINE
  8
_0-0_LAYER001
  6
CONTINUOUS
 62
    1
 10
1766.4158000000002
 20
1013.5890999999999
 11
1806.4158000000002
 21
973.58909999999992
  0
LINE
  8
_0-0_LAYER001
  6
CONTINUOUS
 62
    1
 10
1780.558
 20
1013.5890999999999
 11
1820.558
 21
973.58909999999992
  0
LINE
  8
_0-0_LAYER001
  6
CONTINUOUS
 62
    1
 10
1794.7001
 20
1013.5890999999999
 11
1834.7001
 21
973.58909999999992
  0
LINE
  8
_0-0_LAYER001
  6
CONTINUOUS
 62
    1
 10
1808.8422
 20
1013.5890999999999
 11
1848.8422
 21
973.58909999999992
  0
LINE
  8
_0-0_LAYER001
  6
CONTINUOUS
 62
    1
 10
1822.9843999999998
 20
1013.5890999999999
 11
1861.9549000000002
 21
974.61860000000001
  0
LINE
  8
_0-0_LAYER001
  6
CONTINUOUS
 62
    1
 10
1837.1264999999999
 20
1013.5890999999999
 11
1861.9549000000002
 21
988.76070000000004
  0
LINE
  8
_0-0_LAYER001
  6
CONTINUOUS
 62
    1
 10
1851.2685999999999
 20
1013.5890999999999
 11
1861.9549000000002
 21
1002.9028000000001
  0
LINE
  8
_0-0_LAYER001
  6
CONTINUOUS
 62
    2
 10
1861.9549000000002
 20
865.88789999999995
 11
1861.9549000000002
 21
918.38789999999995
  0
CIRCLE
  8
_0-0_LAYER001
  6
CONTINUOUS
 62
    2
 10
1861.9549000000002
 20
868.38789999999995
 40
1.6999999999999997
  0
LINE
  8
_0-0_LAYER001
  6
CONTINUOUS
 62
    2
 10
1861.9549000000002
 20
868.38789999999995
 11
1711.9549000000002
 21
868.38789999999995
  0
CIRCLE
  8
_0-0_LAYER001
  6
CONTINUOUS
 62
    2
 10
1711.9549000000002
 20
868.38789999999995
 40
1.6999999999999997
  0
LINE
  8
_0-0_LAYER001
  6
CONTINUOUS
 62
    2
 10
1711.9549000000002
 20
865.88789999999995
 11
1711.9549000000002
 21
918.38789999999995
  0
LINE
  8
_0-0_LAYER001
  6
CONTINUOUS
 62
    2
 10
1820.2550999999999
 20
1011.3323
 11
1818.3139000000001
 21
1018.5768
  0
LINE
  8
_0-0_LAYER001
  6
CONTINUOUS
 62
    2
 10
1818.3139000000001
 20
1018.5768
 11
1823.6172000000001
 21
1013.2735
  0
LINE
  8
_0-0_LAYER001
  6
CONTINUOUS
 62
    2
 10
1818.3139000000001
 20
1018.5768
 11
1902.9650000000001
 21
871.95669999999996
  0
LINE
  8
_0-0_LAYER001
  6
CONTINUOUS
 62
    2
 10
1902.9650000000001
 20
871.95669999999996
 11
2136.9650000000001
 21
871.95669999999996
  0
LINE
  8
_0-1_LAYER003
  6
CONTINUOUS
 62
    2
 10
1798.1743000000001
 20
1131.8468
 11
1800.1154000000001
 21
1124.6024
  0
LINE
  8
_0-1_LAYER003
  6
CONTINUOUS
 62
    2
 10
1800.1154000000001
 20
1124.6024
 11
1794.8121000000001
 21
1129.9057
  0
LINE
  8
_0-1_LAYER003
  6
CONTINUOUS
 62
    2
 10
1800.1154000000001
 20
1124.6024
 11
1712.4956999999999
 21
1276.3642
  0
LINE
  8
_0-1_LAYER003
  6
CONTINUOUS
 62
    2
 10
1712.4956999999999
 20
1276.3642
 11
1478.4956999999999
 21
1276.3642
  0
LINE
  8
_0-0_LAYER001
  6
CONTINUOUS
 62
    2
 10
2065.9843999999998
 20
1013.5890999999999
 11
2013.4843999999998
 21
1013.5890999999999
  0
CIRCLE
  8
_0-0_LAYER001
  6
CONTINUOUS
 62
    2
 10
2063.4843999999998
 20
1013.5890999999999
 40
1.6999999999999997
  0
LINE
  8
_0-0_LAYER001
  6
CONTINUOUS
 62
    2
 10
2063.4843999999998
 20
1013.5890999999999
 11
2063.4843999999998
 21
1213.5890999999999
  0
CIRCLE
  8
_0-0_LAYER001
  6
CONTINUOUS
 62
    2
 10
2063.4843999999998
 20
1213.5890999999999
 40
1.6999999999999997
  0
LINE
  8
_0-0_LAYER001
  6
CONTINUOUS
 62
    2
 10
2065.9843999999998
 20
1213.5890999999999
 11
2013.4843999999998
 21
1213.5890999999999
  0
LINE
  8
_0-1_LAYER003
  6
CONTINUOUS
 62
    2
 10
1851.8980999999999
 20
1036.6285
 11
1849.9569999999999
 21
1043.8729000000001
  0
LINE
  8
_0-1_LAYER003
  6
CONTINUOUS
 62
    2
 10
1849.9569999999999
 20
1043.8729000000001
 11
1855.2602999999999
 21
1038.5696
  0
LINE
  8
_0-1_LAYER003
  6
CONTINUOUS
 62
    2
 10
1849.9569999999999
 20
1043.8729000000001
 11
1915.7487999999998
 21
929.91810000000009
  0
LINE
  8
_0-1_LAYER003
  6
CONTINUOUS
 62
    2
 10
1915.7487999999998
 20
929.91810000000009
 11
2067.6992
 21
929.91810000000009
  0
LINE
  8
_0-1_LAYER003
  6
CONTINUOUS
 62
    2
 10
1432.7651000000001
 20
1053.7511
 11
1434.7062000000001
 21
1046.5065999999999
  0
LINE
  8
_0-1_LAYER003
  6
CONTINUOUS
 62
    2
 10
1434.7062000000001
 20
1046.5065999999999
 11
1429.4029
 21
1051.8099
  0
LINE
  8
_0-1_LAYER003
  6
CONTINUOUS
 62
    2
 10
1434.7062000000001
 20
1046.5065999999999
 11
1370.9161999999997
 21
1156.9942000000001
  0
LINE
  8
_0-1_LAYER003
  6
CONTINUOUS
 62
    2
 10
1370.9161999999997
 20
1156.9942000000001
 11
1330.4161999999999
 21
1156.9942000000001
  0
LINE
  8
_0-0_LAYER001
  6
CONTINUOUS
 62
    2
 10
1839.5902999999998
 20
1245.6197999999999
 11
1841.5315000000001
 21
1238.3752999999999
  0
LINE
  8
_0-0_LAYER001
  6
CONTINUOUS
 62
    2
 10
1841.5315000000001
 20
1238.3752999999999
 11
1836.2282
 21
1243.6786
  0
LINE
  8
_0-0_LAYER001
  6
CONTINUOUS
 62
    2
 10
1841.5315000000001
 20
1238.3752999999999
 11
1760.7858000000001
 21
1378.2309
  0
LINE
  8
_0-0_LAYER001
  6
CONTINUOUS
 62
    2
 10
1760.7858000000001
 20
1378.2309
 11
1679.7858000000001
 21
1378.2309
  0
LINE
  8
_0-1_LAYER003
  6
CONTINUOUS
 62
    2
 10
1779.1702
 20
1117.4614999999999
 11
1781.1113
 21
1110.2170000000001
  0
LINE
  8
_0-1_LAYER003
  6
CONTINUOUS
 62
    2
 10
1781.1113
 20
1110.2170000000001
 11
1775.808
 21
1115.5202999999999
  0
LINE
  8
_0-1_LAYER003
  6
CONTINUOUS
 62
    2
 10
1781.1113
 20
1110.2170000000001
 11
1707.8400999999999
 21
1237.1265000000001
  0
LINE
  8
_0-1_LAYER003
  6
CONTINUOUS
 62
    2
 10
1707.8400999999999
 20
1237.1265000000001
 11
1577.3400999999999
 21
1237.1265000000001
  0
LINE
  8
_0-2_LAYER004
  6
CONTINUOUS
 62
    3
 10
848.7195999999999
 20
986.50479999999993
 11
1838.8728999999998
 21
986.50479999999993
  0
CIRCLE
  8
_0-2_LAYER004
  6
CONTINUOUS
 62
    3
 10
854.19290000000001
 20
987.73000000000002
 40
1.3049219999999999
  0
CIRCLE
  8
_0-2_LAYER004
  6
CONTINUOUS
 62
    3
 10
1004.1929
 20
987.73000000000002
 40
1.3049219999999999
  0
CIRCLE
  8
_0-2_LAYER004
  6
CONTINUOUS
 62
    3
 10
1154.1929
 20
987.73000000000002
 40
1.3049219999999999
  0
CIRCLE
  8
_0-2_LAYER004
  6
CONTINUOUS
 62
    3
 10
1304.1929
 20
987.73000000000002
 40
1.3049219999999999
  0
CIRCLE
  8
_0-2_LAYER004
  6
CONTINUOUS
 62
    3
 10
1604.1929
 20
987.73000000000002
 40
1.3049219999999999
  0
CIRCLE
  8
_0-2_LAYER004
  6
CONTINUOUS
 62
    3
 10
1754.1929
 20
987.73000000000002
 40
1.3049219999999999
  0
CIRCLE
  8
_0-2_LAYER004
  6
CONTINUOUS
 62
    3
 10
1454.1929
 20
987.73000000000002
 40
1.3049219999999999
  0
LINE
  8
_0-2_LAYER004
  6
DASHED1
 62
    2
 10
938.9677999999999
 20
991.18389999999999
 11
928.9677999999999
 21
991.18389999999999
  0
LINE
  8
_0-2_LAYER004
  6
DASHED1
 62
    2
 10
960.33789999999999
 20
937.16519999999991
 11
960.33789999999999
 21
927.16519999999991
  0
LINE
  8
_0-2_LAYER004
  6
DASHED1
 62
    2
 10
938.9677999999999
 20
991.18389999999999
 11
938.9677999999999
 21
937.16519999999991
  0
LINE
  8
_0-2_LAYER004
  6
DASHED1
 62
    2
 10
928.9677999999999
 20
991.18389999999999
 11
928.9677999999999
 21
927.16519999999991
  0
LINE
  8
_0-2_LAYER004
  6
DASHED1
 62
    2
 10
938.9677999999999
 20
937.16519999999991
 11
960.33789999999999
 21
937.16519999999991
  0
LINE
  8
_0-2_LAYER004
  6
DASHED1
 62
    2
 10
928.9677999999999
 20
927.16519999999991
 11
960.33789999999999
 21
927.16519999999991
  0
LINE
  8
_0-2_LAYER004
  6
DASHED1
 62
    2
 10
1538.9677999999999
 20
991.18389999999999
 11
1528.9677999999999
 21
991.18389999999999
  0
LINE
  8
_0-2_LAYER004
  6
DASHED1
 62
    2
 10
1560.3379
 20
937.16519999999991
 11
1560.3379
 21
927.16519999999991
  0
LINE
  8
_0-2_LAYER004
  6
DASHED1
 62
    2
 10
1538.9677999999999
 20
991.18389999999999
 11
1538.9677999999999
 21
937.16519999999991
  0
LINE
  8
_0-2_LAYER004
  6
DASHED1
 62
    2
 10
1528.9677999999999
 20
991.18389999999999
 11
1528.9677999999999
 21
927.16519999999991
  0
LINE
  8
_0-2_LAYER004
  6
DASHED1
 62
    2
 10
1538.9677999999999
 20
937.16519999999991
 11
1560.3379
 21
937.16519999999991
  0
LINE
  8
_0-2_LAYER004
  6
DASHED1
 62
    2
 10
1528.9677999999999
 20
927.16519999999991
 11
1560.3379
 21
927.16519999999991
  0
LINE
  8
_0-2_LAYER004
  6
CONTINUOUS
 62
    2
 10
942.33459999999991
 20
925.17779999999993
 11
940.3934999999999
 21
932.42219999999998
  0
LINE
  8
_0-2_LAYER004
  6
CONTINUOUS
 62
    2
 10
940.3934999999999
 20
932.42219999999998
 11
945.69679999999994
 21
927.11889999999994
  0
LINE
  8
_0-2_LAYER004
  6
CONTINUOUS
 62
    2
 10
940.3934999999999
 20
932.42219999999998
 11
965.02179999999998
 21
889.76469999999995
  0
LINE
  8
_0-2_LAYER004
  6
CONTINUOUS
 62
    2
 10
965.02179999999998
 20
889.76469999999995
 11
1025.0218
 21
889.76469999999995
  0
LINE
  8
_0-2_LAYER004
  6
CONTINUOUS
 62
    2
 10
1188.922
 20
978.97919999999999
 11
1186.9808
 21
986.22360000000003
  0
LINE
  8
_0-2_LAYER004
  6
CONTINUOUS
 62
    2
 10
1186.9808
 20
986.22360000000003
 11
1192.2841000000001
 21
980.9203
  0
LINE
  8
_0-2_LAYER004
  6
CONTINUOUS
 62
    2
 10
1186.9808
 20
986.22360000000003
 11
1224.4434000000001
 21
921.33649999999989
  0
LINE
  8
_0-2_LAYER004
  6
CONTINUOUS
 62
    2
 10
1224.4434000000001
 20
921.33649999999989
 11
1284.4434000000001
 21
921.33649999999989
  0
LINE
  8
_0-0_LAYER001
  6
CONTINUOUS
 62
    2
 10
1836.2269999999999
 20
1110.1569999999999
 11
1838.1680999999999
 21
1102.9126000000001
  0
LINE
  8
_0-0_LAYER001
  6
CONTINUOUS
 62
    2
 10
1838.1680999999999
 20
1102.9126000000001
 11
1832.8647999999998
 21
1108.2158999999999
  0
LINE
  8
_0-0_LAYER001
  6
CONTINUOUS
 62
    2
 10
1838.1680999999999
 20
1102.9126000000001
 11
1711.5556999999999
 21
1322.2118
  0
LINE
  8
_0-0_LAYER001
  6
CONTINUOUS
 62
    2
 10
1711.5556999999999
 20
1322.2118
 11
1578.3706000000002
 21
1322.2118
  0
LINE
  8
_0-0_LAYER001
  6
CONTINUOUS
 62
    2
 10
1209.3157000000001
 20
718.1706999999999
 11
1414.1383999999998
 21
718.1706999999999
  0
LINE
  8
_0-0_LAYER001
  6
CONTINUOUS
 62
    2
 10
1127.3027999999999
 20
1018.1854000000001
 11
1127.3027999999999
 21
1025.6854000000001
  0
LINE
  8
_0-0_LAYER001
  6
CONTINUOUS
 62
    2
 10
1127.3027999999999
 20
1025.6854000000001
 11
1131.0527999999999
 21
1019.1902
  0
LINE
  8
_0-2_LAYER004
  6
CONTINUOUS
 62
    2
 10
1761.1949
 20
1109.2032999999999
 11
1758.4919
 21
1123.9583
  0
LINE
  8
_0-2_LAYER004
  6
CONTINUOUS
 62
    2
 10
1758.4919
 20
1123.9583
 11
1847.0198999999998
 21
1140.1732999999999
  0
LINE
  8
_0-2_LAYER004
  6
CONTINUOUS
 62
    2
 10
1849.7219
 20
1125.4193
 11
1761.1949
 21
1109.2032999999999
  0
LINE
  8
_0-2_LAYER004
  6
CONTINUOUS
 62
    2
 10
1758.4919
 20
1123.9583
 11
1849.7219
 21
1125.4193
  0
LINE
  8
_0-4_LAYER006
  6
CONTINUOUS
 62
    2
 10
1746.9549000000002
 20
1124.5376000000001
 11
1744.5738999999999
 21
1098.9466
  0
LINE
  8
_0-4_LAYER006
  6
CONTINUOUS
 62
    2
 10
1744.5738999999999
 20
1098.9466
 11
1749.8708999999999
 21
1104.9056
  0
LINE
  8
_0-4_LAYER006
  6
CONTINUOUS
 62
    2
 10
1746.9549000000002
 20
1124.5376000000001
 11
1836.9549000000002
 21
1141.0233000000001
  0
LINE
  8
_0-0_LAYER001
  6
CONTINUOUS
 62
    2
 10
1849.7219
 20
1125.2157
 11
1861.9549000000002
 21
1125.2157
  0
LINE
  8
_0-0_LAYER001
  6
CONTINUOUS
 62
    2
 10
1909.9549000000002
 20
1105.2157
 11
1904.9548
 21
1108.2156
  0
LINE
  8
_0-0_LAYER001
  6
CONTINUOUS
 62
    2
 10
1904.9548
 20
1102.2157
 11
1909.9549000000002
 21
1105.2157
  0
LINE
  8
_0-0_LAYER001
  6
CONTINUOUS
 62
    2
 10
1903.8798000000002
 20
1102.2157
 11
1906.7287999999999
 21
1107.1518000000001
  0
LINE
  8
_0-0_LAYER001
  6
CONTINUOUS
 62
    2
 10
1837.9548
 20
1102.2157
 11
1837.9548
 21
1108.2156
  0
LINE
  8
_0-0_LAYER001
  6
CONTINUOUS
 62
    2
 10
1831.9549000000002
 20
1099.2156
 11
1831.9549000000002
 21
1111.2157
  0
LINE
  8
_0-0_LAYER001
  6
CONTINUOUS
 62
    2
 10
1840.8418000000001
 20
1102.2157
 11
1844.3049000000001
 21
1108.2156
  0
LINE
  8
_0-0_LAYER001
  6
CONTINUOUS
 62
    2
 10
1831.9549000000002
 20
1099.2156
 11
1837.9548
 21
1102.2157
  0
LINE
  8
_0-0_LAYER001
  6
CONTINUOUS
 62
    2
 10
1837.9548
 20
1108.2156
 11
1831.9549000000002
 21
1111.2157
  0
LINE
  8
_0-0_LAYER001
  6
CONTINUOUS
 62
    2
 10
1904.9548
 20
1108.2156
 11
1894.9398000000001
 21
1108.2156
  0
LINE
  8
_0-0_LAYER001
  6
CONTINUOUS
 62
    2
 10
1886.2878999999998
 20
1103.7428
 11
1888.1819
 21
1107.0237
  0
LINE
  8
_0-0_LAYER001
  6
CONTINUOUS
 62
    2
 10
1894.6718999999998
 20
1102.2646999999999
 11
1898.1068
 21
1108.2156
  0
LINE
  8
_0-0_LAYER001
  6
CONTINUOUS
 62
    2
 10
1904.9548
 20
1102.2157
 11
1894.9479000000001
 21
1102.2157
  0
LINE
  8
_0-0_LAYER001
  6
CONTINUOUS
 62
    2
 10
1902.8038000000001
 20
1111.9386999999999
 11
1903.2037999999998
 21
1109.6727000000001
  0
LINE
  8
_0-0_LAYER001
  6
CONTINUOUS
 62
    2
 10
1902.6309000000001
 20
1098.5257999999999
 11
1903.0288
 21
1100.7907
  0
LINE
  8
_0-0_LAYER001
  6
CONTINUOUS
 62
    2
 10
1898.2107000000001
 20
1110.9247
 11
1899.8847999999998
 21
1111.2197000000001
  0
LINE
  8
_0-0_LAYER001
  6
CONTINUOUS
 62
    2
 10
1893.8778000000002
 20
1110.1606999999999
 11
1895.5508
 21
1110.4557
  0
LINE
  8
_0-0_LAYER001
  6
CONTINUOUS
 62
    2
 10
1889.5448000000001
 20
1109.3967
 11
1891.2177000000001
 21
1109.6917000000001
  0
LINE
  8
_0-0_LAYER001
  6
CONTINUOUS
 62
    2
 10
1889.2487000000001
 20
1111.0697
 11
1880.1547999999998
 21
1109.4667999999999
  0
LINE
  8
_0-0_LAYER001
  6
CONTINUOUS
 62
    2
 10
1893.5817999999999
 20
1111.8336999999999
 11
1890.9227999999998
 21
1111.3647000000001
  0
LINE
  8
_0-0_LAYER001
  6
CONTINUOUS
 62
    2
 10
1897.9148
 20
1112.5978
 11
1895.2557999999999
 21
1112.1288
  0
LINE
  8
_0-0_LAYER001
  6
CONTINUOUS
 62
    2
 10
1901.0666999999999
 20
1113.1537000000001
 11
1899.5889000000002
 21
1112.8925999999999
  0
LINE
  8
_0-0_LAYER001
  6
CONTINUOUS
 62
    2
 10
1899.8847999999998
 20
1111.2197000000001
 11
1899.5889000000002
 21
1112.8937000000001
  0
LINE
  8
_0-0_LAYER001
  6
CONTINUOUS
 62
    2
 10
1898.2107000000001
 20
1110.9247
 11
1897.9148
 21
1112.5988
  0
LINE
  8
_0-0_LAYER001
  6
CONTINUOUS
 62
    2
 10
1895.5518999999999
 20
1110.4557
 11
1895.2557999999999
 21
1112.1297999999999
  0
LINE
  8
_0-0_LAYER001
  6
CONTINUOUS
 62
    2
 10
1893.8778000000002
 20
1110.1606999999999
 11
1893.5817999999999
 21
1111.8347000000001
  0
LINE
  8
_0-0_LAYER001
  6
CONTINUOUS
 62
    2
 10
1891.2188000000001
 20
1109.6917000000001
 11
1890.9227999999998
 21
1111.3656000000001
  0
LINE
  8
_0-0_LAYER001
  6
CONTINUOUS
 62
    2
 10
1889.5448000000001
 20
1109.3967
 11
1889.2487000000001
 21
1111.0707
  0
LINE
  8
_0-0_LAYER001
  6
CONTINUOUS
 62
    2
 10
1898.0358000000001
 20
1099.5386000000001
 11
1899.7098999999998
 21
1099.2437
  0
LINE
  8
_0-0_LAYER001
  6
CONTINUOUS
 62
    2
 10
1893.7029000000002
 20
1100.3027
 11
1895.3768
 21
1100.0077000000001
  0
LINE
  8
_0-0_LAYER001
  6
CONTINUOUS
 62
    2
 10
1889.3697999999999
 20
1101.0667000000001
 11
1891.0437999999999
 21
1100.7716
  0
LINE
  8
_0-0_LAYER001
  6
CONTINUOUS
 62
    2
 10
1889.3708000000001
 20
1101.0667000000001
 11
1889.0747999999999
 21
1099.3938000000001
  0
LINE
  8
_0-0_LAYER001
  6
CONTINUOUS
 62
    2
 10
1891.0448000000001
 20
1100.7716
 11
1890.7487000000001
 21
1099.0987
  0
LINE
  8
_0-0_LAYER001
  6
CONTINUOUS
 62
    2
 10
1893.7039
 20
1100.3027
 11
1893.4078
 21
1098.6297
  0
LINE
  8
_0-0_LAYER001
  6
CONTINUOUS
 62
    2
 10
1895.3778000000002
 20
1100.0077000000001
 11
1895.0817999999999
 21
1098.3347000000001
  0
LINE
  8
_0-0_LAYER001
  6
CONTINUOUS
 62
    2
 10
1898.0367999999999
 20
1099.5386000000001
 11
1897.7408999999998
 21
1097.8657000000001
  0
LINE
  8
_0-0_LAYER001
  6
CONTINUOUS
 62
    2
 10
1899.7107999999998
 20
1099.2437
 11
1899.4148
 21
1097.5708
  0
LINE
  8
_0-0_LAYER001
  6
CONTINUOUS
 62
    2
 10
1889.0747999999999
 20
1099.3938000000001
 11
1880.1547999999998
 21
1100.9657
  0
LINE
  8
_0-0_LAYER001
  6
CONTINUOUS
 62
    2
 10
1893.4078
 20
1098.6297
 11
1890.7487000000001
 21
1099.0987
  0
LINE
  8
_0-0_LAYER001
  6
CONTINUOUS
 62
    2
 10
1897.7408999999998
 20
1097.8657000000001
 11
1895.0817999999999
 21
1098.3347000000001
  0
LINE
  8
_0-0_LAYER001
  6
CONTINUOUS
 62
    2
 10
1900.8919000000001
 20
1097.3097
 11
1899.4148
 21
1097.5697
  0
LINE
  8
_0-0_LAYER001
  6
CONTINUOUS
 62
    2
 10
1877.9308999999998
 20
1105.2167999999999
 11
1903.2037999999998
 21
1109.6727000000001
  0
LINE
  8
_0-0_LAYER001
  6
CONTINUOUS
 62
    2
 10
1877.9308999999998
 20
1105.2167999999999
 11
1903.0288
 21
1100.7907
  0
LINE
  8
_0-0_LAYER001
  6
CONTINUOUS
 62
    2
 10
1861.9549000000002
 20
1109.4657
 11
1880.1547999999998
 21
1109.4657
  0
LINE
  8
_0-0_LAYER001
  6
CONTINUOUS
 62
    2
 10
1861.9549000000002
 20
1100.9657
 11
1880.1547999999998
 21
1100.9657
  0
LINE
  8
_0-0_LAYER001
  6
CONTINUOUS
 62
    2
 10
1861.9549000000002
 20
1100.9657
 11
1861.9549000000002
 21
1109.4657
  0
LINE
  8
_0-0_LAYER001
  6
CONTINUOUS
 62
    2
 10
1831.9549000000002
 20
1085.2157
 11
1861.9549000000002
 21
1085.2157
  0
LINE
  8
_0-0_LAYER001
  6
CONTINUOUS
 62
    2
 10
1861.9549000000002
 20
1108.2156
 11
1837.9548
 21
1108.2156
  0
LINE
  8
_0-0_LAYER001
  6
CONTINUOUS
 62
    2
 10
1861.9549000000002
 20
1102.2157
 11
1837.9548
 21
1102.2157
  0
LINE
  8
_0-0_LAYER001
  6
CONTINUOUS
 62
    2
 10
1846.5648999999999
 20
1102.2157
 11
1850.0279999999998
 21
1108.2156
  0
LINE
  8
_0-0_LAYER001
  6
CONTINUOUS
 62
    2
 10
1852.2881000000002
 20
1102.2157
 11
1855.7511
 21
1108.2156
  0
LINE
  8
_0-0_LAYER001
  6
CONTINUOUS
 62
    2
 10
1858.0111999999999
 20
1102.2157
 11
1861.4742999999999
 21
1108.2156
  0
LINE
  8
_0-0_LAYER001
  6
CONTINUOUS
 62
    2
 10
1831.9549000000002
 20
1085.2157
 11
1831.9549000000002
 21
1122.2061000000001
  0
LINE
  8
_0-0_LAYER001
  6
CONTINUOUS
 62
    2
 10
1861.9549000000002
 20
1085.2157
 11
1834.1695
 21
1122.2628999999999
  0
ARC
  8
_0-0_LAYER001
  6
CONTINUOUS
 62
    2
 10
1901.3188
 20
1111.6717000000001
 40
1.5049999999999999
 50
10.451269999999999
 51
99.637527999999989
  0
ARC
  8
_0-0_LAYER001
  6
CONTINUOUS
 62
    2
 10
1901.1509000000001
 20
1098.7887000000001
 40
1.4969999999999999
 50
259.83899000000008
 51
350.14733000000001
  0
LINE
  8
_0-0_LAYER001
  6
CONTINUOUS
 62
    2
 10
1829.4648000000002
 20
1135.0102999999999
 11
1837.5355
 21
1138.7729999999999
  0
LINE
  8
_0-0_LAYER001
  6
CONTINUOUS
 62
    2
 10
1843.9045999999998
 20
1110.1893
 11
1849.3609000000001
 21
1103.1215
  0
LINE
  8
_0-0_LAYER001
  6
CONTINUOUS
 62
    2
 10
1835.8530999999998
 20
1136.2284
 11
1847.2637
 21
1111.7556
  0
LINE
  8
_0-0_LAYER001
  6
CONTINUOUS
 62
    2
 10
1849.3609000000001
 20
1103.1215
 11
1847.2637
 21
1111.7556
  0
LINE
  8
_0-0_LAYER001
  6
CONTINUOUS
 62
    2
 10
1832.4935999999998
 20
1134.6636000000001
 11
1829.4648000000002
 21
1135.0102999999999
  0
LINE
  8
_0-0_LAYER001
  6
CONTINUOUS
 62
    2
 10
1835.8530999999998
 20
1136.2284
 11
1837.5355
 21
1138.7729999999999
  0
LINE
  8
_0-0_LAYER001
  6
CONTINUOUS
 62
    2
 10
1832.4935999999998
 20
1134.6636000000001
 11
1843.9045999999998
 21
1110.1893
  0
ARC
  8
_0-0_LAYER001
  6
CONTINUOUS
 62
    2
 10
1820.1358
 20
1249.1905999999999
 40
20.694040000000001
 50
335.49168000000003
 51
33.319545000000062
  0
LINE
  8
_0-0_LAYER001
  6
CONTINUOUS
 62
    2
 10
1852.4378999999999
 20
1260.558
 11
1852.4378999999999
 21
1240.558
  0
LINE
  8
_0-2_LAYER004
  6
CONTINUOUS
 62
    2
 10
1857.8998999999999
 20
1260.558
 11
1852.4378999999999
 21
1240.558
  0
LINE
  8
_0-2_LAYER004
  6
CONTINUOUS
 62
    2
 10
1857.8998999999999
 20
1240.558
 11
1852.4378999999999
 21
1260.558
  0
LINE
  8
_0-2_LAYER004
  6
CONTINUOUS
 62
    2
 10
1859.9616999999998
 20
1240.6596
 11
1859.9616999999998
 21
1257.6024
  0
LINE
  8
_0-3_LAYER005
  6
CONTINUOUS
 62
    2
 10
1836.9549000000002
 20
1260.558
 11
1861.9549000000002
 21
1260.558
  0
LINE
  8
_0-3_LAYER005
  6
CONTINUOUS
 62
    2
 10
1836.9549000000002
 20
1240.558
 11
1861.9549000000002
 21
1240.558
  0
LINE
  8
_0-3_LAYER005
  6
CONTINUOUS
 62
    2
 10
1857.8998999999999
 20
1240.558
 11
1857.8998999999999
 21
1260.558
  0
LINE
  8
_0-3_LAYER005
  6
CONTINUOUS
 62
    2
 10
1846.1298999999999
 20
1240.558
 11
1852.4378999999999
 21
1246.866
  0
LINE
  8
_0-3_LAYER005
  6
CONTINUOUS
 62
    2
 10
1841.8869
 20
1240.558
 11
1852.4378999999999
 21
1251.1089999999999
  0
LINE
  8
_0-3_LAYER005
  6
CONTINUOUS
 62
    2
 10
1839.7856000000002
 20
1242.6999000000001
 11
1852.4378999999999
 21
1255.3513
  0
LINE
  8
_0-3_LAYER005
  6
CONTINUOUS
 62
    2
 10
1840.7925
 20
1247.9486999999999
 11
1852.4378999999999
 21
1259.5940000000001
  0
LINE
  8
_0-3_LAYER005
  6
CONTINUOUS
 62
    2
 10
1840.6338999999998
 20
1252.0318
 11
1849.1587
 21
1260.558
  0
LINE
  8
_0-3_LAYER005
  6
CONTINUOUS
 62
    2
 10
1839.8485000000001
 20
1255.4878000000001
 11
1844.9151999999999
 21
1260.558
  0
LINE
  8
_0-0_LAYER001
  6
CONTINUOUS
 62
    2
 10
1839.6179000000002
 20
1085.2157
 11
1833.2168000000001
 21
1074.617
  0
LINE
  8
_0-1_LAYER003
  6
CONTINUOUS
 62
    2
 10
1746.9549000000002
 20
1214.2057
 11
1746.9549000000002
 21
1160.1697999999999
  0
CIRCLE
  8
_0-1_LAYER003
  6
CONTINUOUS
 62
    2
 10
1746.9549000000002
 20
1211.7057
 40
1.6999999999999997
  0
LINE
  8
_0-1_LAYER003
  6
CONTINUOUS
 62
    2
 10
1746.9549000000002
 20
1211.7057
 11
1836.9549000000002
 21
1211.7057
  0
CIRCLE
  8
_0-1_LAYER003
  6
CONTINUOUS
 62
    2
 10
1836.9549000000002
 20
1211.7057
 40
1.6999999999999997
  0
LINE
  8
_0-1_LAYER003
  6
CONTINUOUS
 62
    2
 10
1836.9549000000002
 20
1186.6398999999999
 11
1836.9549000000002
 21
1159.1398999999999
  0
LINE
  8
_0-0_LAYER001
  6
CONTINUOUS
 62
    2
 10
1983.7664
 20
1013.5890999999999
 11
1931.2664
 21
1013.5890999999999
  0
LINE
  8
_0-0_LAYER001
  6
CONTINUOUS
 62
    2
 10
1983.7664
 20
1085.2157
 11
1931.2664
 21
1085.2157
  0
CIRCLE
  8
_0-0_LAYER001
  6
CONTINUOUS
 62
    2
 10
1981.2664
 20
1085.2157
 40
1.6999999999999997
  0
LINE
  8
_0-0_LAYER001
  6
CONTINUOUS
 62
    2
 10
1981.2664
 20
1085.2157
 11
1981.2664
 21
1141.0233000000001
  0
CIRCLE
  8
_0-0_LAYER001
  6
CONTINUOUS
 62
    2
 10
1981.2664
 20
1141.0233000000001
 40
1.6999999999999997
  0
LINE
  8
_0-0_LAYER001
  6
CONTINUOUS
 62
    2
 10
1983.7664
 20
1141.0233000000001
 11
1931.2664
 21
1141.0233000000001
  0
CIRCLE
  8
_0-0_LAYER001
  6
CONTINUOUS
 62
    2
 10
1981.2664
 20
1141.0233000000001
 40
1.6999999999999997
  0
LINE
  8
_0-0_LAYER001
  6
CONTINUOUS
 62
    2
 10
1981.2664
 20
1141.0233000000001
 11
1981.2664
 21
1241.0233000000001
  0
CIRCLE
  8
_0-0_LAYER001
  6
CONTINUOUS
 62
    2
 10
1981.2664
 20
1241.0233000000001
 40
1.6999999999999997
  0
LINE
  8
_0-0_LAYER001
  6
CONTINUOUS
 62
    2
 10
1983.7664
 20
1241.0233000000001
 11
1931.2664
 21
1241.0233000000001
  0
CIRCLE
  8
_0-0_LAYER001
  6
CONTINUOUS
 62
    2
 10
1981.2664
 20
1241.0233000000001
 40
1.6999999999999997
  0
LINE
  8
_0-0_LAYER001
  6
CONTINUOUS
 62
    2
 10
1981.2664
 20
1241.0233000000001
 11
1981.2664
 21
1261.0233000000001
  0
CIRCLE
  8
_0-0_LAYER001
  6
CONTINUOUS
 62
    2
 10
1981.2664
 20
1261.0233000000001
 40
1.6999999999999997
  0
LINE
  8
_0-0_LAYER001
  6
CONTINUOUS
 62
    2
 10
1983.7664
 20
1261.0233000000001
 11
1931.2664
 21
1261.0233000000001
  0
LINE
  8
_0-2_LAYER004
  6
CONTINUOUS
 62
    2
 10
1132.1699000000001
 20
1037.7251000000001
 11
833.03490000000011
 21
1037.7251000000001
  0
LINE
  8
_0-2_LAYER004
  6
CONTINUOUS
 62
    2
 10
1857.1489000000001
 20
1085.2157
 11
1857.1489000000001
 21
1017.8351
  0
LINE
  8
_0-2_LAYER004
  6
CONTINUOUS
 62
    2
 10
1132.1699000000001
 20
1037.7251000000001
 11
1714.7689
 21
1037.7251000000001
  0
LINE
  8
_0-2_LAYER004
  6
CONTINUOUS
 62
    2
 10
1714.7689
 20
1037.7251000000001
 11
1714.7689
 21
1022.7251000000001
  0
LINE
  8
_0-2_LAYER004
  6
CONTINUOUS
 62
    2
 10
1677.9839000000002
 20
1019.7251000000001
 11
1677.9839000000002
 21
1022.7251000000001
  0
LINE
  8
_0-2_LAYER004
  6
CONTINUOUS
 62
    2
 10
1677.9839000000002
 20
1022.7251000000001
 11
1701.9839000000002
 21
1022.7251000000001
  0
LINE
  8
_0-2_LAYER004
  6
CONTINUOUS
 62
    2
 10
1701.9839000000002
 20
1022.7251000000001
 11
1701.9839000000002
 21
1019.7251000000001
  0
LINE
  8
_0-2_LAYER004
  6
CONTINUOUS
 62
    2
 10
1701.9839000000002
 20
1019.7251000000001
 11
1677.9839000000002
 21
1019.7251000000001
  0
LINE
  8
_0-2_LAYER004
  6
CONTINUOUS
 62
    2
 10
1677.9839000000002
 20
1019.7251000000001
 11
1701.9839000000002
 21
1022.7251000000001
  0
LINE
  8
_0-2_LAYER004
  6
CONTINUOUS
 62
    2
 10
833.03490000000011
 20
1019.7251000000001
 11
1701.9839000000002
 21
1019.7251000000001
  0
LINE
  8
_0-2_LAYER004
  6
CONTINUOUS
 62
    2
 10
1720.0439000000001
 20
1018.4611
 11
1720.0439000000001
 21
1037.7251000000001
  0
LINE
  8
_0-2_LAYER004
  6
CONTINUOUS
 62
    2
 10
1720.0439000000001
 20
1037.7251000000001
 11
1740.5879
 21
1037.7251000000001
  0
LINE
  8
_0-2_LAYER004
  6
CONTINUOUS
 62
    2
 10
1839.6179000000002
 20
1018.4611
 11
1839.6179000000002
 21
1085.2157
  0
LINE
  8
_0-2_LAYER004
  6
CONTINUOUS
 62
    2
 10
1861.9549000000002
 20
1013.5890999999999
 11
833.03490000000011
 21
1013.5890999999999
  0
LINE
  8
_0-2_LAYER004
  6
CONTINUOUS
 62
    2
 10
1720.0439000000001
 20
1018.4611
 11
1839.6179000000002
 21
1018.4611
  0
LINE
  8
_0-2_LAYER004
  6
DASHED3
 62
    2
 10
1859.6318999999999
 20
1016.0861
 11
833.03490000000011
 21
1016.0861
  0
LINE
  8
_0-2_LAYER004
  6
DASHED3
 62
    2
 10
1859.6318999999999
 20
1016.0861
 11
1859.6318999999999
 21
1213.5890999999999
  0
LINE
  8
_0-2_LAYER004
  6
CONTINUOUS
 62
    2
 10
1857.1489000000001
 20
1017.8351
 11
1842.1489000000001
 21
1017.8351
  0
LINE
  8
_0-2_LAYER004
  6
CONTINUOUS
 62
    2
 10
1516.0789
 20
1019.7251000000001
 11
1516.0789
 21
1022.7251000000001
  0
LINE
  8
_0-2_LAYER004
  6
CONTINUOUS
 62
    2
 10
1516.0789
 20
1022.7251000000001
 11
1540.0779000000002
 21
1022.7251000000001
  0
LINE
  8
_0-2_LAYER004
  6
CONTINUOUS
 62
    2
 10
1540.0779000000002
 20
1022.7251000000001
 11
1540.0779000000002
 21
1019.7251000000001
  0
LINE
  8
_0-2_LAYER004
  6
CONTINUOUS
 62
    2
 10
1540.0779000000002
 20
1019.7251000000001
 11
1516.0789
 21
1019.7251000000001
  0
LINE
  8
_0-2_LAYER004
  6
CONTINUOUS
 62
    2
 10
1516.0789
 20
1019.7251000000001
 11
1540.0779000000002
 21
1022.7251000000001
  0
LINE
  8
_0-2_LAYER004
  6
CONTINUOUS
 62
    2
 10
1207.8779
 20
1019.7251000000001
 11
1207.8779
 21
1022.7251000000001
  0
LINE
  8
_0-2_LAYER004
  6
CONTINUOUS
 62
    2
 10
1207.8779
 20
1022.7251000000001
 11
1231.8779
 21
1022.7251000000001
  0
LINE
  8
_0-2_LAYER004
  6
CONTINUOUS
 62
    2
 10
1231.8779
 20
1022.7251000000001
 11
1231.8779
 21
1019.7251000000001
  0
LINE
  8
_0-2_LAYER004
  6
CONTINUOUS
 62
    2
 10
1231.8779
 20
1019.7251000000001
 11
1207.8779
 21
1019.7251000000001
  0
LINE
  8
_0-2_LAYER004
  6
CONTINUOUS
 62
    2
 10
1207.8779
 20
1019.7251000000001
 11
1231.8779
 21
1022.7251000000001
  0
LINE
  8
_0-2_LAYER004
  6
CONTINUOUS
 62
    2
 10
902.31189999999992
 20
1019.7251000000001
 11
902.31189999999992
 21
1022.7251000000001
  0
LINE
  8
_0-2_LAYER004
  6
CONTINUOUS
 62
    2
 10
902.31189999999992
 20
1022.7251000000001
 11
926.31189999999992
 21
1022.7251000000001
  0
LINE
  8
_0-2_LAYER004
  6
CONTINUOUS
 62
    2
 10
926.31189999999992
 20
1022.7251000000001
 11
926.31189999999992
 21
1019.7251000000001
  0
LINE
  8
_0-2_LAYER004
  6
CONTINUOUS
 62
    2
 10
926.31189999999992
 20
1019.7251000000001
 11
902.31189999999992
 21
1019.7251000000001
  0
LINE
  8
_0-2_LAYER004
  6
CONTINUOUS
 62
    2
 10
902.31189999999992
 20
1019.7251000000001
 11
926.31189999999992
 21
1022.7251000000001
  0
LINE
  8
_0-2_LAYER004
  6
CONTINUOUS
 62
    2
 10
1836.9549000000002
 20
1260.558
 11
1836.9549000000002
 21
1431.7511
  0
LINE
  8
_0-2_LAYER004
  6
CONTINUOUS
 62
    2
 10
1836.9549000000002
 20
1240.558
 11
1836.9549000000002
 21
1141.0233000000001
  0
LINE
  8
_0-5_LAYER007
  6
CONTINUOUS
 62
    2
 10
1861.9549000000002
 20
1250.558
 11
1861.9549000000002
 21
983.58909999999992
  0
LINE
  8
_0-2_LAYER004
  6
CONTINUOUS
 62
    2
 10
1836.9549000000002
 20
1336.5960999999998
 11
1919.5219000000002
 21
1419.1631000000002
  0
LINE
  8
_0-2_LAYER004
  6
CONTINUOUS
 62
    2
 10
1836.9549000000002
 20
1347.9101000000001
 11
1919.5219000000002
 21
1430.4771000000001
  0
LINE
  8
_0-2_LAYER004
  6
CONTINUOUS
 62
    2
 10
1836.9549000000002
 20
1359.2230999999997
 11
1919.5219000000002
 21
1441.7910999999999
  0
LINE
  8
_0-2_LAYER004
  6
CONTINUOUS
 62
    2
 10
1861.9549000000002
 20
843.58909999999992
 11
1060.7199000000001
 21
843.58909999999992
  0
LINE
  8
_0-2_LAYER004
  6
CONTINUOUS
 62
    2
 10
1060.7199000000001
 20
843.58909999999992
 11
833.03490000000011
 21
843.58909999999992
  0
LINE
  8
_0-2_LAYER004
  6
CONTINUOUS
 62
    2
 10
1035.3208999999999
 20
973.58909999999992
 11
905.32089999999994
 21
843.58909999999992
  0
LINE
  8
_0-2_LAYER004
  6
CONTINUOUS
 62
    2
 10
1012.6939
 20
973.58909999999992
 11
882.69389999999999
 21
843.58909999999992
  0
LINE
  8
_0-2_LAYER004
  6
CONTINUOUS
 62
    2
 10
1024.0079000000001
 20
973.58909999999992
 11
894.00790000000006
 21
843.58909999999992
  0
LINE
  8
_0-2_LAYER004
  6
CONTINUOUS
 62
    2
 10
1476.9868999999999
 20
973.58909999999992
 11
1346.9868999999999
 21
843.58909999999992
  0
LINE
  8
_0-2_LAYER004
  6
CONTINUOUS
 62
    2
 10
1454.3589000000002
 20
973.58909999999992
 11
1324.3588999999999
 21
843.58909999999992
  0
LINE
  8
_0-2_LAYER004
  6
CONTINUOUS
 62
    2
 10
1465.6729
 20
973.58909999999992
 11
1335.6729
 21
843.58909999999992
  0
LINE
  8
_0-0_LAYER001
  6
CONTINUOUS
 62
    2
 10
1983.7664
 20
1085.2157
 11
1966.2664
 21
1085.2157
  0
CIRCLE
  8
_0-0_LAYER001
  6
CONTINUOUS
 62
    2
 10
1981.2664
 20
1085.2157
 40
1.6999999999999997
  0
LINE
  8
_0-0_LAYER001
  6
CONTINUOUS
 62
    2
 10
1981.2664
 20
1085.2157
 11
1981.2664
 21
1013.5890999999999
  0
CIRCLE
  8
_0-0_LAYER001
  6
CONTINUOUS
 62
    2
 10
1981.2664
 20
1013.5890999999999
 40
1.6999999999999997
  0
LINE
  8
_0-0_LAYER001
  6
CONTINUOUS
 62
    2
 10
1983.7664
 20
1013.5890999999999
 11
1966.2664
 21
1013.5890999999999
  0
LINE
  8
_0-0_LAYER001
  6
CONTINUOUS
 62
    2
 10
994.17000000000007
 20
769.53330000000005
 11
994.17000000000007
 21
822.03330000000005
  0
CIRCLE
  8
_0-0_LAYER001
  6
CONTINUOUS
 62
    2
 10
994.17000000000007
 20
772.03330000000005
 40
1.6999999999999997
  0
LINE
  8
_0-0_LAYER001
  6
CONTINUOUS
 62
    2
 10
994.17000000000007
 20
772.03330000000005
 11
1259.1700000000001
 21
772.03330000000005
  0
CIRCLE
  8
_0-0_LAYER001
  6
CONTINUOUS
 62
    2
 10
1259.1700000000001
 20
772.03330000000005
 40
1.6999999999999997
  0
LINE
  8
_0-0_LAYER001
  6
CONTINUOUS
 62
    2
 10
1259.1700000000001
 20
769.53330000000005
 11
1259.1700000000001
 21
822.03330000000005
  0
CIRCLE
  8
_0-0_LAYER001
  6
CONTINUOUS
 62
    2
 10
1259.1700000000001
 20
772.03330000000005
 40
1.6999999999999997
  0
LINE
  8
_0-0_LAYER001
  6
CONTINUOUS
 62
    2
 10
1259.1700000000001
 20
772.03330000000005
 11
1524.1700000000001
 21
772.03330000000005
  0
CIRCLE
  8
_0-0_LAYER001
  6
CONTINUOUS
 62
    2
 10
1524.1700000000001
 20
772.03330000000005
 40
1.6999999999999997
  0
LINE
  8
_0-0_LAYER001
  6
CONTINUOUS
 62
    2
 10
1524.1700000000001
 20
769.53330000000005
 11
1524.1700000000001
 21
822.03330000000005
  0
CIRCLE
  8
_0-0_LAYER001
  6
CONTINUOUS
 62
    2
 10
1524.1700000000001
 20
772.03330000000005
 40
1.6999999999999997
  0
LINE
  8
_0-0_LAYER001
  6
CONTINUOUS
 62
    2
 10
1524.1700000000001
 20
772.03330000000005
 11
1829.1700000000001
 21
772.03330000000005
  0
CIRCLE
  8
_0-0_LAYER001
  6
CONTINUOUS
 62
    2
 10
1829.1700000000001
 20
772.03330000000005
 40
1.6999999999999997
  0
LINE
  8
_0-0_LAYER001
  6
CONTINUOUS
 62
    2
 10
1829.1700000000001
 20
769.53330000000005
 11
1829.1700000000001
 21
822.03330000000005
  0
LINE
  8
_0-0_LAYER001
  6
CONTINUOUS
 62
    4
 10
1789.4542999999999
 20
1078.0524
 11
1789.4542999999999
 21
1095.2497000000001
  0
LINE
  8
_0-0_LAYER001
  6
CONTINUOUS
 62
    4
 10
1649.7276999999999
 20
1034.213
 11
1641.1922
 21
1048.7463
  0
LINE
  8
_0-0_LAYER001
  6
CONTINUOUS
 62
    4
 10
1657.8955000000001
 20
1033.5626999999999
 11
1666.2017000000001
 21
1043.6282000000001
  0
ARC
  8
_0-0_LAYER001
  6
CONTINUOUS
 62
    4
 10
1654.0391
 20
1036.7451000000001
 40
5
 50
210.42578
 51
320.47001
  0
LINE
  8
_0-0_LAYER001
  6
CONTINUOUS
 62
    4
 10
1733.8411000000001
 20
1033.0927999999999
 11
1726.5158000000001
 21
1044.3988999999999
  0
LINE
  8
_0-0_LAYER001
  6
CONTINUOUS
 62
    4
 10
1742.3507
 20
1033.2828
 11
1751.2891
 21
1048.5283999999999
  0
ARC
  8
_0-0_LAYER001
  6
CONTINUOUS
 62
    4
 10
1738.0374000000002
 20
1035.8116
 40
5
 50
212.93986000000001
 51
329.61716000000001
  0
LINE
  8
_0-0_LAYER001
  6
CONTINUOUS
 62
    4
 10
1781.6327000000001
 20
1072.8404
 11
1784.0608000000002
 21
1073.2443000000001
  0
LINE
  8
_0-0_LAYER001
  6
CONTINUOUS
 62
    4
 10
1777.4436999999998
 20
1072.1441
 11
1781.6327000000001
 21
1072.8404
  0
LINE
  8
_0-0_LAYER001
  6
CONTINUOUS
 62
    4
 10
1773.2498999999998
 20
1071.4485999999999
 11
1777.4436999999998
 21
1072.1441
  0
LINE
  8
_0-0_LAYER001
  6
CONTINUOUS
 62
    4
 10
1769.0511000000001
 20
1070.7546
 11
1773.2498999999998
 21
1071.4485999999999
  0
LINE
  8
_0-0_LAYER001
  6
CONTINUOUS
 62
    4
 10
1764.8471
 20
1070.0631000000001
 11
1769.0511000000001
 21
1070.7546
  0
LINE
  8
_0-0_LAYER001
  6
CONTINUOUS
 62
    4
 10
1760.6401999999998
 20
1069.3755000000001
 11
1764.8471
 21
1070.0631000000001
  0
LINE
  8
_0-0_LAYER001
  6
CONTINUOUS
 62
    4
 10
1758.1878999999999
 20
1068.9770000000001
 11
1760.6401999999998
 21
1069.3755000000001
  0
LINE
  8
_0-0_LAYER001
  6
CONTINUOUS
 62
    4
 10
1753.4551999999999
 20
1068.2145
 11
1758.1878999999999
 21
1068.9770000000001
  0
LINE
  8
_0-0_LAYER001
  6
CONTINUOUS
 62
    4
 10
1745.2507000000001
 20
1066.9305999999999
 11
1753.4551999999999
 21
1068.2145
  0
LINE
  8
_0-0_LAYER001
  6
CONTINUOUS
 62
    4
 10
1736.9432999999999
 20
1065.7108000000001
 11
1745.2507000000001
 21
1066.9305999999999
  0
LINE
  8
_0-0_LAYER001
  6
CONTINUOUS
 62
    4
 10
1728.5349999999999
 20
1064.5944
 11
1736.9432999999999
 21
1065.7108000000001
  0
LINE
  8
_0-0_LAYER001
  6
CONTINUOUS
 62
    4
 10
1720.0223999999998
 20
1063.6211000000001
 11
1728.5349999999999
 21
1064.5944
  0
LINE
  8
_0-0_LAYER001
  6
CONTINUOUS
 62
    4
 10
1711.4632999999999
 20
1062.8371
 11
1720.0223999999998
 21
1063.6211000000001
  0
LINE
  8
_0-0_LAYER001
  6
CONTINUOUS
 62
    4
 10
1706.4016999999999
 20
1062.479
 11
1711.4632999999999
 21
1062.8371
  0
LINE
  8
_0-0_LAYER001
  6
CONTINUOUS
 62
    4
 10
1703.5992000000001
 20
1062.3173999999999
 11
1706.4016999999999
 21
1062.479
  0
LINE
  8
_0-0_LAYER001
  6
CONTINUOUS
 62
    4
 10
1698.8780999999999
 20
1062.1134999999999
 11
1703.5992000000001
 21
1062.3173999999999
  0
LINE
  8
_0-0_LAYER001
  6
CONTINUOUS
 62
    4
 10
1694.0488999999998
 20
1062.008
 11
1698.8780999999999
 21
1062.1134999999999
  0
LINE
  8
_0-0_LAYER001
  6
CONTINUOUS
 62
    4
 10
1689.1473000000001
 20
1062.0234
 11
1694.0488999999998
 21
1062.008
  0
LINE
  8
_0-0_LAYER001
  6
CONTINUOUS
 62
    4
 10
1684.1761999999999
 20
1062.1813
 11
1689.1473000000001
 21
1062.0234
  0
LINE
  8
_0-0_LAYER001
  6
CONTINUOUS
 62
    4
 10
1679.2188000000001
 20
1062.499
 11
1684.1761999999999
 21
1062.1813
  0
LINE
  8
_0-0_LAYER001
  6
CONTINUOUS
 62
    4
 10
1676.1671999999999
 20
1062.7805000000001
 11
1679.2188000000001
 21
1062.499
  0
LINE
  8
_0-0_LAYER001
  6
CONTINUOUS
 62
    4
 10
1672.2383
 20
1063.2427
 11
1676.1671999999999
 21
1062.7805000000001
  0
LINE
  8
_0-0_LAYER001
  6
CONTINUOUS
 62
    4
 10
1665.7244000000001
 20
1064.2653
 11
1672.2383
 21
1063.2427
  0
LINE
  8
_0-0_LAYER001
  6
CONTINUOUS
 62
    4
 10
1659.1777999999999
 20
1065.6174000000001
 11
1665.7244000000001
 21
1064.2653
  0
LINE
  8
_0-0_LAYER001
  6
CONTINUOUS
 62
    4
 10
1652.7148000000002
 20
1067.2733000000001
 11
1659.1777999999999
 21
1065.6174000000001
  0
LINE
  8
_0-0_LAYER001
  6
CONTINUOUS
 62
    4
 10
1646.3489
 20
1069.2239999999999
 11
1652.7148000000002
 21
1067.2733000000001
  0
LINE
  8
_0-0_LAYER001
  6
CONTINUOUS
 62
    4
 10
1640.1840999999999
 20
1071.4289000000001
 11
1646.3489
 21
1069.2239999999999
  0
LINE
  8
_0-0_LAYER001
  6
CONTINUOUS
 62
    4
 10
1636.4974999999999
 20
1072.9006999999999
 11
1640.1840999999999
 21
1071.4289000000001
  0
LINE
  8
_0-0_LAYER001
  6
CONTINUOUS
 62
    4
 10
1632.1332000000002
 20
1074.7932000000001
 11
1636.4974999999999
 21
1072.9006999999999
  0
LINE
  8
_0-0_LAYER001
  6
CONTINUOUS
 62
    4
 10
1625.0641999999998
 20
1078.2082
 11
1632.1332000000002
 21
1074.7932000000001
  0
LINE
  8
_0-0_LAYER001
  6
CONTINUOUS
 62
    4
 10
1618.1713
 20
1081.9377999999999
 11
1625.0641999999998
 21
1078.2082
  0
LINE
  8
_0-0_LAYER001
  6
CONTINUOUS
 62
    4
 10
1611.5342999999998
 20
1085.8715
 11
1618.1713
 21
1081.9377999999999
  0
LINE
  8
_0-0_LAYER001
  6
CONTINUOUS
 62
    4
 10
1605.1248999999998
 20
1089.9539
 11
1611.5342999999998
 21
1085.8715
  0
LINE
  8
_0-0_LAYER001
  6
CONTINUOUS
 62
    4
 10
1598.9407000000001
 20
1094.116
 11
1605.1248999999998
 21
1089.9539
  0
LINE
  8
_0-0_LAYER001
  6
CONTINUOUS
 62
    4
 10
1595.3984
 20
1096.5798
 11
1598.9407000000001
 21
1094.116
  0
LINE
  8
_0-0_LAYER001
  6
CONTINUOUS
 62
    4
 10
1593.1664000000001
 20
1098.1532
 11
1595.3984
 21
1096.5798
  0
LINE
  8
_0-0_LAYER001
  6
CONTINUOUS
 62
    4
 10
1589.5428000000002
 20
1100.6923999999999
 11
1593.1664000000001
 21
1098.1532
  0
LINE
  8
_0-0_LAYER001
  6
CONTINUOUS
 62
    4
 10
1586.1732000000002
 20
1102.9579000000001
 11
1589.5428000000002
 21
1100.6923999999999
  0
LINE
  8
_0-0_LAYER001
  6
CONTINUOUS
 62
    4
 10
1583.0581999999999
 20
1104.885
 11
1586.1732000000002
 21
1102.9579000000001
  0
LINE
  8
_0-0_LAYER001
  6
CONTINUOUS
 62
    4
 10
1580.1909999999998
 20
1106.4407000000001
 11
1583.0581999999999
 21
1104.885
  0
LINE
  8
_0-0_LAYER001
  6
CONTINUOUS
 62
    4
 10
1577.3598000000002
 20
1107.7092
 11
1580.1909999999998
 21
1106.4407000000001
  0
LINE
  8
_0-0_LAYER001
  6
CONTINUOUS
 62
    4
 10
1575.8966
 20
1108.2412999999999
 11
1577.3598000000002
 21
1107.7092
  0
LINE
  8
_0-0_LAYER001
  6
CONTINUOUS
 62
    4
 10
1575.7154999999998
 20
1108.2992999999999
 11
1575.8966
 21
1108.2412999999999
  0
LINE
  8
_0-0_LAYER001
  6
CONTINUOUS
 62
    4
 10
1574.9272999999998
 20
1108.5272
 11
1575.7154999999998
 21
1108.2992999999999
  0
LINE
  8
_0-0_LAYER001
  6
CONTINUOUS
 62
    4
 10
1574.2701000000002
 20
1108.6899000000001
 11
1574.9272999999998
 21
1108.5272
  0
LINE
  8
_0-0_LAYER001
  6
CONTINUOUS
 62
    4
 10
1573.6882999999998
 20
1108.8079
 11
1574.2701000000002
 21
1108.6899000000001
  0
LINE
  8
_0-0_LAYER001
  6
CONTINUOUS
 62
    4
 10
1573.6482999999998
 20
1108.8141000000001
 11
1573.6882999999998
 21
1108.8079
  0
LINE
  8
_0-0_LAYER001
  6
CONTINUOUS
 62
    4
 10
1777.6221
 20
1053.6529
 11
1779.2361999999998
 21
1053.9213999999999
  0
LINE
  8
_0-0_LAYER001
  6
CONTINUOUS
 62
    4
 10
1773.4335000000001
 20
1052.9567
 11
1777.6221
 21
1053.6529
  0
LINE
  8
_0-0_LAYER001
  6
CONTINUOUS
 62
    4
 10
1769.2406000000001
 20
1052.2612999999999
 11
1773.4335000000001
 21
1052.9567
  0
LINE
  8
_0-0_LAYER001
  6
CONTINUOUS
 62
    4
 10
1765.0432000000001
 20
1051.5676000000001
 11
1769.2406000000001
 21
1052.2612999999999
  0
LINE
  8
_0-0_LAYER001
  6
CONTINUOUS
 62
    4
 10
1760.8409000000001
 20
1050.8764000000001
 11
1765.0432000000001
 21
1051.5676000000001
  0
LINE
  8
_0-0_LAYER001
  6
CONTINUOUS
 62
    4
 10
1756.6359000000002
 20
1050.1890000000001
 11
1760.8409000000001
 21
1050.8764000000001
  0
LINE
  8
_0-0_LAYER001
  6
CONTINUOUS
 62
    4
 10
1754.1858999999999
 20
1049.7909
 11
1756.6359000000002
 21
1050.1890000000001
  0
LINE
  8
_0-0_LAYER001
  6
CONTINUOUS
 62
    4
 10
1749.4589000000001
 20
1049.0293999999999
 11
1754.1858999999999
 21
1049.7909
  0
LINE
  8
_0-0_LAYER001
  6
CONTINUOUS
 62
    4
 10
1741.2683000000002
 20
1047.7475999999999
 11
1749.4589000000001
 21
1049.0293999999999
  0
LINE
  8
_0-0_LAYER001
  6
CONTINUOUS
 62
    4
 10
1732.9838
 20
1046.5311999999999
 11
1741.2683000000002
 21
1047.7475999999999
  0
LINE
  8
_0-0_LAYER001
  6
CONTINUOUS
 62
    4
 10
1724.6071999999999
 20
1045.4190000000001
 11
1732.9838
 21
1046.5311999999999
  0
LINE
  8
_0-0_LAYER001
  6
CONTINUOUS
 62
    4
 10
1716.1350000000002
 20
1044.4503
 11
1724.6071999999999
 21
1045.4190000000001
  0
LINE
  8
_0-0_LAYER001
  6
CONTINUOUS
 62
    4
 10
1707.6188999999999
 20
1043.6702
 11
1716.1350000000002
 21
1044.4503
  0
LINE
  8
_0-0_LAYER001
  6
CONTINUOUS
 62
    4
 10
1702.5909999999999
 20
1043.3145999999999
 11
1707.6188999999999
 21
1043.6702
  0
LINE
  8
_0-0_LAYER001
  6
CONTINUOUS
 62
    4
 10
1699.8157999999999
 20
1043.1546000000001
 11
1702.5909999999999
 21
1043.3145999999999
  0
LINE
  8
_0-0_LAYER001
  6
CONTINUOUS
 62
    4
 10
1695.1305000000002
 20
1042.9521
 11
1699.8157999999999
 21
1043.1546000000001
  0
LINE
  8
_0-0_LAYER001
  6
CONTINUOUS
 62
    4
 10
1690.3476000000001
 20
1042.8477
 11
1695.1305000000002
 21
1042.9521
  0
LINE
  8
_0-0_LAYER001
  6
CONTINUOUS
 62
    4
 10
1685.4996000000001
 20
1042.8629000000001
 11
1690.3476000000001
 21
1042.8477
  0
LINE
  8
_0-0_LAYER001
  6
CONTINUOUS
 62
    4
 10
1680.5893999999998
 20
1043.0189
 11
1685.4996000000001
 21
1042.8629000000001
  0
LINE
  8
_0-0_LAYER001
  6
CONTINUOUS
 62
    4
 10
1675.6921000000002
 20
1043.3326999999999
 11
1680.5893999999998
 21
1043.0189
  0
LINE
  8
_0-0_LAYER001
  6
CONTINUOUS
 62
    4
 10
1672.6932999999999
 20
1043.6093000000001
 11
1675.6921000000002
 21
1043.3326999999999
  0
LINE
  8
_0-0_LAYER001
  6
CONTINUOUS
 62
    4
 10
1668.8278
 20
1044.0641000000001
 11
1672.6932999999999
 21
1043.6093000000001
  0
LINE
  8
_0-0_LAYER001
  6
CONTINUOUS
 62
    4
 10
1662.3993999999998
 20
1045.0732
 11
1668.8278
 21
1044.0641000000001
  0
LINE
  8
_0-0_LAYER001
  6
CONTINUOUS
 62
    4
 10
1655.9459000000002
 20
1046.4060999999999
 11
1662.3993999999998
 21
1045.0732
  0
LINE
  8
_0-0_LAYER001
  6
CONTINUOUS
 62
    4
 10
1649.5736999999999
 20
1048.0387000000001
 11
1655.9459000000002
 21
1046.4060999999999
  0
LINE
  8
_0-0_LAYER001
  6
CONTINUOUS
 62
    4
 10
1643.2964000000002
 20
1049.9622999999999
 11
1649.5736999999999
 21
1048.0387000000001
  0
LINE
  8
_0-0_LAYER001
  6
CONTINUOUS
 62
    4
 10
1637.2093
 20
1052.1395
 11
1643.2964000000002
 21
1049.9622999999999
  0
LINE
  8
_0-0_LAYER001
  6
CONTINUOUS
 62
    4
 10
1633.5837000000001
 20
1053.5869
 11
1637.2093
 21
1052.1395
  0
LINE
  8
_0-0_LAYER001
  6
CONTINUOUS
 62
    4
 10
1629.2838000000002
 20
1055.4514999999999
 11
1633.5837000000001
 21
1053.5869
  0
LINE
  8
_0-0_LAYER001
  6
CONTINUOUS
 62
    4
 10
1622.2928999999999
 20
1058.8287
 11
1629.2838000000002
 21
1055.4514999999999
  0
LINE
  8
_0-0_LAYER001
  6
CONTINUOUS
 62
    4
 10
1615.4748
 20
1062.5178000000001
 11
1622.2928999999999
 21
1058.8287
  0
LINE
  8
_0-0_LAYER001
  6
CONTINUOUS
 62
    4
 10
1608.8989999999999
 20
1066.4151999999999
 11
1615.4748
 21
1062.5178000000001
  0
LINE
  8
_0-0_LAYER001
  6
CONTINUOUS
 62
    4
 10
1602.5381000000002
 20
1070.4667999999999
 11
1608.8989999999999
 21
1066.4151999999999
  0
LINE
  8
_0-0_LAYER001
  6
CONTINUOUS
 62
    4
 10
1596.3874999999998
 20
1074.6062999999999
 11
1602.5381000000002
 21
1070.4667999999999
  0
LINE
  8
_0-0_LAYER001
  6
CONTINUOUS
 62
    4
 10
1592.8629999999998
 20
1077.0577000000001
 11
1596.3874999999998
 21
1074.6062999999999
  0
LINE
  8
_0-0_LAYER001
  6
CONTINUOUS
 62
    4
 10
1590.6338999999998
 20
1078.6291000000001
 11
1592.8629999999998
 21
1077.0577000000001
  0
LINE
  8
_0-0_LAYER001
  6
CONTINUOUS
 62
    4
 10
1586.9922000000001
 20
1081.181
 11
1590.6338999999998
 21
1078.6291000000001
  0
LINE
  8
_0-0_LAYER001
  6
CONTINUOUS
 62
    4
 10
1583.5749999999998
 20
1083.4784
 11
1586.9922000000001
 21
1081.181
  0
LINE
  8
_0-0_LAYER001
  6
CONTINUOUS
 62
    4
 10
1580.3793999999998
 20
1085.4554000000001
 11
1583.5749999999998
 21
1083.4784
  0
LINE
  8
_0-0_LAYER001
  6
CONTINUOUS
 62
    4
 10
1577.3955000000001
 20
1087.0744999999999
 11
1580.3793999999998
 21
1085.4554000000001
  0
LINE
  8
_0-0_LAYER001
  6
CONTINUOUS
 62
    4
 10
1574.4288999999999
 20
1088.4036000000001
 11
1577.3955000000001
 21
1087.0744999999999
  0
LINE
  8
_0-0_LAYER001
  6
CONTINUOUS
 62
    4
 10
1573.6788999999999
 20
1088.6763000000001
 11
1574.4288999999999
 21
1088.4036000000001
  0
LINE
  8
_0-0_LAYER001
  6
CONTINUOUS
 62
    4
 10
1574.0120000000002
 20
1108.7194999999999
 11
1573.8359999999998
 21
1088.546
  0
LINE
  8
_0-0_LAYER001
  6
CONTINUOUS
 62
    4
 10
1774.3375999999998
 20
1043.2317
 11
1772.0922
 21
1051.8051
  0
ARC
  8
_0-0_LAYER001
  6
CONTINUOUS
 62
    4
 10
1777.2397000000001
 20
1043.9918
 40
3
 50
194.67639000000003
 51
270.00000000000006
  0
LINE
  8
_0-0_LAYER001
  6
CONTINUOUS
 62
    4
 10
1780.6822000000002
 20
1040.9874
 11
1777.2644
 21
1040.9874
  0
LINE
  8
_0-0_LAYER001
  6
CONTINUOUS
 62
    4
 10
1783.6414
 20
1043.4943000000001
 11
1785.5754000000002
 21
1055.0984000000001
  0
ARC
  8
_0-0_LAYER001
  6
CONTINUOUS
 62
    4
 10
1780.6822000000002
 20
1043.9874
 40
3
 50
270
 51
350.53766999999999
  0
LINE
  8
_0-0_LAYER001
  6
CONTINUOUS
 62
    4
 10
1526.9158000000002
 20
1118.1096
 11
1527.7298000000001
 21
1118.4163000000001
  0
LINE
  8
_0-0_LAYER001
  6
CONTINUOUS
 62
    4
 10
1527.7298000000001
 20
1118.4163000000001
 11
1531.279
 21
1119.7559000000001
  0
LINE
  8
_0-0_LAYER001
  6
CONTINUOUS
 62
    4
 10
1531.279
 20
1119.7559000000001
 11
1534.8355999999999
 21
1121.1048000000001
  0
LINE
  8
_0-0_LAYER001
  6
CONTINUOUS
 62
    4
 10
1534.8355999999999
 20
1121.1048000000001
 11
1538.4043000000001
 21
1122.4688000000001
  0
LINE
  8
_0-0_LAYER001
  6
CONTINUOUS
 62
    4
 10
1538.4043000000001
 20
1122.4688000000001
 11
1541.9895999999999
 21
1123.8539000000001
  0
LINE
  8
_0-0_LAYER001
  6
CONTINUOUS
 62
    4
 10
1541.9895999999999
 20
1123.8539000000001
 11
1545.5963999999999
 21
1125.2659000000001
  0
LINE
  8
_0-0_LAYER001
  6
CONTINUOUS
 62
    4
 10
1545.5963999999999
 20
1125.2659000000001
 11
1547.6999000000001
 21
1126.0994000000001
  0
LINE
  8
_0-0_LAYER001
  6
CONTINUOUS
 62
    4
 10
1547.6999000000001
 20
1126.0994000000001
 11
1549.7791999999999
 21
1126.9283
  0
LINE
  8
_0-0_LAYER001
  6
CONTINUOUS
 62
    4
 10
1549.7791999999999
 20
1126.9283
 11
1553.3858
 21
1128.3298
  0
LINE
  8
_0-0_LAYER001
  6
CONTINUOUS
 62
    4
 10
1553.3858
 20
1128.3298
 11
1557.0185000000001
 21
1129.6125
  0
LINE
  8
_0-0_LAYER001
  6
CONTINUOUS
 62
    4
 10
1557.0185000000001
 20
1129.6125
 11
1560.6763999999998
 21
1130.6791000000001
  0
LINE
  8
_0-0_LAYER001
  6
CONTINUOUS
 62
    4
 10
1560.6763999999998
 20
1130.6791000000001
 11
1564.3586
 21
1131.4323999999999
  0
LINE
  8
_0-0_LAYER001
  6
CONTINUOUS
 62
    4
 10
1564.3586
 20
1131.4323999999999
 11
1568.0637999999999
 21
1131.7748999999999
  0
LINE
  8
_0-0_LAYER001
  6
CONTINUOUS
 62
    4
 10
1568.0637999999999
 20
1131.7748999999999
 11
1570.2231000000002
 21
1131.7470000000001
  0
LINE
  8
_0-0_LAYER001
  6
CONTINUOUS
 62
    4
 10
1570.2231000000002
 20
1131.7470000000001
 11
1571.0722999999998
 21
1131.6856
  0
LINE
  8
_0-0_LAYER001
  6
CONTINUOUS
 62
    4
 10
1571.0722999999998
 20
1131.6856
 11
1572.5365999999999
 21
1131.5150000000001
  0
LINE
  8
_0-0_LAYER001
  6
CONTINUOUS
 62
    4
 10
1572.5365999999999
 20
1131.5150000000001
 11
1573.9976999999999
 21
1131.2683
  0
LINE
  8
_0-0_LAYER001
  6
CONTINUOUS
 62
    4
 10
1573.9976999999999
 20
1131.2683
 11
1575.4513999999999
 21
1130.9522999999999
  0
LINE
  8
_0-0_LAYER001
  6
CONTINUOUS
 62
    4
 10
1575.4513999999999
 20
1130.9522999999999
 11
1576.8935000000001
 21
1130.5737999999999
  0
LINE
  8
_0-0_LAYER001
  6
CONTINUOUS
 62
    4
 10
1576.8935000000001
 20
1130.5737999999999
 11
1578.3200000000002
 21
1130.1396
  0
LINE
  8
_0-0_LAYER001
  6
CONTINUOUS
 62
    4
 10
1578.3200000000002
 20
1130.1396
 11
1579.1383999999998
 21
1129.865
  0
LINE
  8
_0-0_LAYER001
  6
CONTINUOUS
 62
    4
 10
1579.1383999999998
 20
1129.865
 11
1581.6367
 21
1128.9168
  0
LINE
  8
_0-0_LAYER001
  6
CONTINUOUS
 62
    4
 10
1581.6367
 20
1128.9168
 11
1585.7955999999999
 21
1126.9831999999999
  0
LINE
  8
_0-0_LAYER001
  6
CONTINUOUS
 62
    4
 10
1585.7955999999999
 20
1126.9831999999999
 11
1589.7993999999999
 21
1124.7379000000001
  0
LINE
  8
_0-0_LAYER001
  6
CONTINUOUS
 62
    4
 10
1589.7993999999999
 20
1124.7379000000001
 11
1593.6862999999998
 21
1122.2575999999999
  0
LINE
  8
_0-0_LAYER001
  6
CONTINUOUS
 62
    4
 10
1593.6862999999998
 20
1122.2575999999999
 11
1597.4942999999998
 21
1119.6194
  0
LINE
  8
_0-0_LAYER001
  6
CONTINUOUS
 62
    4
 10
1597.4942999999998
 20
1119.6194
 11
1601.2615000000001
 21
1116.9004
  0
LINE
  8
_0-0_LAYER001
  6
CONTINUOUS
 62
    4
 10
1601.2615000000001
 20
1116.9004
 11
1603.4429
 21
1115.3166000000001
  0
LINE
  8
_0-0_LAYER001
  6
CONTINUOUS
 62
    4
 10
1603.4429
 20
1115.3166000000001
 11
1606.7743999999998
 21
1112.9296999999999
  0
LINE
  8
_0-0_LAYER001
  6
CONTINUOUS
 62
    4
 10
1606.7743999999998
 20
1112.9296999999999
 11
1612.5666999999999
 21
1108.9128000000001
  0
LINE
  8
_0-0_LAYER001
  6
CONTINUOUS
 62
    4
 10
1612.5666999999999
 20
1108.9128000000001
 11
1618.4387999999999
 21
1105.0562
  0
LINE
  8
_0-0_LAYER001
  6
CONTINUOUS
 62
    4
 10
1618.4387999999999
 20
1105.0562
 11
1624.413
 21
1101.4016999999999
  0
LINE
  8
_0-0_LAYER001
  6
CONTINUOUS
 62
    4
 10
1624.413
 20
1101.4016999999999
 11
1630.5111999999999
 21
1097.9911999999999
  0
LINE
  8
_0-0_LAYER001
  6
CONTINUOUS
 62
    4
 10
1630.5111999999999
 20
1097.9911999999999
 11
1636.7555000000002
 21
1094.8664000000001
  0
LINE
  8
_0-0_LAYER001
  6
CONTINUOUS
 62
    4
 10
1636.7555000000002
 20
1094.8664000000001
 11
1640.4528
 21
1093.2013999999999
  0
LINE
  8
_0-0_LAYER001
  6
CONTINUOUS
 62
    4
 10
1640.4528
 20
1093.2013999999999
 11
1643.5120000000002
 21
1091.9303
  0
LINE
  8
_0-0_LAYER001
  6
CONTINUOUS
 62
    4
 10
1643.5120000000002
 20
1091.9303
 11
1648.8724999999999
 21
1089.9281000000001
  0
LINE
  8
_0-0_LAYER001
  6
CONTINUOUS
 62
    4
 10
1648.8724999999999
 20
1089.9281000000001
 11
1654.3281999999999
 21
1088.1726000000001
  0
LINE
  8
_0-0_LAYER001
  6
CONTINUOUS
 62
    4
 10
1654.3281999999999
 20
1088.1726000000001
 11
1659.8631999999998
 21
1086.6719000000001
  0
LINE
  8
_0-0_LAYER001
  6
CONTINUOUS
 62
    4
 10
1659.8631999999998
 20
1086.6719000000001
 11
1665.4614999999999
 21
1085.4338
  0
LINE
  8
_0-0_LAYER001
  6
CONTINUOUS
 62
    4
 10
1665.4614999999999
 20
1085.4338
 11
1671.1071999999999
 21
1084.4666
  0
LINE
  8
_0-0_LAYER001
  6
CONTINUOUS
 62
    4
 10
1671.1071999999999
 20
1084.4666
 11
1674.3971999999999
 21
1084.0328999999999
  0
LINE
  8
_0-0_LAYER001
  6
CONTINUOUS
 62
    4
 10
1674.3971999999999
 20
1084.0328999999999
 11
1676.9164999999998
 21
1083.7650000000001
  0
LINE
  8
_0-0_LAYER001
  6
CONTINUOUS
 62
    4
 10
1676.9164999999998
 20
1083.7650000000001
 11
1681.2685999999999
 21
1083.425
  0
LINE
  8
_0-0_LAYER001
  6
CONTINUOUS
 62
    4
 10
1681.2685999999999
 20
1083.425
 11
1685.6288
 21
1083.2256
  0
LINE
  8
_0-0_LAYER001
  6
CONTINUOUS
 62
    4
 10
1685.6288
 20
1083.2256
 11
1689.9940000000001
 21
1083.1509000000001
  0
LINE
  8
_0-0_LAYER001
  6
CONTINUOUS
 62
    4
 10
1689.9940000000001
 20
1083.1509000000001
 11
1694.3611000000001
 21
1083.1853000000001
  0
LINE
  8
_0-0_LAYER001
  6
CONTINUOUS
 62
    4
 10
1694.3611000000001
 20
1083.1853000000001
 11
1698.7269999999999
 21
1083.3128999999999
  0
LINE
  8
_0-0_LAYER001
  6
CONTINUOUS
 62
    4
 10
1698.7269999999999
 20
1083.3128999999999
 11
1701.2575000000002
 21
1083.4233999999999
  0
LINE
  8
_0-0_LAYER001
  6
CONTINUOUS
 62
    4
 10
1701.2575000000002
 20
1083.4233999999999
 11
1705.9866000000002
 21
1083.6914999999999
  0
LINE
  8
_0-0_LAYER001
  6
CONTINUOUS
 62
    4
 10
1705.9866000000002
 20
1083.6914999999999
 11
1714.1246999999998
 21
1084.3225
  0
LINE
  8
_0-0_LAYER001
  6
CONTINUOUS
 62
    4
 10
1714.1246999999998
 20
1084.3225
 11
1722.2455
 21
1085.1364000000001
  0
LINE
  8
_0-0_LAYER001
  6
CONTINUOUS
 62
    4
 10
1722.2455
 20
1085.1364000000001
 11
1730.3512999999998
 21
1086.0977
  0
LINE
  8
_0-0_LAYER001
  6
CONTINUOUS
 62
    4
 10
1730.3512999999998
 20
1086.0977
 11
1738.4448000000002
 21
1087.1709000000001
  0
LINE
  8
_0-0_LAYER001
  6
CONTINUOUS
 62
    4
 10
1738.4448000000002
 20
1087.1709000000001
 11
1746.5282999999999
 21
1088.3204000000001
  0
LINE
  8
_0-0_LAYER001
  6
CONTINUOUS
 62
    4
 10
1746.5282999999999
 20
1088.3204000000001
 11
1751.2132000000001
 21
1089.0082
  0
LINE
  8
_0-0_LAYER001
  6
CONTINUOUS
 62
    4
 10
1751.2132000000001
 20
1089.0082
 11
1753.6480999999999
 21
1089.3690999999999
  0
LINE
  8
_0-0_LAYER001
  6
CONTINUOUS
 62
    4
 10
1753.6480999999999
 20
1089.3690999999999
 11
1757.8451
 21
1089.9951000000001
  0
LINE
  8
_0-0_LAYER001
  6
CONTINUOUS
 62
    4
 10
1757.8451
 20
1089.9951000000001
 11
1762.0409
 21
1090.6251999999999
  0
LINE
  8
_0-0_LAYER001
  6
CONTINUOUS
 62
    4
 10
1762.0409
 20
1090.6251999999999
 11
1766.2357000000002
 21
1091.2584999999999
  0
LINE
  8
_0-0_LAYER001
  6
CONTINUOUS
 62
    4
 10
1766.2357000000002
 20
1091.2584999999999
 11
1770.4299000000001
 21
1091.894
  0
LINE
  8
_0-0_LAYER001
  6
CONTINUOUS
 62
    4
 10
1770.4299000000001
 20
1091.894
 11
1774.6235999999999
 21
1092.5309999999999
  0
LINE
  8
_0-0_LAYER001
  6
CONTINUOUS
 62
    4
 10
1774.6235999999999
 20
1092.5309999999999
 11
1777.0558999999998
 21
1092.9007999999999
  0
LINE
  8
_0-0_LAYER001
  6
CONTINUOUS
 62
    4
 10
1532.0191
 20
1100.7972
 11
1534.0810000000001
 21
1101.5740000000001
  0
LINE
  8
_0-0_LAYER001
  6
CONTINUOUS
 62
    4
 10
1534.0810000000001
 20
1101.5740000000001
 11
1537.6486
 21
1102.9204999999999
  0
LINE
  8
_0-0_LAYER001
  6
CONTINUOUS
 62
    4
 10
1537.6486
 20
1102.9204999999999
 11
1541.2404999999999
 21
1104.2828
  0
LINE
  8
_0-0_LAYER001
  6
CONTINUOUS
 62
    4
 10
1541.2404999999999
 20
1104.2828
 11
1544.8607999999999
 21
1105.6666
  0
LINE
  8
_0-0_LAYER001
  6
CONTINUOUS
 62
    4
 10
1544.8607999999999
 20
1105.6666
 11
1548.5138000000002
 21
1107.0778
  0
LINE
  8
_0-0_LAYER001
  6
CONTINUOUS
 62
    4
 10
1548.5138000000002
 20
1107.0778
 11
1552.1930000000002
 21
1108.5181
  0
LINE
  8
_0-0_LAYER001
  6
CONTINUOUS
 62
    4
 10
1552.1930000000002
 20
1108.5181
 11
1554.3481999999999
 21
1109.3722
  0
LINE
  8
_0-0_LAYER001
  6
CONTINUOUS
 62
    4
 10
1554.3481999999999
 20
1109.3722
 11
1556.3717999999999
 21
1110.1789000000001
  0
LINE
  8
_0-0_LAYER001
  6
CONTINUOUS
 62
    4
 10
1556.3717999999999
 20
1110.1789000000001
 11
1559.6435999999999
 21
1111.4503
  0
LINE
  8
_0-0_LAYER001
  6
CONTINUOUS
 62
    4
 10
1559.6435999999999
 20
1111.4503
 11
1562.5387999999998
 21
1112.4725000000001
  0
LINE
  8
_0-0_LAYER001
  6
CONTINUOUS
 62
    4
 10
1562.5387999999998
 20
1112.4725000000001
 11
1565.0068999999999
 21
1113.1922
  0
LINE
  8
_0-0_LAYER001
  6
CONTINUOUS
 62
    4
 10
1565.0068999999999
 20
1113.1922
 11
1566.9985999999999
 21
1113.5997
  0
LINE
  8
_0-0_LAYER001
  6
CONTINUOUS
 62
    4
 10
1566.9985999999999
 20
1113.5997
 11
1568.7779
 21
1113.7641000000001
  0
LINE
  8
_0-0_LAYER001
  6
CONTINUOUS
 62
    4
 10
1568.7779
 20
1113.7641000000001
 11
1569.4575
 21
1113.7554
  0
LINE
  8
_0-0_LAYER001
  6
CONTINUOUS
 62
    4
 10
1569.4575
 20
1113.7554
 11
1569.3814000000002
 21
1113.7609
  0
LINE
  8
_0-0_LAYER001
  6
CONTINUOUS
 62
    4
 10
1569.3814000000002
 20
1113.7609
 11
1569.9949999999999
 21
1113.6894
  0
LINE
  8
_0-0_LAYER001
  6
CONTINUOUS
 62
    4
 10
1569.9949999999999
 20
1113.6894
 11
1570.5853999999999
 21
1113.5897
  0
LINE
  8
_0-0_LAYER001
  6
CONTINUOUS
 62
    4
 10
1570.5853999999999
 20
1113.5897
 11
1571.2529
 21
1113.4446
  0
LINE
  8
_0-0_LAYER001
  6
CONTINUOUS
 62
    4
 10
1571.2529
 20
1113.4446
 11
1571.9863999999998
 21
1113.2520999999999
  0
LINE
  8
_0-0_LAYER001
  6
CONTINUOUS
 62
    4
 10
1571.9863999999998
 20
1113.2520999999999
 11
1572.8355999999999
 21
1112.9936
  0
LINE
  8
_0-0_LAYER001
  6
CONTINUOUS
 62
    4
 10
1572.8355999999999
 20
1112.9936
 11
1573.0796999999998
 21
1112.9117000000001
  0
LINE
  8
_0-0_LAYER001
  6
CONTINUOUS
 62
    4
 10
1573.0796999999998
 20
1112.9117000000001
 11
1574.6396
 21
1112.3196
  0
LINE
  8
_0-0_LAYER001
  6
CONTINUOUS
 62
    4
 10
1574.6396
 20
1112.3196
 11
1577.5873000000001
 21
1110.9492
  0
LINE
  8
_0-0_LAYER001
  6
CONTINUOUS
 62
    4
 10
1577.5873000000001
 20
1110.9492
 11
1580.5482999999999
 21
1109.2886000000001
  0
LINE
  8
_0-0_LAYER001
  6
CONTINUOUS
 62
    4
 10
1580.5482999999999
 20
1109.2886000000001
 11
1583.7159999999999
 21
1107.2672
  0
LINE
  8
_0-0_LAYER001
  6
CONTINUOUS
 62
    4
 10
1583.7159999999999
 20
1107.2672
 11
1587.1007
 21
1104.9223
  0
LINE
  8
_0-0_LAYER001
  6
CONTINUOUS
 62
    4
 10
1587.1007
 20
1104.9223
 11
1590.7064999999998
 21
1102.3198
  0
LINE
  8
_0-0_LAYER001
  6
CONTINUOUS
 62
    4
 10
1590.7064999999998
 20
1102.3198
 11
1592.9133999999999
 21
1100.7174
  0
LINE
  8
_0-0_LAYER001
  6
CONTINUOUS
 62
    4
 10
1592.9133999999999
 20
1100.7174
 11
1596.4034000000001
 21
1098.2171000000001
  0
LINE
  8
_0-0_LAYER001
  6
CONTINUOUS
 62
    4
 10
1596.4034000000001
 20
1098.2171000000001
 11
1602.4956000000002
 21
1093.9921999999999
  0
LINE
  8
_0-0_LAYER001
  6
CONTINUOUS
 62
    4
 10
1602.4956000000002
 20
1093.9921999999999
 11
1608.7993000000001
 21
1089.8521000000001
  0
LINE
  8
_0-0_LAYER001
  6
CONTINUOUS
 62
    4
 10
1608.7993000000001
 20
1089.8521000000001
 11
1615.3200000000002
 21
1085.8633
  0
LINE
  8
_0-0_LAYER001
  6
CONTINUOUS
 62
    4
 10
1615.3200000000002
 20
1085.8633
 11
1622.0859999999998
 21
1082.0793000000001
  0
LINE
  8
_0-0_LAYER001
  6
CONTINUOUS
 62
    4
 10
1622.0859999999998
 20
1082.0793000000001
 11
1629.029
 21
1078.6048000000001
  0
LINE
  8
_0-0_LAYER001
  6
CONTINUOUS
 62
    4
 10
1629.029
 20
1078.6048000000001
 11
1633.3024999999998
 21
1076.6804
  0
LINE
  8
_0-0_LAYER001
  6
CONTINUOUS
 62
    4
 10
1633.3024999999998
 20
1076.6804
 11
1636.9074999999998
 21
1075.1824999999999
  0
LINE
  8
_0-0_LAYER001
  6
CONTINUOUS
 62
    4
 10
1636.9074999999998
 20
1075.1824999999999
 11
1642.9636
 21
1072.9204999999999
  0
LINE
  8
_0-0_LAYER001
  6
CONTINUOUS
 62
    4
 10
1642.9636
 20
1072.9204999999999
 11
1649.2134999999998
 21
1070.9095
  0
LINE
  8
_0-0_LAYER001
  6
CONTINUOUS
 62
    4
 10
1649.2134999999998
 20
1070.9095
 11
1655.5621999999998
 21
1069.1881000000001
  0
LINE
  8
_0-0_LAYER001
  6
CONTINUOUS
 62
    4
 10
1655.5621999999998
 20
1069.1881000000001
 11
1661.9965000000002
 21
1067.7652
  0
LINE
  8
_0-0_LAYER001
  6
CONTINUOUS
 62
    4
 10
1661.9965000000002
 20
1067.7652
 11
1668.4101999999998
 21
1066.6664000000001
  0
LINE
  8
_0-0_LAYER001
  6
CONTINUOUS
 62
    4
 10
1668.4101999999998
 20
1066.6664000000001
 11
1672.2689999999998
 21
1066.1577
  0
LINE
  8
_0-0_LAYER001
  6
CONTINUOUS
 62
    4
 10
1672.2689999999998
 20
1066.1577
 11
1675.2636000000002
 21
1065.8393000000001
  0
LINE
  8
_0-0_LAYER001
  6
CONTINUOUS
 62
    4
 10
1675.2636000000002
 20
1065.8393000000001
 11
1680.1559999999999
 21
1065.4571000000001
  0
LINE
  8
_0-0_LAYER001
  6
CONTINUOUS
 62
    4
 10
1680.1559999999999
 20
1065.4571000000001
 11
1685.0636
 21
1065.2326
  0
LINE
  8
_0-0_LAYER001
  6
CONTINUOUS
 62
    4
 10
1685.0636
 20
1065.2326
 11
1689.9108999999999
 21
1065.1496999999999
  0
LINE
  8
_0-0_LAYER001
  6
CONTINUOUS
 62
    4
 10
1689.9108999999999
 20
1065.1496999999999
 11
1694.6948000000002
 21
1065.1874
  0
LINE
  8
_0-0_LAYER001
  6
CONTINUOUS
 62
    4
 10
1694.6948000000002
 20
1065.1874
 11
1699.3825000000002
 21
1065.3243
  0
LINE
  8
_0-0_LAYER001
  6
CONTINUOUS
 62
    4
 10
1699.3825000000002
 20
1065.3243
 11
1702.1597000000002
 21
1065.4456
  0
LINE
  8
_0-0_LAYER001
  6
CONTINUOUS
 62
    4
 10
1702.1597000000002
 20
1065.4456
 11
1707.192
 21
1065.731
  0
LINE
  8
_0-0_LAYER001
  6
CONTINUOUS
 62
    4
 10
1707.192
 20
1065.731
 11
1715.7181
 21
1066.3921
  0
LINE
  8
_0-0_LAYER001
  6
CONTINUOUS
 62
    4
 10
1715.7181
 20
1066.3921
 11
1724.203
 21
1067.2424000000001
  0
LINE
  8
_0-0_LAYER001
  6
CONTINUOUS
 62
    4
 10
1724.203
 20
1067.2424000000001
 11
1732.5943000000002
 21
1068.2375999999999
  0
LINE
  8
_0-0_LAYER001
  6
CONTINUOUS
 62
    4
 10
1732.5943000000002
 20
1068.2375999999999
 11
1740.895
 21
1069.3381999999999
  0
LINE
  8
_0-0_LAYER001
  6
CONTINUOUS
 62
    4
 10
1740.895
 20
1069.3381999999999
 11
1749.1028000000001
 21
1070.5054
  0
LINE
  8
_0-0_LAYER001
  6
CONTINUOUS
 62
    4
 10
1749.1028000000001
 20
1070.5054
 11
1753.8398999999999
 21
1071.2009
  0
LINE
  8
_0-0_LAYER001
  6
CONTINUOUS
 62
    4
 10
1753.8398999999999
 20
1071.2009
 11
1756.2953000000002
 21
1071.5648000000001
  0
LINE
  8
_0-0_LAYER001
  6
CONTINUOUS
 62
    4
 10
1756.2953000000002
 20
1071.5648000000001
 11
1760.5093999999999
 21
1072.1932999999999
  0
LINE
  8
_0-0_LAYER001
  6
CONTINUOUS
 62
    4
 10
1760.5093999999999
 20
1072.1932999999999
 11
1764.7208999999998
 21
1072.8258000000001
  0
LINE
  8
_0-0_LAYER001
  6
CONTINUOUS
 62
    4
 10
1764.7208999999998
 20
1072.8258000000001
 11
1768.9277000000002
 21
1073.4609
  0
LINE
  8
_0-0_LAYER001
  6
CONTINUOUS
 62
    4
 10
1768.9277000000002
 20
1073.4609
 11
1773.1298999999999
 21
1074.0977
  0
LINE
  8
_0-0_LAYER001
  6
CONTINUOUS
 62
    4
 10
1773.1298999999999
 20
1074.0977
 11
1777.3278
 21
1074.7353000000001
  0
LINE
  8
_0-0_LAYER001
  6
CONTINUOUS
 62
    4
 10
1777.3278
 20
1074.7353000000001
 11
1778.9454999999998
 21
1074.9811999999999
  0
LINE
  8
_0-0_LAYER001
  6
CONTINUOUS
 62
    4
 10
1526.4902000000002
 20
1117.9473
 11
1526.9162000000001
 21
1118.1104
  0
ARC
  8
_0-0_LAYER001
  6
CONTINUOUS
 62
    4
 10
1527.5628000000002
 20
1115.1456000000001
 40
3
 50
110.94902000000002
 51
178.70000000000002
  0
LINE
  8
_0-0_LAYER001
  6
CONTINUOUS
 62
    4
 10
1524.4542999999999
 20
1099.3746000000001
 11
1524.4542999999999
 21
1115.0971
  0
LINE
  8
_0-0_LAYER001
  6
CONTINUOUS
 62
    4
 10
1525.8083000000001
 20
1098.4393
 11
1531.9830999999999
 21
1100.7764999999999
  0
ARC
  8
_0-0_LAYER001
  6
CONTINUOUS
 62
    4
 10
1525.4542999999999
 20
1099.3746000000001
 40
1
 50
180
 51
290.73165999999998
  0
LINE
  8
_0-0_LAYER001
  6
CONTINUOUS
 62
    4
 10
1777.1808000000001
 20
1092.9362000000001
 11
1821.6351
 21
1102.5841
  0
LINE
  8
_0-0_LAYER001
  6
CONTINUOUS
 62
    4
 10
1783.9261000000001
 20
1073.1025
 11
1822.5979000000002
 21
1082.1523999999999
  0
LINE
  8
_0-0_LAYER001
  6
CONTINUOUS
 62
    4
 10
1822.5979000000002
 20
1083.1088999999999
 11
1822.5979000000002
 21
1082.1523999999999
  0
ARC
  8
_0-0_LAYER001
  6
CONTINUOUS
 62
    4
 10
1823.5979000000002
 20
1083.1088999999999
 40
1
 50
102.72435
 51
180
  0
LINE
  8
_0-0_LAYER001
  6
CONTINUOUS
 62
    4
 10
1828.4149000000002
 20
1085.2218
 11
1823.3775999999998
 21
1084.0843
  0
ARC
  8
_0-0_LAYER001
  6
CONTINUOUS
 62
    4
 10
1828.6351
 20
1084.2463
 40
1
 50
0
 51
102.72435
  0
LINE
  8
_0-0_LAYER001
  6
CONTINUOUS
 62
    4
 10
1828.8472000000002
 20
1085.7302999999999
 11
1778.7132999999999
 21
1074.8497
  0
ARC
  8
_0-0_LAYER001
  6
CONTINUOUS
 62
    4
 10
1828.6351
 20
1086.7075
 40
1
 50
282.24497000000002
 51
0
  0
LINE
  8
_0-0_LAYER001
  6
CONTINUOUS
 62
    4
 10
1828.8530000000001
 20
1064.9894999999999
 11
1779.2689999999998
 21
1053.9217000000001
  0
LINE
  8
_0-0_LAYER001
  6
CONTINUOUS
 62
    4
 10
1829.6351
 20
1065.9655
 11
1829.6351
 21
1084.2463
  0
ARC
  8
_0-0_LAYER001
  6
CONTINUOUS
 62
    4
 10
1828.6351
 20
1065.9655
 40
1
 50
282.58296000000001
 51
0.0000000000000254
  0
LINE
  8
_0-0_LAYER001
  6
CONTINUOUS
 62
    4
 10
1821.6351
 20
1104.0410999999999
 11
1821.6351
 21
1102.5841
  0
ARC
  8
_0-0_LAYER001
  6
CONTINUOUS
 62
    4
 10
1822.6351
 20
1104.0410999999999
 40
1
 50
101.73308
 51
180
  0
LINE
  8
_0-0_LAYER001
  6
CONTINUOUS
 62
    4
 10
1828.4317999999998
 20
1106.2663
 11
1822.4317999999998
 21
1105.0201999999999
  0
LINE
  8
_0-0_LAYER001
  6
CONTINUOUS
 62
    4
 10
1829.6351
 20
1105.2872
 11
1829.6351
 21
1086.7075
  0
ARC
  8
_0-0_LAYER001
  6
CONTINUOUS
 62
    4
 10
1828.6351
 20
1105.2872
 40
1
 50
0
 51
101.73308
  0
LINE
  8
_0-0_LAYER001
  6
CONTINUOUS
 62
    4
 10
1384.9045000000001
 20
1034.3973000000001
 11
1376.3690999999999
 21
1048.9306999999999
  0
LINE
  8
_0-0_LAYER001
  6
CONTINUOUS
 62
    4
 10
1393.0724
 20
1033.7470000000001
 11
1401.3786
 21
1043.8125
  0
ARC
  8
_0-0_LAYER001
  6
CONTINUOUS
 62
    4
 10
1389.2158999999997
 20
1036.9294
 40
5
 50
210.42578
 51
320.47001
  0
LINE
  8
_0-0_LAYER001
  6
CONTINUOUS
 62
    4
 10
1469.018
 20
1033.2772
 11
1461.6925999999999
 21
1044.5832
  0
LINE
  8
_0-0_LAYER001
  6
CONTINUOUS
 62
    4
 10
1477.5275000000001
 20
1033.4671000000001
 11
1486.4659999999999
 21
1048.7128
  0
ARC
  8
_0-0_LAYER001
  6
CONTINUOUS
 62
    4
 10
1473.2141999999999
 20
1035.9960000000001
 40
5
 50
212.93986000000001
 51
329.61716000000001
  0
LINE
  8
_0-0_LAYER001
  6
CONTINUOUS
 62
    4
 10
1516.8096
 20
1073.0246999999999
 11
1519.2377000000001
 21
1073.4286
  0
LINE
  8
_0-0_LAYER001
  6
CONTINUOUS
 62
    4
 10
1512.6205
 20
1072.3285000000001
 11
1516.8096
 21
1073.0246999999999
  0
LINE
  8
_0-0_LAYER001
  6
CONTINUOUS
 62
    4
 10
1508.4268000000002
 20
1071.6329000000001
 11
1512.6205
 21
1072.3285000000001
  0
LINE
  8
_0-0_LAYER001
  6
CONTINUOUS
 62
    4
 10
1504.2280000000001
 20
1070.9389000000001
 11
1508.4268000000002
 21
1071.6329000000001
  0
LINE
  8
_0-0_LAYER001
  6
CONTINUOUS
 62
    4
 10
1500.0239000000001
 20
1070.2474999999999
 11
1504.2280000000001
 21
1070.9389000000001
  0
LINE
  8
_0-0_LAYER001
  6
CONTINUOUS
 62
    4
 10
1495.8171000000002
 20
1069.5598
 11
1500.0239000000001
 21
1070.2474999999999
  0
LINE
  8
_0-0_LAYER001
  6
CONTINUOUS
 62
    4
 10
1493.3647999999998
 20
1069.1613
 11
1495.8171000000002
 21
1069.5598
  0
LINE
  8
_0-0_LAYER001
  6
CONTINUOUS
 62
    4
 10
1488.6320000000001
 20
1068.3988999999999
 11
1493.3647999999998
 21
1069.1613
  0
LINE
  8
_0-0_LAYER001
  6
CONTINUOUS
 62
    4
 10
1480.4276
 20
1067.115
 11
1488.6320000000001
 21
1068.3988999999999
  0
LINE
  8
_0-0_LAYER001
  6
CONTINUOUS
 62
    4
 10
1472.1201000000001
 20
1065.8951999999999
 11
1480.4276
 21
1067.115
  0
LINE
  8
_0-0_LAYER001
  6
CONTINUOUS
 62
    4
 10
1463.7118
 20
1064.7788
 11
1472.1201000000001
 21
1065.8951999999999
  0
LINE
  8
_0-0_LAYER001
  6
CONTINUOUS
 62
    4
 10
1455.1993000000002
 20
1063.8054
 11
1463.7118
 21
1064.7788
  0
LINE
  8
_0-0_LAYER001
  6
CONTINUOUS
 62
    4
 10
1446.6401000000001
 20
1063.0214000000001
 11
1455.1993000000002
 21
1063.8054
  0
LINE
  8
_0-0_LAYER001
  6
CONTINUOUS
 62
    4
 10
1441.5785999999998
 20
1062.6633999999999
 11
1446.6401000000001
 21
1063.0214000000001
  0
LINE
  8
_0-0_LAYER001
  6
CONTINUOUS
 62
    4
 10
1438.7759999999998
 20
1062.5018
 11
1441.5785999999998
 21
1062.6633999999999
  0
LINE
  8
_0-0_LAYER001
  6
CONTINUOUS
 62
    4
 10
1434.0549999999998
 20
1062.2978000000001
 11
1438.7759999999998
 21
1062.5018
  0
LINE
  8
_0-0_LAYER001
  6
CONTINUOUS
 62
    4
 10
1429.2257999999997
 20
1062.1923999999999
 11
1434.0549999999998
 21
1062.2978000000001
  0
LINE
  8
_0-0_LAYER001
  6
CONTINUOUS
 62
    4
 10
1424.3241
 20
1062.2077999999999
 11
1429.2257999999997
 21
1062.1923999999999
  0
LINE
  8
_0-0_LAYER001
  6
CONTINUOUS
 62
    4
 10
1419.3531000000003
 20
1062.3656000000001
 11
1424.3241
 21
1062.2077999999999
  0
LINE
  8
_0-0_LAYER001
  6
CONTINUOUS
 62
    4
 10
1414.3957
 20
1062.6833999999999
 11
1419.3531000000003
 21
1062.3656000000001
  0
LINE
  8
_0-0_LAYER001
  6
CONTINUOUS
 62
    4
 10
1411.3441
 20
1062.9648
 11
1414.3957
 21
1062.6833999999999
  0
LINE
  8
_0-0_LAYER001
  6
CONTINUOUS
 62
    4
 10
1407.4151999999999
 20
1063.4269999999999
 11
1411.3441
 21
1062.9648
  0
LINE
  8
_0-0_LAYER001
  6
CONTINUOUS
 62
    4
 10
1400.9013
 20
1064.4495999999999
 11
1407.4151999999999
 21
1063.4269999999999
  0
LINE
  8
_0-0_LAYER001
  6
CONTINUOUS
 62
    4
 10
1394.3545999999997
 20
1065.8017
 11
1400.9013
 21
1064.4495999999999
  0
LINE
  8
_0-0_LAYER001
  6
CONTINUOUS
 62
    4
 10
1387.8916999999999
 20
1067.4576
 11
1394.3545999999997
 21
1065.8017
  0
LINE
  8
_0-0_LAYER001
  6
CONTINUOUS
 62
    4
 10
1381.5257999999999
 20
1069.4083000000001
 11
1387.8916999999999
 21
1067.4576
  0
LINE
  8
_0-0_LAYER001
  6
CONTINUOUS
 62
    4
 10
1375.3610000000001
 20
1071.6133
 11
1381.5257999999999
 21
1069.4083000000001
  0
LINE
  8
_0-0_LAYER001
  6
CONTINUOUS
 62
    4
 10
1371.6742999999999
 20
1073.085
 11
1375.3610000000001
 21
1071.6133
  0
LINE
  8
_0-0_LAYER001
  6
CONTINUOUS
 62
    4
 10
1367.3100999999999
 20
1074.9775999999999
 11
1371.6742999999999
 21
1073.085
  0
LINE
  8
_0-0_LAYER001
  6
CONTINUOUS
 62
    4
 10
1360.241
 20
1078.3924999999999
 11
1367.3100999999999
 21
1074.9775999999999
  0
LINE
  8
_0-0_LAYER001
  6
CONTINUOUS
 62
    4
 10
1353.3481000000002
 20
1082.1221
 11
1360.241
 21
1078.3924999999999
  0
LINE
  8
_0-0_LAYER001
  6
CONTINUOUS
 62
    4
 10
1346.7111
 20
1086.0558000000001
 11
1353.3481000000002
 21
1082.1221
  0
LINE
  8
_0-0_LAYER001
  6
CONTINUOUS
 62
    4
 10
1340.3018
 20
1090.1383000000001
 11
1346.7111
 21
1086.0558000000001
  0
LINE
  8
_0-0_LAYER001
  6
CONTINUOUS
 62
    4
 10
1334.1176
 20
1094.3004000000001
 11
1340.3018
 21
1090.1383000000001
  0
LINE
  8
_0-0_LAYER001
  6
CONTINUOUS
 62
    4
 10
1330.5753
 20
1096.7641000000001
 11
1334.1176
 21
1094.3004000000001
  0
LINE
  8
_0-0_LAYER001
  6
CONTINUOUS
 62
    4
 10
1328.3431999999998
 20
1098.3376000000001
 11
1330.5753
 21
1096.7641000000001
  0
LINE
  8
_0-0_LAYER001
  6
CONTINUOUS
 62
    4
 10
1324.7197000000001
 20
1100.8768
 11
1328.3431999999998
 21
1098.3376000000001
  0
LINE
  8
_0-0_LAYER001
  6
CONTINUOUS
 62
    4
 10
1321.3499999999999
 20
1103.1423
 11
1324.7197000000001
 21
1100.8768
  0
LINE
  8
_0-0_LAYER001
  6
CONTINUOUS
 62
    4
 10
1318.2349999999999
 20
1105.0693000000001
 11
1321.3499999999999
 21
1103.1423
  0
LINE
  8
_0-0_LAYER001
  6
CONTINUOUS
 62
    4
 10
1315.3678
 20
1106.6251
 11
1318.2349999999999
 21
1105.0693000000001
  0
LINE
  8
_0-0_LAYER001
  6
CONTINUOUS
 62
    4
 10
1312.5367000000001
 20
1107.8934999999999
 11
1315.3678
 21
1106.6251
  0
LINE
  8
_0-0_LAYER001
  6
CONTINUOUS
 62
    4
 10
1311.0735
 20
1108.4257
 11
1312.5367000000001
 21
1107.8934999999999
  0
LINE
  8
_0-0_LAYER001
  6
CONTINUOUS
 62
    4
 10
1310.8924
 20
1108.4836
 11
1311.0735
 21
1108.4257
  0
LINE
  8
_0-0_LAYER001
  6
CONTINUOUS
 62
    4
 10
1310.1041
 20
1108.7116000000001
 11
1310.8924
 21
1108.4836
  0
LINE
  8
_0-0_LAYER001
  6
CONTINUOUS
 62
    4
 10
1309.4469999999999
 20
1108.8742999999999
 11
1310.1041
 21
1108.7116000000001
  0
LINE
  8
_0-0_LAYER001
  6
CONTINUOUS
 62
    4
 10
1308.8652
 20
1108.9922999999999
 11
1309.4469999999999
 21
1108.8742999999999
  0
LINE
  8
_0-0_LAYER001
  6
CONTINUOUS
 62
    4
 10
1308.8251
 20
1108.9984999999999
 11
1308.8652
 21
1108.9922999999999
  0
LINE
  8
_0-0_LAYER001
  6
CONTINUOUS
 62
    4
 10
1512.799
 20
1053.8372999999999
 11
1514.4131000000002
 21
1054.1057000000001
  0
LINE
  8
_0-0_LAYER001
  6
CONTINUOUS
 62
    4
 10
1508.6104
 20
1053.1411000000001
 11
1512.799
 21
1053.8372999999999
  0
LINE
  8
_0-0_LAYER001
  6
CONTINUOUS
 62
    4
 10
1504.4175
 20
1052.4457
 11
1508.6104
 21
1053.1411000000001
  0
LINE
  8
_0-0_LAYER001
  6
CONTINUOUS
 62
    4
 10
1500.2199999999998
 20
1051.7519
 11
1504.4175
 21
1052.4457
  0
LINE
  8
_0-0_LAYER001
  6
CONTINUOUS
 62
    4
 10
1496.0176999999999
 20
1051.0607
 11
1500.2199999999998
 21
1051.7519
  0
LINE
  8
_0-0_LAYER001
  6
CONTINUOUS
 62
    4
 10
1491.8128000000002
 20
1050.3733999999999
 11
1496.0176999999999
 21
1051.0607
  0
LINE
  8
_0-0_LAYER001
  6
CONTINUOUS
 62
    4
 10
1489.3627999999999
 20
1049.9752000000001
 11
1491.8128000000002
 21
1050.3733999999999
  0
LINE
  8
_0-0_LAYER001
  6
CONTINUOUS
 62
    4
 10
1484.6358
 20
1049.2137
 11
1489.3627999999999
 21
1049.9752000000001
  0
LINE
  8
_0-0_LAYER001
  6
CONTINUOUS
 62
    4
 10
1476.4450999999999
 20
1047.932
 11
1484.6358
 21
1049.2137
  0
LINE
  8
_0-0_LAYER001
  6
CONTINUOUS
 62
    4
 10
1468.1606000000002
 20
1046.7155
 11
1476.4450999999999
 21
1047.932
  0
LINE
  8
_0-0_LAYER001
  6
CONTINUOUS
 62
    4
 10
1459.7840000000001
 20
1045.6034
 11
1468.1606000000002
 21
1046.7155
  0
LINE
  8
_0-0_LAYER001
  6
CONTINUOUS
 62
    4
 10
1451.3117999999999
 20
1044.6346000000001
 11
1459.7840000000001
 21
1045.6034
  0
LINE
  8
_0-0_LAYER001
  6
CONTINUOUS
 62
    4
 10
1442.7957000000001
 20
1043.8545999999999
 11
1451.3117999999999
 21
1044.6346000000001
  0
LINE
  8
_0-0_LAYER001
  6
CONTINUOUS
 62
    4
 10
1437.7678999999998
 20
1043.4989
 11
1442.7957000000001
 21
1043.8545999999999
  0
LINE
  8
_0-0_LAYER001
  6
CONTINUOUS
 62
    4
 10
1434.9926999999998
 20
1043.3389
 11
1437.7678999999998
 21
1043.4989
  0
LINE
  8
_0-0_LAYER001
  6
CONTINUOUS
 62
    4
 10
1430.3073999999997
 20
1043.1365000000001
 11
1434.9926999999998
 21
1043.3389
  0
LINE
  8
_0-0_LAYER001
  6
CONTINUOUS
 62
    4
 10
1425.5245
 20
1043.0320999999999
 11
1430.3073999999997
 21
1043.1365000000001
  0
LINE
  8
_0-0_LAYER001
  6
CONTINUOUS
 62
    4
 10
1420.6764000000001
 20
1043.0473
 11
1425.5245
 21
1043.0320999999999
  0
LINE
  8
_0-0_LAYER001
  6
CONTINUOUS
 62
    4
 10
1415.7662
 20
1043.2031999999999
 11
1420.6764000000001
 21
1043.0473
  0
LINE
  8
_0-0_LAYER001
  6
CONTINUOUS
 62
    4
 10
1410.8689999999999
 20
1043.5171
 11
1415.7662
 21
1043.2031999999999
  0
LINE
  8
_0-0_LAYER001
  6
CONTINUOUS
 62
    4
 10
1407.8702000000001
 20
1043.7936
 11
1410.8689999999999
 21
1043.5171
  0
LINE
  8
_0-0_LAYER001
  6
CONTINUOUS
 62
    4
 10
1404.0046000000002
 20
1044.2483999999999
 11
1407.8702000000001
 21
1043.7936
  0
LINE
  8
_0-0_LAYER001
  6
CONTINUOUS
 62
    4
 10
1397.5762
 20
1045.2575999999999
 11
1404.0046000000002
 21
1044.2483999999999
  0
LINE
  8
_0-0_LAYER001
  6
CONTINUOUS
 62
    4
 10
1391.1228000000001
 20
1046.5905
 11
1397.5762
 21
1045.2575999999999
  0
LINE
  8
_0-0_LAYER001
  6
CONTINUOUS
 62
    4
 10
1384.7506000000001
 20
1048.2230999999999
 11
1391.1228000000001
 21
1046.5905
  0
LINE
  8
_0-0_LAYER001
  6
CONTINUOUS
 62
    4
 10
1378.4733000000001
 20
1050.1466
 11
1384.7506000000001
 21
1048.2230999999999
  0
LINE
  8
_0-0_LAYER001
  6
CONTINUOUS
 62
    4
 10
1372.3861999999999
 20
1052.3237999999999
 11
1378.4733000000001
 21
1050.1466
  0
LINE
  8
_0-0_LAYER001
  6
CONTINUOUS
 62
    4
 10
1368.7605000000003
 20
1053.7711999999999
 11
1372.3861999999999
 21
1052.3237999999999
  0
LINE
  8
_0-0_LAYER001
  6
CONTINUOUS
 62
    4
 10
1364.4607000000001
 20
1055.6358
 11
1368.7605000000003
 21
1053.7711999999999
  0
LINE
  8
_0-0_LAYER001
  6
CONTINUOUS
 62
    4
 10
1357.4698000000001
 20
1059.0129999999999
 11
1364.4607000000001
 21
1055.6358
  0
LINE
  8
_0-0_LAYER001
  6
CONTINUOUS
 62
    4
 10
1350.6516999999999
 20
1062.7021999999999
 11
1357.4698000000001
 21
1059.0129999999999
  0
LINE
  8
_0-0_LAYER001
  6
CONTINUOUS
 62
    4
 10
1344.0759
 20
1066.5995
 11
1350.6516999999999
 21
1062.7021999999999
  0
LINE
  8
_0-0_LAYER001
  6
CONTINUOUS
 62
    4
 10
1337.7150000000001
 20
1070.6512
 11
1344.0759
 21
1066.5995
  0
LINE
  8
_0-0_LAYER001
  6
CONTINUOUS
 62
    4
 10
1331.5644
 20
1074.7907
 11
1337.7150000000001
 21
1070.6512
  0
LINE
  8
_0-0_LAYER001
  6
CONTINUOUS
 62
    4
 10
1328.0398
 20
1077.242
 11
1331.5644
 21
1074.7907
  0
LINE
  8
_0-0_LAYER001
  6
CONTINUOUS
 62
    4
 10
1325.8107
 20
1078.8135
 11
1328.0398
 21
1077.242
  0
LINE
  8
_0-0_LAYER001
  6
CONTINUOUS
 62
    4
 10
1322.1690000000001
 20
1081.3652999999999
 11
1325.8107
 21
1078.8135
  0
LINE
  8
_0-0_LAYER001
  6
CONTINUOUS
 62
    4
 10
1318.7519
 20
1083.6628000000001
 11
1322.1690000000001
 21
1081.3652999999999
  0
LINE
  8
_0-0_LAYER001
  6
CONTINUOUS
 62
    4
 10
1315.5563000000002
 20
1085.6396999999999
 11
1318.7519
 21
1083.6628000000001
  0
LINE
  8
_0-0_LAYER001
  6
CONTINUOUS
 62
    4
 10
1312.5722999999998
 20
1087.2588000000001
 11
1315.5563000000002
 21
1085.6396999999999
  0
LINE
  8
_0-0_LAYER001
  6
CONTINUOUS
 62
    4
 10
1309.6057999999998
 20
1088.5879
 11
1312.5722999999998
 21
1087.2588000000001
  0
LINE
  8
_0-0_LAYER001
  6
CONTINUOUS
 62
    4
 10
1308.8558
 20
1088.8607
 11
1309.6057999999998
 21
1088.5879
  0
LINE
  8
_0-0_LAYER001
  6
CONTINUOUS
 62
    4
 10
1309.1889000000001
 20
1108.9038
 11
1309.0128
 21
1088.7303999999999
  0
LINE
  8
_0-0_LAYER001
  6
CONTINUOUS
 62
    4
 10
1509.5145000000002
 20
1043.4159999999999
 11
1507.2691
 21
1051.9893999999999
  0
ARC
  8
_0-0_LAYER001
  6
CONTINUOUS
 62
    4
 10
1512.4166
 20
1044.1760999999999
 40
3
 50
194.67639000000003
 51
270.00000000000006
  0
LINE
  8
_0-0_LAYER001
  6
CONTINUOUS
 62
    4
 10
1515.8591000000001
 20
1041.1718000000001
 11
1512.4413
 21
1041.1718000000001
  0
LINE
  8
_0-0_LAYER001
  6
CONTINUOUS
 62
    4
 10
1518.8182999999999
 20
1043.6786
 11
1520.7523000000001
 21
1055.2827
  0
ARC
  8
_0-0_LAYER001
  6
CONTINUOUS
 62
    4
 10
1515.8591000000001
 20
1044.1718000000001
 40
3
 50
270
 51
350.53766999999999
  0
LINE
  8
_0-0_LAYER001
  6
CONTINUOUS
 62
    4
 10
1262.0926999999999
 20
1118.2940000000001
 11
1262.9066
 21
1118.6007
  0
LINE
  8
_0-0_LAYER001
  6
CONTINUOUS
 62
    4
 10
1262.9066
 20
1118.6007
 11
1266.4558999999999
 21
1119.9402
  0
LINE
  8
_0-0_LAYER001
  6
CONTINUOUS
 62
    4
 10
1266.4558999999999
 20
1119.9402
 11
1270.0125
 21
1121.2891
  0
LINE
  8
_0-0_LAYER001
  6
CONTINUOUS
 62
    4
 10
1270.0125
 20
1121.2891
 11
1273.5811000000001
 21
1122.6532
  0
LINE
  8
_0-0_LAYER001
  6
CONTINUOUS
 62
    4
 10
1273.5811000000001
 20
1122.6532
 11
1277.1665
 21
1124.0382
  0
LINE
  8
_0-0_LAYER001
  6
CONTINUOUS
 62
    4
 10
1277.1665
 20
1124.0382
 11
1280.7732000000001
 21
1125.4502
  0
LINE
  8
_0-0_LAYER001
  6
CONTINUOUS
 62
    4
 10
1280.7732000000001
 20
1125.4502
 11
1282.8766999999998
 21
1126.2837999999999
  0
LINE
  8
_0-0_LAYER001
  6
CONTINUOUS
 62
    4
 10
1282.8766999999998
 20
1126.2837999999999
 11
1284.9560999999999
 21
1127.1126999999999
  0
LINE
  8
_0-0_LAYER001
  6
CONTINUOUS
 62
    4
 10
1284.9560999999999
 20
1127.1126999999999
 11
1288.5626
 21
1128.5141000000001
  0
LINE
  8
_0-0_LAYER001
  6
CONTINUOUS
 62
    4
 10
1288.5626
 20
1128.5141000000001
 11
1292.1954000000001
 21
1129.7968000000001
  0
LINE
  8
_0-0_LAYER001
  6
CONTINUOUS
 62
    4
 10
1292.1954000000001
 20
1129.7968000000001
 11
1295.8533
 21
1130.8634999999999
  0
LINE
  8
_0-0_LAYER001
  6
CONTINUOUS
 62
    4
 10
1295.8533
 20
1130.8634999999999
 11
1299.5354
 21
1131.6167
  0
LINE
  8
_0-0_LAYER001
  6
CONTINUOUS
 62
    4
 10
1299.5354
 20
1131.6167
 11
1303.2407000000001
 21
1131.9592
  0
LINE
  8
_0-0_LAYER001
  6
CONTINUOUS
 62
    4
 10
1303.2407000000001
 20
1131.9592
 11
1305.4000000000001
 21
1131.9313
  0
LINE
  8
_0-0_LAYER001
  6
CONTINUOUS
 62
    4
 10
1305.4000000000001
 20
1131.9313
 11
1306.2491
 21
1131.8699999999999
  0
LINE
  8
_0-0_LAYER001
  6
CONTINUOUS
 62
    4
 10
1306.2491
 20
1131.8699999999999
 11
1307.7135000000001
 21
1131.6994
  0
LINE
  8
_0-0_LAYER001
  6
CONTINUOUS
 62
    4
 10
1307.7135000000001
 20
1131.6994
 11
1309.1746000000001
 21
1131.4526000000001
  0
LINE
  8
_0-0_LAYER001
  6
CONTINUOUS
 62
    4
 10
1309.1746000000001
 20
1131.4526000000001
 11
1310.6283000000003
 21
1131.1366
  0
LINE
  8
_0-0_LAYER001
  6
CONTINUOUS
 62
    4
 10
1310.6283000000003
 20
1131.1366
 11
1312.0704000000001
 21
1130.7581
  0
LINE
  8
_0-0_LAYER001
  6
CONTINUOUS
 62
    4
 10
1312.0704000000001
 20
1130.7581
 11
1313.4967999999999
 21
1130.3240000000001
  0
LINE
  8
_0-0_LAYER001
  6
CONTINUOUS
 62
    4
 10
1313.4967999999999
 20
1130.3240000000001
 11
1314.3153000000002
 21
1130.0494000000001
  0
LINE
  8
_0-0_LAYER001
  6
CONTINUOUS
 62
    4
 10
1314.3153000000002
 20
1130.0494000000001
 11
1316.8135000000002
 21
1129.1011000000001
  0
LINE
  8
_0-0_LAYER001
  6
CONTINUOUS
 62
    4
 10
1316.8135000000002
 20
1129.1011000000001
 11
1320.9725000000001
 21
1127.1676
  0
LINE
  8
_0-0_LAYER001
  6
CONTINUOUS
 62
    4
 10
1320.9725000000001
 20
1127.1676
 11
1324.9763000000003
 21
1124.9222
  0
LINE
  8
_0-0_LAYER001
  6
CONTINUOUS
 62
    4
 10
1324.9763000000003
 20
1124.9222
 11
1328.8631
 21
1122.4419
  0
LINE
  8
_0-0_LAYER001
  6
CONTINUOUS
 62
    4
 10
1328.8631
 20
1122.4419
 11
1332.6711
 21
1119.8037999999999
  0
LINE
  8
_0-0_LAYER001
  6
CONTINUOUS
 62
    4
 10
1332.6711
 20
1119.8037999999999
 11
1336.4384
 21
1117.0847000000001
  0
LINE
  8
_0-0_LAYER001
  6
CONTINUOUS
 62
    4
 10
1336.4384
 20
1117.0847000000001
 11
1338.6196999999997
 21
1115.5009
  0
LINE
  8
_0-0_LAYER001
  6
CONTINUOUS
 62
    4
 10
1338.6196999999997
 20
1115.5009
 11
1341.9513000000002
 21
1113.1141
  0
LINE
  8
_0-0_LAYER001
  6
CONTINUOUS
 62
    4
 10
1341.9513000000002
 20
1113.1141
 11
1347.7435
 21
1109.0971
  0
LINE
  8
_0-0_LAYER001
  6
CONTINUOUS
 62
    4
 10
1347.7435
 20
1109.0971
 11
1353.6157000000001
 21
1105.2405000000001
  0
LINE
  8
_0-0_LAYER001
  6
CONTINUOUS
 62
    4
 10
1353.6157000000001
 20
1105.2405000000001
 11
1359.5898999999999
 21
1101.586
  0
LINE
  8
_0-0_LAYER001
  6
CONTINUOUS
 62
    4
 10
1359.5898999999999
 20
1101.586
 11
1365.6880000000001
 21
1098.1755000000001
  0
LINE
  8
_0-0_LAYER001
  6
CONTINUOUS
 62
    4
 10
1365.6880000000001
 20
1098.1755000000001
 11
1371.9322999999999
 21
1095.0507
  0
LINE
  8
_0-0_LAYER001
  6
CONTINUOUS
 62
    4
 10
1371.9322999999999
 20
1095.0507
 11
1375.6296
 21
1093.3857
  0
LINE
  8
_0-0_LAYER001
  6
CONTINUOUS
 62
    4
 10
1375.6296
 20
1093.3857
 11
1378.6889000000001
 21
1092.1146000000001
  0
LINE
  8
_0-0_LAYER001
  6
CONTINUOUS
 62
    4
 10
1378.6889000000001
 20
1092.1146000000001
 11
1384.0494000000001
 21
1090.1124
  0
LINE
  8
_0-0_LAYER001
  6
CONTINUOUS
 62
    4
 10
1384.0494000000001
 20
1090.1124
 11
1389.5051000000001
 21
1088.357
  0
LINE
  8
_0-0_LAYER001
  6
CONTINUOUS
 62
    4
 10
1389.5051000000001
 20
1088.357
 11
1395.0400999999999
 21
1086.8561999999999
  0
LINE
  8
_0-0_LAYER001
  6
CONTINUOUS
 62
    4
 10
1395.0400999999999
 20
1086.8561999999999
 11
1400.6384
 21
1085.6181999999999
  0
LINE
  8
_0-0_LAYER001
  6
CONTINUOUS
 62
    4
 10
1400.6384
 20
1085.6181999999999
 11
1406.2841000000001
 21
1084.6510000000001
  0
LINE
  8
_0-0_LAYER001
  6
CONTINUOUS
 62
    4
 10
1406.2841000000001
 20
1084.6510000000001
 11
1409.5741
 21
1084.2172
  0
LINE
  8
_0-0_LAYER001
  6
CONTINUOUS
 62
    4
 10
1409.5741
 20
1084.2172
 11
1412.0933
 21
1083.9494
  0
LINE
  8
_0-0_LAYER001
  6
CONTINUOUS
 62
    4
 10
1412.0933
 20
1083.9494
 11
1416.4454000000001
 21
1083.6094000000001
  0
LINE
  8
_0-0_LAYER001
  6
CONTINUOUS
 62
    4
 10
1416.4454000000001
 20
1083.6094000000001
 11
1420.8056999999999
 21
1083.4099000000001
  0
LINE
  8
_0-0_LAYER001
  6
CONTINUOUS
 62
    4
 10
1420.8056999999999
 20
1083.4099000000001
 11
1425.1709000000001
 21
1083.3353
  0
LINE
  8
_0-0_LAYER001
  6
CONTINUOUS
 62
    4
 10
1425.1709000000001
 20
1083.3353
 11
1429.538
 21
1083.3696
  0
LINE
  8
_0-0_LAYER001
  6
CONTINUOUS
 62
    4
 10
1429.538
 20
1083.3696
 11
1433.9038999999998
 21
1083.4972
  0
LINE
  8
_0-0_LAYER001
  6
CONTINUOUS
 62
    4
 10
1433.9038999999998
 20
1083.4972
 11
1436.4342999999999
 21
1083.6077
  0
LINE
  8
_0-0_LAYER001
  6
CONTINUOUS
 62
    4
 10
1436.4342999999999
 20
1083.6077
 11
1441.1633999999999
 21
1083.8759
  0
LINE
  8
_0-0_LAYER001
  6
CONTINUOUS
 62
    4
 10
1441.1633999999999
 20
1083.8759
 11
1449.3015999999998
 21
1084.5069000000001
  0
LINE
  8
_0-0_LAYER001
  6
CONTINUOUS
 62
    4
 10
1449.3015999999998
 20
1084.5069000000001
 11
1457.4223000000002
 21
1085.3208
  0
LINE
  8
_0-0_LAYER001
  6
CONTINUOUS
 62
    4
 10
1457.4223000000002
 20
1085.3208
 11
1465.5282000000002
 21
1086.2819999999999
  0
LINE
  8
_0-0_LAYER001
  6
CONTINUOUS
 62
    4
 10
1465.5282000000002
 20
1086.2819999999999
 11
1473.6217000000001
 21
1087.3552
  0
LINE
  8
_0-0_LAYER001
  6
CONTINUOUS
 62
    4
 10
1473.6217000000001
 20
1087.3552
 11
1481.7051999999999
 21
1088.5047999999999
  0
LINE
  8
_0-0_LAYER001
  6
CONTINUOUS
 62
    4
 10
1481.7051999999999
 20
1088.5047999999999
 11
1486.3901000000001
 21
1089.1926000000001
  0
LINE
  8
_0-0_LAYER001
  6
CONTINUOUS
 62
    4
 10
1486.3901000000001
 20
1089.1926000000001
 11
1488.8249999999998
 21
1089.5534
  0
LINE
  8
_0-0_LAYER001
  6
CONTINUOUS
 62
    4
 10
1488.8249999999998
 20
1089.5534
 11
1493.0219999999999
 21
1090.1794
  0
LINE
  8
_0-0_LAYER001
  6
CONTINUOUS
 62
    4
 10
1493.0219999999999
 20
1090.1794
 11
1497.2177000000001
 21
1090.8095000000001
  0
LINE
  8
_0-0_LAYER001
  6
CONTINUOUS
 62
    4
 10
1497.2177000000001
 20
1090.8095000000001
 11
1501.4126000000001
 21
1091.4428
  0
LINE
  8
_0-0_LAYER001
  6
CONTINUOUS
 62
    4
 10
1501.4126000000001
 20
1091.4428
 11
1505.6066999999998
 21
1092.0784000000001
  0
LINE
  8
_0-0_LAYER001
  6
CONTINUOUS
 62
    4
 10
1505.6066999999998
 20
1092.0784000000001
 11
1509.8004999999998
 21
1092.7154
  0
LINE
  8
_0-0_LAYER001
  6
CONTINUOUS
 62
    4
 10
1509.8004999999998
 20
1092.7154
 11
1512.2328000000002
 21
1093.0851
  0
LINE
  8
_0-0_LAYER001
  6
CONTINUOUS
 62
    4
 10
1267.1958999999999
 20
1100.9815000000001
 11
1269.2578000000001
 21
1101.7583999999999
  0
LINE
  8
_0-0_LAYER001
  6
CONTINUOUS
 62
    4
 10
1269.2578000000001
 20
1101.7583999999999
 11
1272.8253999999999
 21
1103.1049
  0
LINE
  8
_0-0_LAYER001
  6
CONTINUOUS
 62
    4
 10
1272.8253999999999
 20
1103.1049
 11
1276.4173000000001
 21
1104.4671000000001
  0
LINE
  8
_0-0_LAYER001
  6
CONTINUOUS
 62
    4
 10
1276.4173000000001
 20
1104.4671000000001
 11
1280.0377000000001
 21
1105.8510000000001
  0
LINE
  8
_0-0_LAYER001
  6
CONTINUOUS
 62
    4
 10
1280.0377000000001
 20
1105.8510000000001
 11
1283.6907000000001
 21
1107.2620999999999
  0
LINE
  8
_0-0_LAYER001
  6
CONTINUOUS
 62
    4
 10
1283.6907000000001
 20
1107.2620999999999
 11
1287.3698999999999
 21
1108.7025000000001
  0
LINE
  8
_0-0_LAYER001
  6
CONTINUOUS
 62
    4
 10
1287.3698999999999
 20
1108.7025000000001
 11
1289.5250000000001
 21
1109.5565999999999
  0
LINE
  8
_0-0_LAYER001
  6
CONTINUOUS
 62
    4
 10
1289.5250000000001
 20
1109.5565999999999
 11
1291.5486000000001
 21
1110.3632
  0
LINE
  8
_0-0_LAYER001
  6
CONTINUOUS
 62
    4
 10
1291.5486000000001
 20
1110.3632
 11
1294.8205000000003
 21
1111.6346000000001
  0
LINE
  8
_0-0_LAYER001
  6
CONTINUOUS
 62
    4
 10
1294.8205000000003
 20
1111.6346000000001
 11
1297.7156
 21
1112.6569
  0
LINE
  8
_0-0_LAYER001
  6
CONTINUOUS
 62
    4
 10
1297.7156
 20
1112.6569
 11
1300.1837
 21
1113.3766000000001
  0
LINE
  8
_0-0_LAYER001
  6
CONTINUOUS
 62
    4
 10
1300.1837
 20
1113.3766000000001
 11
1302.1755000000003
 21
1113.7840000000001
  0
LINE
  8
_0-0_LAYER001
  6
CONTINUOUS
 62
    4
 10
1302.1755000000003
 20
1113.7840000000001
 11
1303.9548
 21
1113.9485
  0
LINE
  8
_0-0_LAYER001
  6
CONTINUOUS
 62
    4
 10
1303.9548
 20
1113.9485
 11
1304.6342999999999
 21
1113.9396999999999
  0
LINE
  8
_0-0_LAYER001
  6
CONTINUOUS
 62
    4
 10
1304.6342999999999
 20
1113.9396999999999
 11
1304.5581999999999
 21
1113.9452000000001
  0
LINE
  8
_0-0_LAYER001
  6
CONTINUOUS
 62
    4
 10
1304.5581999999999
 20
1113.9452000000001
 11
1305.1719000000001
 21
1113.8737000000001
  0
LINE
  8
_0-0_LAYER001
  6
CONTINUOUS
 62
    4
 10
1305.1719000000001
 20
1113.8737000000001
 11
1305.7623000000001
 21
1113.7739999999999
  0
LINE
  8
_0-0_LAYER001
  6
CONTINUOUS
 62
    4
 10
1305.7623000000001
 20
1113.7739999999999
 11
1306.4296999999999
 21
1113.6288999999999
  0
LINE
  8
_0-0_LAYER001
  6
CONTINUOUS
 62
    4
 10
1306.4296999999999
 20
1113.6288999999999
 11
1307.1632999999999
 21
1113.4364
  0
LINE
  8
_0-0_LAYER001
  6
CONTINUOUS
 62
    4
 10
1307.1632999999999
 20
1113.4364
 11
1308.0124000000001
 21
1113.1778999999999
  0
LINE
  8
_0-0_LAYER001
  6
CONTINUOUS
 62
    4
 10
1308.0124000000001
 20
1113.1778999999999
 11
1308.2565
 21
1113.0961
  0
LINE
  8
_0-0_LAYER001
  6
CONTINUOUS
 62
    4
 10
1308.2565
 20
1113.0961
 11
1309.8163999999999
 21
1112.5039999999999
  0
LINE
  8
_0-0_LAYER001
  6
CONTINUOUS
 62
    4
 10
1309.8163999999999
 20
1112.5039999999999
 11
1312.7640999999999
 21
1111.1334999999999
  0
LINE
  8
_0-0_LAYER001
  6
CONTINUOUS
 62
    4
 10
1312.7640999999999
 20
1111.1334999999999
 11
1315.7251999999999
 21
1109.4729
  0
LINE
  8
_0-0_LAYER001
  6
CONTINUOUS
 62
    4
 10
1315.7251999999999
 20
1109.4729
 11
1318.8929000000003
 21
1107.4516000000001
  0
LINE
  8
_0-0_LAYER001
  6
CONTINUOUS
 62
    4
 10
1318.8929000000003
 20
1107.4516000000001
 11
1322.2775999999999
 21
1105.1067
  0
LINE
  8
_0-0_LAYER001
  6
CONTINUOUS
 62
    4
 10
1322.2775999999999
 20
1105.1067
 11
1325.8833
 21
1102.5042000000001
  0
LINE
  8
_0-0_LAYER001
  6
CONTINUOUS
 62
    4
 10
1325.8833
 20
1102.5042000000001
 11
1328.0903000000001
 21
1100.9018000000001
  0
LINE
  8
_0-0_LAYER001
  6
CONTINUOUS
 62
    4
 10
1328.0903000000001
 20
1100.9018000000001
 11
1331.5803000000001
 21
1098.4014999999999
  0
LINE
  8
_0-0_LAYER001
  6
CONTINUOUS
 62
    4
 10
1331.5803000000001
 20
1098.4014999999999
 11
1337.6724999999999
 21
1094.1765
  0
LINE
  8
_0-0_LAYER001
  6
CONTINUOUS
 62
    4
 10
1337.6724999999999
 20
1094.1765
 11
1343.9762000000001
 21
1090.0364
  0
LINE
  8
_0-0_LAYER001
  6
CONTINUOUS
 62
    4
 10
1343.9762000000001
 20
1090.0364
 11
1350.4969000000001
 21
1086.0476000000001
  0
LINE
  8
_0-0_LAYER001
  6
CONTINUOUS
 62
    4
 10
1350.4969000000001
 20
1086.0476000000001
 11
1357.2629000000002
 21
1082.2637
  0
LINE
  8
_0-0_LAYER001
  6
CONTINUOUS
 62
    4
 10
1357.2629000000002
 20
1082.2637
 11
1364.2058999999999
 21
1078.7891999999999
  0
LINE
  8
_0-0_LAYER001
  6
CONTINUOUS
 62
    4
 10
1364.2058999999999
 20
1078.7891999999999
 11
1368.4793
 21
1076.8647000000001
  0
LINE
  8
_0-0_LAYER001
  6
CONTINUOUS
 62
    4
 10
1368.4793
 20
1076.8647000000001
 11
1372.0844
 21
1075.3668
  0
LINE
  8
_0-0_LAYER001
  6
CONTINUOUS
 62
    4
 10
1372.0844
 20
1075.3668
 11
1378.1405
 21
1073.1049
  0
LINE
  8
_0-0_LAYER001
  6
CONTINUOUS
 62
    4
 10
1378.1405
 20
1073.1049
 11
1384.3903
 21
1071.0939000000001
  0
LINE
  8
_0-0_LAYER001
  6
CONTINUOUS
 62
    4
 10
1384.3903
 20
1071.0939000000001
 11
1390.7391000000002
 21
1069.3724
  0
LINE
  8
_0-0_LAYER001
  6
CONTINUOUS
 62
    4
 10
1390.7391000000002
 20
1069.3724
 11
1397.1732999999999
 21
1067.9495999999999
  0
LINE
  8
_0-0_LAYER001
  6
CONTINUOUS
 62
    4
 10
1397.1732999999999
 20
1067.9495999999999
 11
1403.587
 21
1066.8507999999999
  0
LINE
  8
_0-0_LAYER001
  6
CONTINUOUS
 62
    4
 10
1403.587
 20
1066.8507999999999
 11
1407.4458999999999
 21
1066.3421000000001
  0
LINE
  8
_0-0_LAYER001
  6
CONTINUOUS
 62
    4
 10
1407.4458999999999
 20
1066.3421000000001
 11
1410.4404999999999
 21
1066.0237
  0
LINE
  8
_0-0_LAYER001
  6
CONTINUOUS
 62
    4
 10
1410.4404999999999
 20
1066.0237
 11
1415.3329000000003
 21
1065.6414
  0
LINE
  8
_0-0_LAYER001
  6
CONTINUOUS
 62
    4
 10
1415.3329000000003
 20
1065.6414
 11
1420.2403999999999
 21
1065.4168999999999
  0
LINE
  8
_0-0_LAYER001
  6
CONTINUOUS
 62
    4
 10
1420.2403999999999
 20
1065.4168999999999
 11
1425.0878
 21
1065.3341
  0
LINE
  8
_0-0_LAYER001
  6
CONTINUOUS
 62
    4
 10
1425.0878
 20
1065.3341
 11
1429.8716999999999
 21
1065.3716999999999
  0
LINE
  8
_0-0_LAYER001
  6
CONTINUOUS
 62
    4
 10
1429.8716999999999
 20
1065.3716999999999
 11
1434.5594000000001
 21
1065.5087000000001
  0
LINE
  8
_0-0_LAYER001
  6
CONTINUOUS
 62
    4
 10
1434.5594000000001
 20
1065.5087000000001
 11
1437.3364999999999
 21
1065.6298999999999
  0
LINE
  8
_0-0_LAYER001
  6
CONTINUOUS
 62
    4
 10
1437.3364999999999
 20
1065.6298999999999
 11
1442.3688999999999
 21
1065.9152999999999
  0
LINE
  8
_0-0_LAYER001
  6
CONTINUOUS
 62
    4
 10
1442.3688999999999
 20
1065.9152999999999
 11
1450.895
 21
1066.5763999999999
  0
LINE
  8
_0-0_LAYER001
  6
CONTINUOUS
 62
    4
 10
1450.895
 20
1066.5763999999999
 11
1459.3798999999999
 21
1067.4268
  0
LINE
  8
_0-0_LAYER001
  6
CONTINUOUS
 62
    4
 10
1459.3798999999999
 20
1067.4268
 11
1467.7712000000001
 21
1068.4219000000001
  0
LINE
  8
_0-0_LAYER001
  6
CONTINUOUS
 62
    4
 10
1467.7712000000001
 20
1068.4219000000001
 11
1476.0718999999999
 21
1069.5225
  0
LINE
  8
_0-0_LAYER001
  6
CONTINUOUS
 62
    4
 10
1476.0718999999999
 20
1069.5225
 11
1484.2795999999998
 21
1070.6898000000001
  0
LINE
  8
_0-0_LAYER001
  6
CONTINUOUS
 62
    4
 10
1484.2795999999998
 20
1070.6898000000001
 11
1489.0167999999999
 21
1071.3851999999999
  0
LINE
  8
_0-0_LAYER001
  6
CONTINUOUS
 62
    4
 10
1489.0167999999999
 20
1071.3851999999999
 11
1491.4721
 21
1071.7491
  0
LINE
  8
_0-0_LAYER001
  6
CONTINUOUS
 62
    4
 10
1491.4721
 20
1071.7491
 11
1495.6862000000001
 21
1072.3777
  0
LINE
  8
_0-0_LAYER001
  6
CONTINUOUS
 62
    4
 10
1495.6862000000001
 20
1072.3777
 11
1499.8978000000002
 21
1073.0101
  0
LINE
  8
_0-0_LAYER001
  6
CONTINUOUS
 62
    4
 10
1499.8978000000002
 20
1073.0101
 11
1504.1044999999999
 21
1073.6451999999999
  0
LINE
  8
_0-0_LAYER001
  6
CONTINUOUS
 62
    4
 10
1504.1044999999999
 20
1073.6451999999999
 11
1508.3067000000001
 21
1074.2819999999999
  0
LINE
  8
_0-0_LAYER001
  6
CONTINUOUS
 62
    4
 10
1508.3067000000001
 20
1074.2819999999999
 11
1512.5046000000002
 21
1074.9196999999999
  0
LINE
  8
_0-0_LAYER001
  6
CONTINUOUS
 62
    4
 10
1512.5046000000002
 20
1074.9196999999999
 11
1514.1223
 21
1075.1656
  0
LINE
  8
_0-0_LAYER001
  6
CONTINUOUS
 62
    4
 10
1261.6670999999999
 20
1118.1316999999999
 11
1262.0931
 21
1118.2946999999999
  0
ARC
  8
_0-0_LAYER001
  6
CONTINUOUS
 62
    4
 10
1262.7397000000001
 20
1115.3299999999999
 40
3
 50
110.94902000000002
 51
178.70000000000002
  0
LINE
  8
_0-0_LAYER001
  6
CONTINUOUS
 62
    4
 10
1259.6311000000001
 20
1099.5589
 11
1259.6311000000001
 21
1115.2814000000001
  0
LINE
  8
_0-0_LAYER001
  6
CONTINUOUS
 62
    4
 10
1260.9851000000001
 20
1098.6237000000001
 11
1267.1600000000001
 21
1100.9608000000001
  0
ARC
  8
_0-0_LAYER001
  6
CONTINUOUS
 62
    4
 10
1260.6311000000001
 20
1099.5589
 40
1
 50
180
 51
290.73165999999998
  0
LINE
  8
_0-0_LAYER001
  6
CONTINUOUS
 62
    4
 10
1524.6311000000001
 20
1078.2366999999999
 11
1524.6311000000001
 21
1095.4340999999999
  0
LINE
  8
_0-0_LAYER001
  6
CONTINUOUS
 62
    4
 10
1512.3577
 20
1093.1205
 11
1556.8119999999999
 21
1102.7683999999999
  0
LINE
  8
_0-0_LAYER001
  6
CONTINUOUS
 62
    4
 10
1519.1028999999999
 20
1073.2868000000001
 11
1557.7746999999999
 21
1082.3368
  0
LINE
  8
_0-0_LAYER001
  6
CONTINUOUS
 62
    4
 10
1557.7746999999999
 20
1083.2932000000001
 11
1557.7746999999999
 21
1082.3368
  0
ARC
  8
_0-0_LAYER001
  6
CONTINUOUS
 62
    4
 10
1558.7746999999999
 20
1083.2932000000001
 40
1
 50
102.72435
 51
180
  0
LINE
  8
_0-0_LAYER001
  6
CONTINUOUS
 62
    4
 10
1563.5916999999999
 20
1085.4060999999999
 11
1558.5545000000002
 21
1084.2687000000001
  0
ARC
  8
_0-0_LAYER001
  6
CONTINUOUS
 62
    4
 10
1563.8119999999999
 20
1084.4306999999999
 40
1
 50
0
 51
102.72435
  0
LINE
  8
_0-0_LAYER001
  6
CONTINUOUS
 62
    4
 10
1564.0241000000001
 20
1085.9146000000001
 11
1513.8901000000001
 21
1075.0341000000001
  0
ARC
  8
_0-0_LAYER001
  6
CONTINUOUS
 62
    4
 10
1563.8119999999999
 20
1086.8918000000001
 40
1
 50
282.24497000000002
 51
0
  0
LINE
  8
_0-0_LAYER001
  6
CONTINUOUS
 62
    4
 10
1564.0297999999998
 20
1065.1739
 11
1514.4459000000002
 21
1054.106
  0
LINE
  8
_0-0_LAYER001
  6
CONTINUOUS
 62
    4
 10
1564.8119999999999
 20
1066.1497999999999
 11
1564.8119999999999
 21
1084.4306999999999
  0
ARC
  8
_0-0_LAYER001
  6
CONTINUOUS
 62
    4
 10
1563.8119999999999
 20
1066.1497999999999
 40
1
 50
282.58296000000001
 51
0.0000000000000254
  0
LINE
  8
_0-0_LAYER001
  6
CONTINUOUS
 62
    4
 10
1556.8119999999999
 20
1104.2254
 11
1556.8119999999999
 21
1102.7683999999999
  0
ARC
  8
_0-0_LAYER001
  6
CONTINUOUS
 62
    4
 10
1557.8119999999999
 20
1104.2254
 40
1
 50
101.73308
 51
180
  0
LINE
  8
_0-0_LAYER001
  6
CONTINUOUS
 62
    4
 10
1563.6086
 20
1106.4507000000001
 11
1557.6086
 21
1105.2045000000001
  0
LINE
  8
_0-0_LAYER001
  6
CONTINUOUS
 62
    4
 10
1564.8119999999999
 20
1105.4716000000001
 11
1564.8119999999999
 21
1086.8918000000001
  0
ARC
  8
_0-0_LAYER001
  6
CONTINUOUS
 62
    4
 10
1563.8119999999999
 20
1105.4716000000001
 40
1
 50
0
 51
101.73308
  0
LINE
  8
_0-0_LAYER001
  6
DASHED1
 62
    2
 10
1364.0228999999999
 20
1077.9898000000001
 11
1380.0228999999999
 21
1077.9898000000001
  0
LINE
  8
_0-0_LAYER001
  6
DASHED1
 62
    2
 10
1380.0228999999999
 20
1077.9898000000001
 11
1380.0228999999999
 21
1074.9898000000001
  0
LINE
  8
_0-0_LAYER001
  6
DASHED1
 62
    2
 10
1364.0228999999999
 20
1077.9898000000001
 11
1364.0228999999999
 21
1074.9898000000001
  0
LINE
  8
_0-0_LAYER001
  6
DASHED1
 62
    2
 10
1364.0228999999999
 20
1074.9898000000001
 11
1380.0228999999999
 21
1074.9898000000001
  0
LINE
  8
_0-0_LAYER001
  6
DASHED1
 62
    2
 10
1375.0228999999999
 20
1020.0936999999999
 11
1371.9727
 21
1005.5848000000001
  0
LINE
  8
_0-0_LAYER001
  6
DASHED1
 62
    2
 10
1375.0228999999999
 20
1074.9898000000001
 11
1375.0228999999999
 21
1020.0936999999999
  0
LINE
  8
_0-0_LAYER001
  6
DASHED1
 62
    2
 10
1371.9727
 20
1005.5848000000001
 11
1369.0228999999999
 21
1019.8423
  0
LINE
  8
_0-0_LAYER001
  6
DASHED1
 62
    2
 10
1369.0228999999999
 20
1074.9898000000001
 11
1369.0228999999999
 21
1019.8423
  0
LINE
  8
_0-0_LAYER001
  6
DASHED1
 62
    2
 10
1629.0291000000002
 20
1075.2584999999999
 11
1645.0291000000002
 21
1075.2584999999999
  0
LINE
  8
_0-0_LAYER001
  6
DASHED1
 62
    2
 10
1645.0291000000002
 20
1075.2584999999999
 11
1645.0291000000002
 21
1072.2584999999999
  0
LINE
  8
_0-0_LAYER001
  6
DASHED1
 62
    2
 10
1629.0291000000002
 20
1075.2584999999999
 11
1629.0291000000002
 21
1072.2584999999999
  0
LINE
  8
_0-0_LAYER001
  6
DASHED1
 62
    2
 10
1629.0291000000002
 20
1072.2584999999999
 11
1645.0291000000002
 21
1072.2584999999999
  0
LINE
  8
_0-0_LAYER001
  6
DASHED1
 62
    2
 10
1640.0291000000002
 20
1017.3625
 11
1636.9789000000001
 21
1002.8534999999999
  0
LINE
  8
_0-0_LAYER001
  6
DASHED1
 62
    2
 10
1640.0291000000002
 20
1072.2584999999999
 11
1640.0291000000002
 21
1017.3625
  0
LINE
  8
_0-0_LAYER001
  6
DASHED1
 62
    2
 10
1636.9789000000001
 20
1002.8534999999999
 11
1634.0291000000002
 21
1017.1110000000001
  0
LINE
  8
_0-0_LAYER001
  6
DASHED1
 62
    2
 10
1634.0291000000002
 20
1072.2584999999999
 11
1634.0291000000002
 21
1017.1110000000001
  0
LINE
  8
_0-0_LAYER001
  6
CONTINUOUS
 62
    4
 10
1259.4543000000001
 20
1075.3696
 11
1259.4543000000001
 21
1092.567
  0
LINE
  8
_0-0_LAYER001
  6
CONTINUOUS
 62
    4
 10
1119.7276999999999
 20
1031.5301999999999
 11
1111.1922
 21
1046.0636
  0
LINE
  8
_0-0_LAYER001
  6
CONTINUOUS
 62
    4
 10
1127.8955000000001
 20
1030.8798999999999
 11
1136.2017000000001
 21
1040.9454000000001
  0
ARC
  8
_0-0_LAYER001
  6
CONTINUOUS
 62
    4
 10
1124.0391
 20
1034.0624
 40
5
 50
210.42578
 51
320.47001
  0
LINE
  8
_0-0_LAYER001
  6
CONTINUOUS
 62
    4
 10
1203.8411000000001
 20
1030.4101000000001
 11
1196.5157999999999
 21
1041.7161000000001
  0
LINE
  8
_0-0_LAYER001
  6
CONTINUOUS
 62
    4
 10
1212.3507
 20
1030.5999999999999
 11
1221.2891
 21
1045.8457000000001
  0
ARC
  8
_0-0_LAYER001
  6
CONTINUOUS
 62
    4
 10
1208.0373999999999
 20
1033.1288999999999
 40
5
 50
212.93986000000001
 51
329.61716000000001
  0
LINE
  8
_0-0_LAYER001
  6
CONTINUOUS
 62
    4
 10
1251.6327000000001
 20
1070.1577
 11
1254.0608
 21
1070.5615
  0
LINE
  8
_0-0_LAYER001
  6
CONTINUOUS
 62
    4
 10
1247.4437
 20
1069.4613999999999
 11
1251.6327000000001
 21
1070.1577
  0
LINE
  8
_0-0_LAYER001
  6
CONTINUOUS
 62
    4
 10
1243.2499
 20
1068.7657999999999
 11
1247.4437
 21
1069.4613999999999
  0
LINE
  8
_0-0_LAYER001
  6
CONTINUOUS
 62
    4
 10
1239.0510999999999
 20
1068.0718999999999
 11
1243.2499
 21
1068.7657999999999
  0
LINE
  8
_0-0_LAYER001
  6
CONTINUOUS
 62
    4
 10
1234.8471
 20
1067.3804
 11
1239.0510999999999
 21
1068.0718999999999
  0
LINE
  8
_0-0_LAYER001
  6
CONTINUOUS
 62
    4
 10
1230.6402
 20
1066.6927000000001
 11
1234.8471
 21
1067.3804
  0
LINE
  8
_0-0_LAYER001
  6
CONTINUOUS
 62
    4
 10
1228.1878999999999
 20
1066.2942
 11
1230.6402
 21
1066.6927000000001
  0
LINE
  8
_0-0_LAYER001
  6
CONTINUOUS
 62
    4
 10
1223.4552000000001
 20
1065.5318
 11
1228.1878999999999
 21
1066.2942
  0
LINE
  8
_0-0_LAYER001
  6
CONTINUOUS
 62
    4
 10
1215.2507000000001
 20
1064.2479000000001
 11
1223.4552000000001
 21
1065.5318
  0
LINE
  8
_0-0_LAYER001
  6
CONTINUOUS
 62
    4
 10
1206.9432999999999
 20
1063.0281
 11
1215.2507000000001
 21
1064.2479000000001
  0
LINE
  8
_0-0_LAYER001
  6
CONTINUOUS
 62
    4
 10
1198.5350000000001
 20
1061.9117000000001
 11
1206.9432999999999
 21
1063.0281
  0
LINE
  8
_0-0_LAYER001
  6
CONTINUOUS
 62
    4
 10
1190.0224000000001
 20
1060.9383
 11
1198.5350000000001
 21
1061.9117000000001
  0
LINE
  8
_0-0_LAYER001
  6
CONTINUOUS
 62
    4
 10
1181.4632999999999
 20
1060.1542999999999
 11
1190.0224000000001
 21
1060.9383
  0
LINE
  8
_0-0_LAYER001
  6
CONTINUOUS
 62
    4
 10
1176.4016999999999
 20
1059.7963
 11
1181.4632999999999
 21
1060.1542999999999
  0
LINE
  8
_0-0_LAYER001
  6
CONTINUOUS
 62
    4
 10
1173.5992000000001
 20
1059.6347000000001
 11
1176.4016999999999
 21
1059.7963
  0
LINE
  8
_0-0_LAYER001
  6
CONTINUOUS
 62
    4
 10
1168.8780999999999
 20
1059.4306999999999
 11
1173.5992000000001
 21
1059.6347000000001
  0
LINE
  8
_0-0_LAYER001
  6
CONTINUOUS
 62
    4
 10
1164.0489
 20
1059.3253
 11
1168.8780999999999
 21
1059.4306999999999
  0
LINE
  8
_0-0_LAYER001
  6
CONTINUOUS
 62
    4
 10
1159.1473000000001
 20
1059.3407
 11
1164.0489
 21
1059.3253
  0
LINE
  8
_0-0_LAYER001
  6
CONTINUOUS
 62
    4
 10
1154.1762000000001
 20
1059.4984999999999
 11
1159.1473000000001
 21
1059.3407
  0
LINE
  8
_0-0_LAYER001
  6
CONTINUOUS
 62
    4
 10
1149.2188000000001
 20
1059.8163
 11
1154.1762000000001
 21
1059.4984999999999
  0
LINE
  8
_0-0_LAYER001
  6
CONTINUOUS
 62
    4
 10
1146.1672000000001
 20
1060.0977
 11
1149.2188000000001
 21
1059.8163
  0
LINE
  8
_0-0_LAYER001
  6
CONTINUOUS
 62
    4
 10
1142.2383
 20
1060.5599999999999
 11
1146.1672000000001
 21
1060.0977
  0
LINE
  8
_0-0_LAYER001
  6
CONTINUOUS
 62
    4
 10
1135.7244000000001
 20
1061.5825
 11
1142.2383
 21
1060.5599999999999
  0
LINE
  8
_0-0_LAYER001
  6
CONTINUOUS
 62
    4
 10
1129.1777999999999
 20
1062.9347
 11
1135.7244000000001
 21
1061.5825
  0
LINE
  8
_0-0_LAYER001
  6
CONTINUOUS
 62
    4
 10
1122.7148
 20
1064.5905
 11
1129.1777999999999
 21
1062.9347
  0
LINE
  8
_0-0_LAYER001
  6
CONTINUOUS
 62
    4
 10
1116.3489
 20
1066.5411999999999
 11
1122.7148
 21
1064.5905
  0
LINE
  8
_0-0_LAYER001
  6
CONTINUOUS
 62
    4
 10
1110.1840999999999
 20
1068.7462
 11
1116.3489
 21
1066.5411999999999
  0
LINE
  8
_0-0_LAYER001
  6
CONTINUOUS
 62
    4
 10
1106.4974999999999
 20
1070.2180000000001
 11
1110.1840999999999
 21
1068.7462
  0
LINE
  8
_0-0_LAYER001
  6
CONTINUOUS
 62
    4
 10
1102.1332
 20
1072.1105
 11
1106.4974999999999
 21
1070.2180000000001
  0
LINE
  8
_0-0_LAYER001
  6
CONTINUOUS
 62
    4
 10
1095.0642
 20
1075.5254
 11
1102.1332
 21
1072.1105
  0
LINE
  8
_0-0_LAYER001
  6
CONTINUOUS
 62
    4
 10
1088.1713
 20
1079.2551000000001
 11
1095.0642
 21
1075.5254
  0
LINE
  8
_0-0_LAYER001
  6
CONTINUOUS
 62
    4
 10
1081.5343
 20
1083.1886999999999
 11
1088.1713
 21
1079.2551000000001
  0
LINE
  8
_0-0_LAYER001
  6
CONTINUOUS
 62
    4
 10
1075.1249
 20
1087.2711999999999
 11
1081.5343
 21
1083.1886999999999
  0
LINE
  8
_0-0_LAYER001
  6
CONTINUOUS
 62
    4
 10
1068.9407000000001
 20
1091.4332999999999
 11
1075.1249
 21
1087.2711999999999
  0
LINE
  8
_0-0_LAYER001
  6
CONTINUOUS
 62
    4
 10
1065.3984
 20
1093.8969999999999
 11
1068.9407000000001
 21
1091.4332999999999
  0
LINE
  8
_0-0_LAYER001
  6
CONTINUOUS
 62
    4
 10
1063.1664000000001
 20
1095.4704999999999
 11
1065.3984
 21
1093.8969999999999
  0
LINE
  8
_0-0_LAYER001
  6
CONTINUOUS
 62
    4
 10
1059.5427999999999
 20
1098.0097000000001
 11
1063.1664000000001
 21
1095.4704999999999
  0
LINE
  8
_0-0_LAYER001
  6
CONTINUOUS
 62
    4
 10
1056.1732
 20
1100.2752
 11
1059.5427999999999
 21
1098.0097000000001
  0
LINE
  8
_0-0_LAYER001
  6
CONTINUOUS
 62
    4
 10
1053.0581999999999
 20
1102.2022999999999
 11
1056.1732
 21
1100.2752
  0
LINE
  8
_0-0_LAYER001
  6
CONTINUOUS
 62
    4
 10
1050.191
 20
1103.758
 11
1053.0581999999999
 21
1102.2022999999999
  0
LINE
  8
_0-0_LAYER001
  6
CONTINUOUS
 62
    4
 10
1047.3598
 20
1105.0264999999999
 11
1050.191
 21
1103.758
  0
LINE
  8
_0-0_LAYER001
  6
CONTINUOUS
 62
    4
 10
1045.8966
 20
1105.5586000000001
 11
1047.3598
 21
1105.0264999999999
  0
LINE
  8
_0-0_LAYER001
  6
CONTINUOUS
 62
    4
 10
1045.7155
 20
1105.6165000000001
 11
1045.8966
 21
1105.5586000000001
  0
LINE
  8
_0-0_LAYER001
  6
CONTINUOUS
 62
    4
 10
1044.9273000000001
 20
1105.8444999999999
 11
1045.7155
 21
1105.6165000000001
  0
LINE
  8
_0-0_LAYER001
  6
CONTINUOUS
 62
    4
 10
1044.2701
 20
1106.0072
 11
1044.9273000000001
 21
1105.8444999999999
  0
LINE
  8
_0-0_LAYER001
  6
CONTINUOUS
 62
    4
 10
1043.6883
 20
1106.1251999999999
 11
1044.2701
 21
1106.0072
  0
LINE
  8
_0-0_LAYER001
  6
CONTINUOUS
 62
    4
 10
1043.6483000000001
 20
1106.1314
 11
1043.6883
 21
1106.1251999999999
  0
LINE
  8
_0-0_LAYER001
  6
CONTINUOUS
 62
    4
 10
1247.6221
 20
1050.9702
 11
1249.2362000000001
 21
1051.2385999999999
  0
LINE
  8
_0-0_LAYER001
  6
CONTINUOUS
 62
    4
 10
1243.4335000000001
 20
1050.2739999999999
 11
1247.6221
 21
1050.9702
  0
LINE
  8
_0-0_LAYER001
  6
CONTINUOUS
 62
    4
 10
1239.2406000000001
 20
1049.5786000000001
 11
1243.4335000000001
 21
1050.2739999999999
  0
LINE
  8
_0-0_LAYER001
  6
CONTINUOUS
 62
    4
 10
1235.0432000000001
 20
1048.8848
 11
1239.2406000000001
 21
1049.5786000000001
  0
LINE
  8
_0-0_LAYER001
  6
CONTINUOUS
 62
    4
 10
1230.8408999999999
 20
1048.1936000000001
 11
1235.0432000000001
 21
1048.8848
  0
LINE
  8
_0-0_LAYER001
  6
CONTINUOUS
 62
    4
 10
1226.6359
 20
1047.5063
 11
1230.8408999999999
 21
1048.1936000000001
  0
LINE
  8
_0-0_LAYER001
  6
CONTINUOUS
 62
    4
 10
1224.1858999999999
 20
1047.1081999999999
 11
1226.6359
 21
1047.5063
  0
LINE
  8
_0-0_LAYER001
  6
CONTINUOUS
 62
    4
 10
1219.4589000000001
 20
1046.3466000000001
 11
1224.1858999999999
 21
1047.1081999999999
  0
LINE
  8
_0-0_LAYER001
  6
CONTINUOUS
 62
    4
 10
1211.2683
 20
1045.0649000000001
 11
1219.4589000000001
 21
1046.3466000000001
  0
LINE
  8
_0-0_LAYER001
  6
CONTINUOUS
 62
    4
 10
1202.9838
 20
1043.8485000000001
 11
1211.2683
 21
1045.0649000000001
  0
LINE
  8
_0-0_LAYER001
  6
CONTINUOUS
 62
    4
 10
1194.6071999999999
 20
1042.7363
 11
1202.9838
 21
1043.8485000000001
  0
LINE
  8
_0-0_LAYER001
  6
CONTINUOUS
 62
    4
 10
1186.135
 20
1041.7674999999999
 11
1194.6071999999999
 21
1042.7363
  0
LINE
  8
_0-0_LAYER001
  6
CONTINUOUS
 62
    4
 10
1177.6188999999999
 20
1040.9875
 11
1186.135
 21
1041.7674999999999
  0
LINE
  8
_0-0_LAYER001
  6
CONTINUOUS
 62
    4
 10
1172.5909999999999
 20
1040.6318000000001
 11
1177.6188999999999
 21
1040.9875
  0
LINE
  8
_0-0_LAYER001
  6
CONTINUOUS
 62
    4
 10
1169.8158000000001
 20
1040.4718
 11
1172.5909999999999
 21
1040.6318000000001
  0
LINE
  8
_0-0_LAYER001
  6
CONTINUOUS
 62
    4
 10
1165.1305
 20
1040.2693999999999
 11
1169.8158000000001
 21
1040.4718
  0
LINE
  8
_0-0_LAYER001
  6
CONTINUOUS
 62
    4
 10
1160.3476000000001
 20
1040.165
 11
1165.1305
 21
1040.2693999999999
  0
LINE
  8
_0-0_LAYER001
  6
CONTINUOUS
 62
    4
 10
1155.4996000000001
 20
1040.1802
 11
1160.3476000000001
 21
1040.165
  0
LINE
  8
_0-0_LAYER001
  6
CONTINUOUS
 62
    4
 10
1150.5894000000001
 20
1040.3361
 11
1155.4996000000001
 21
1040.1802
  0
LINE
  8
_0-0_LAYER001
  6
CONTINUOUS
 62
    4
 10
1145.6921
 20
1040.6500000000001
 11
1150.5894000000001
 21
1040.3361
  0
LINE
  8
_0-0_LAYER001
  6
CONTINUOUS
 62
    4
 10
1142.6932999999999
 20
1040.9266
 11
1145.6921
 21
1040.6500000000001
  0
LINE
  8
_0-0_LAYER001
  6
CONTINUOUS
 62
    4
 10
1138.8278
 20
1041.3814
 11
1142.6932999999999
 21
1040.9266
  0
LINE
  8
_0-0_LAYER001
  6
CONTINUOUS
 62
    4
 10
1132.3994
 20
1042.3905
 11
1138.8278
 21
1041.3814
  0
LINE
  8
_0-0_LAYER001
  6
CONTINUOUS
 62
    4
 10
1125.9458999999999
 20
1043.7234000000001
 11
1132.3994
 21
1042.3905
  0
LINE
  8
_0-0_LAYER001
  6
CONTINUOUS
 62
    4
 10
1119.5736999999999
 20
1045.356
 11
1125.9458999999999
 21
1043.7234000000001
  0
LINE
  8
_0-0_LAYER001
  6
CONTINUOUS
 62
    4
 10
1113.2963999999999
 20
1047.2795000000001
 11
1119.5736999999999
 21
1045.356
  0
LINE
  8
_0-0_LAYER001
  6
CONTINUOUS
 62
    4
 10
1107.2093
 20
1049.4567
 11
1113.2963999999999
 21
1047.2795000000001
  0
LINE
  8
_0-0_LAYER001
  6
CONTINUOUS
 62
    4
 10
1103.5836999999999
 20
1050.9041
 11
1107.2093
 21
1049.4567
  0
LINE
  8
_0-0_LAYER001
  6
CONTINUOUS
 62
    4
 10
1099.2837999999999
 20
1052.7687000000001
 11
1103.5836999999999
 21
1050.9041
  0
LINE
  8
_0-0_LAYER001
  6
CONTINUOUS
 62
    4
 10
1092.2928999999999
 20
1056.1459
 11
1099.2837999999999
 21
1052.7687000000001
  0
LINE
  8
_0-0_LAYER001
  6
CONTINUOUS
 62
    4
 10
1085.4748
 20
1059.8351
 11
1092.2928999999999
 21
1056.1459
  0
LINE
  8
_0-0_LAYER001
  6
CONTINUOUS
 62
    4
 10
1078.8989999999999
 20
1063.7325000000001
 11
1085.4748
 21
1059.8351
  0
LINE
  8
_0-0_LAYER001
  6
CONTINUOUS
 62
    4
 10
1072.5381
 20
1067.7841000000001
 11
1078.8989999999999
 21
1063.7325000000001
  0
LINE
  8
_0-0_LAYER001
  6
CONTINUOUS
 62
    4
 10
1066.3875
 20
1071.9236000000001
 11
1072.5381
 21
1067.7841000000001
  0
LINE
  8
_0-0_LAYER001
  6
CONTINUOUS
 62
    4
 10
1062.8630000000001
 20
1074.3749
 11
1066.3875
 21
1071.9236000000001
  0
LINE
  8
_0-0_LAYER001
  6
CONTINUOUS
 62
    4
 10
1060.6339
 20
1075.9464
 11
1062.8630000000001
 21
1074.3749
  0
LINE
  8
_0-0_LAYER001
  6
CONTINUOUS
 62
    4
 10
1056.9921999999999
 20
1078.4983
 11
1060.6339
 21
1075.9464
  0
LINE
  8
_0-0_LAYER001
  6
CONTINUOUS
 62
    4
 10
1053.575
 20
1080.7956999999999
 11
1056.9921999999999
 21
1078.4983
  0
LINE
  8
_0-0_LAYER001
  6
CONTINUOUS
 62
    4
 10
1050.3794
 20
1082.7726
 11
1053.575
 21
1080.7956999999999
  0
LINE
  8
_0-0_LAYER001
  6
CONTINUOUS
 62
    4
 10
1047.3955000000001
 20
1084.3916999999999
 11
1050.3794
 21
1082.7726
  0
LINE
  8
_0-0_LAYER001
  6
CONTINUOUS
 62
    4
 10
1044.4289000000001
 20
1085.7209
 11
1047.3955000000001
 21
1084.3916999999999
  0
LINE
  8
_0-0_LAYER001
  6
CONTINUOUS
 62
    4
 10
1043.6789000000001
 20
1085.9936
 11
1044.4289000000001
 21
1085.7209
  0
LINE
  8
_0-0_LAYER001
  6
CONTINUOUS
 62
    4
 10
1044.0119999999999
 20
1106.0367000000001
 11
1043.836
 21
1085.8633
  0
LINE
  8
_0-0_LAYER001
  6
CONTINUOUS
 62
    4
 10
1244.3376000000001
 20
1040.5489
 11
1242.0922
 21
1049.1224
  0
ARC
  8
_0-0_LAYER001
  6
CONTINUOUS
 62
    4
 10
1247.2397000000001
 20
1041.309
 40
3
 50
194.67639000000003
 51
270.00000000000006
  0
LINE
  8
_0-0_LAYER001
  6
CONTINUOUS
 62
    4
 10
1250.6822
 20
1038.3046999999999
 11
1247.2644
 21
1038.3046999999999
  0
LINE
  8
_0-0_LAYER001
  6
CONTINUOUS
 62
    4
 10
1253.6414
 20
1040.8115
 11
1255.5753999999999
 21
1052.4157
  0
ARC
  8
_0-0_LAYER001
  6
CONTINUOUS
 62
    4
 10
1250.6822
 20
1041.3046999999999
 40
3
 50
270
 51
350.53766999999999
  0
LINE
  8
_0-0_LAYER001
  6
CONTINUOUS
 62
    4
 10
996.91579999999999
 20
1115.4268999999999
 11
997.72980000000007
 21
1115.7336
  0
LINE
  8
_0-0_LAYER001
  6
CONTINUOUS
 62
    4
 10
997.72980000000007
 20
1115.7336
 11
1001.279
 21
1117.0732
  0
LINE
  8
_0-0_LAYER001
  6
CONTINUOUS
 62
    4
 10
1001.279
 20
1117.0732
 11
1004.8356000000001
 21
1118.422
  0
LINE
  8
_0-0_LAYER001
  6
CONTINUOUS
 62
    4
 10
1004.8356000000001
 20
1118.422
 11
1008.4042999999999
 21
1119.7861
  0
LINE
  8
_0-0_LAYER001
  6
CONTINUOUS
 62
    4
 10
1008.4042999999999
 20
1119.7861
 11
1011.9896000000001
 21
1121.1711
  0
LINE
  8
_0-0_LAYER001
  6
CONTINUOUS
 62
    4
 10
1011.9896000000001
 20
1121.1711
 11
1015.5963999999999
 21
1122.5831000000001
  0
LINE
  8
_0-0_LAYER001
  6
CONTINUOUS
 62
    4
 10
1015.5963999999999
 20
1122.5831000000001
 11
1017.6999000000001
 21
1123.4167
  0
LINE
  8
_0-0_LAYER001
  6
CONTINUOUS
 62
    4
 10
1017.6999000000001
 20
1123.4167
 11
1019.7791999999999
 21
1124.2456
  0
LINE
  8
_0-0_LAYER001
  6
CONTINUOUS
 62
    4
 10
1019.7791999999999
 20
1124.2456
 11
1023.3858
 21
1125.6469999999999
  0
LINE
  8
_0-0_LAYER001
  6
CONTINUOUS
 62
    4
 10
1023.3858
 20
1125.6469999999999
 11
1027.0184999999999
 21
1126.9296999999999
  0
LINE
  8
_0-0_LAYER001
  6
CONTINUOUS
 62
    4
 10
1027.0184999999999
 20
1126.9296999999999
 11
1030.6764000000001
 21
1127.9964
  0
LINE
  8
_0-0_LAYER001
  6
CONTINUOUS
 62
    4
 10
1030.6764000000001
 20
1127.9964
 11
1034.3586
 21
1128.7496000000001
  0
LINE
  8
_0-0_LAYER001
  6
CONTINUOUS
 62
    4
 10
1034.3586
 20
1128.7496000000001
 11
1038.0637999999999
 21
1129.0921000000001
  0
LINE
  8
_0-0_LAYER001
  6
CONTINUOUS
 62
    4
 10
1038.0637999999999
 20
1129.0921000000001
 11
1040.2230999999999
 21
1129.0642
  0
LINE
  8
_0-0_LAYER001
  6
CONTINUOUS
 62
    4
 10
1040.2230999999999
 20
1129.0642
 11
1041.0723
 21
1129.0029
  0
LINE
  8
_0-0_LAYER001
  6
CONTINUOUS
 62
    4
 10
1041.0723
 20
1129.0029
 11
1042.5365999999999
 21
1128.8323
  0
LINE
  8
_0-0_LAYER001
  6
CONTINUOUS
 62
    4
 10
1042.5365999999999
 20
1128.8323
 11
1043.9976999999999
 21
1128.5856000000001
  0
LINE
  8
_0-0_LAYER001
  6
CONTINUOUS
 62
    4
 10
1043.9976999999999
 20
1128.5856000000001
 11
1045.4513999999999
 21
1128.2695000000001
  0
LINE
  8
_0-0_LAYER001
  6
CONTINUOUS
 62
    4
 10
1045.4513999999999
 20
1128.2695000000001
 11
1046.8934999999999
 21
1127.8910000000001
  0
LINE
  8
_0-0_LAYER001
  6
CONTINUOUS
 62
    4
 10
1046.8934999999999
 20
1127.8910000000001
 11
1048.3199999999999
 21
1127.4568999999999
  0
LINE
  8
_0-0_LAYER001
  6
CONTINUOUS
 62
    4
 10
1048.3199999999999
 20
1127.4568999999999
 11
1049.1384
 21
1127.1822999999999
  0
LINE
  8
_0-0_LAYER001
  6
CONTINUOUS
 62
    4
 10
1049.1384
 20
1127.1822999999999
 11
1051.6367
 21
1126.2340999999999
  0
LINE
  8
_0-0_LAYER001
  6
CONTINUOUS
 62
    4
 10
1051.6367
 20
1126.2340999999999
 11
1055.7955999999999
 21
1124.3005000000001
  0
LINE
  8
_0-0_LAYER001
  6
CONTINUOUS
 62
    4
 10
1055.7955999999999
 20
1124.3005000000001
 11
1059.7994000000001
 21
1122.0551
  0
LINE
  8
_0-0_LAYER001
  6
CONTINUOUS
 62
    4
 10
1059.7994000000001
 20
1122.0551
 11
1063.6863000000001
 21
1119.5749000000001
  0
LINE
  8
_0-0_LAYER001
  6
CONTINUOUS
 62
    4
 10
1063.6863000000001
 20
1119.5749000000001
 11
1067.4943000000001
 21
1116.9367
  0
LINE
  8
_0-0_LAYER001
  6
CONTINUOUS
 62
    4
 10
1067.4943000000001
 20
1116.9367
 11
1071.2615000000001
 21
1114.2175999999999
  0
LINE
  8
_0-0_LAYER001
  6
CONTINUOUS
 62
    4
 10
1071.2615000000001
 20
1114.2175999999999
 11
1073.4429
 21
1112.6338000000001
  0
LINE
  8
_0-0_LAYER001
  6
CONTINUOUS
 62
    4
 10
1073.4429
 20
1112.6338000000001
 11
1076.7744
 21
1110.2470000000001
  0
LINE
  8
_0-0_LAYER001
  6
CONTINUOUS
 62
    4
 10
1076.7744
 20
1110.2470000000001
 11
1082.5667000000001
 21
1106.23
  0
LINE
  8
_0-0_LAYER001
  6
CONTINUOUS
 62
    4
 10
1082.5667000000001
 20
1106.23
 11
1088.4387999999999
 21
1102.3733999999999
  0
LINE
  8
_0-0_LAYER001
  6
CONTINUOUS
 62
    4
 10
1088.4387999999999
 20
1102.3733999999999
 11
1094.413
 21
1098.7190000000001
  0
LINE
  8
_0-0_LAYER001
  6
CONTINUOUS
 62
    4
 10
1094.413
 20
1098.7190000000001
 11
1100.5111999999999
 21
1095.3083999999999
  0
LINE
  8
_0-0_LAYER001
  6
CONTINUOUS
 62
    4
 10
1100.5111999999999
 20
1095.3083999999999
 11
1106.7555
 21
1092.1836000000001
  0
LINE
  8
_0-0_LAYER001
  6
CONTINUOUS
 62
    4
 10
1106.7555
 20
1092.1836000000001
 11
1110.4528
 21
1090.5186000000001
  0
LINE
  8
_0-0_LAYER001
  6
CONTINUOUS
 62
    4
 10
1110.4528
 20
1090.5186000000001
 11
1113.5119999999999
 21
1089.2474999999999
  0
LINE
  8
_0-0_LAYER001
  6
CONTINUOUS
 62
    4
 10
1113.5119999999999
 20
1089.2474999999999
 11
1118.8724999999999
 21
1087.2454
  0
LINE
  8
_0-0_LAYER001
  6
CONTINUOUS
 62
    4
 10
1118.8724999999999
 20
1087.2454
 11
1124.3281999999999
 21
1085.4899
  0
LINE
  8
_0-0_LAYER001
  6
CONTINUOUS
 62
    4
 10
1124.3281999999999
 20
1085.4899
 11
1129.8632
 21
1083.9891
  0
LINE
  8
_0-0_LAYER001
  6
CONTINUOUS
 62
    4
 10
1129.8632
 20
1083.9891
 11
1135.4614999999999
 21
1082.7511
  0
LINE
  8
_0-0_LAYER001
  6
CONTINUOUS
 62
    4
 10
1135.4614999999999
 20
1082.7511
 11
1141.1071999999999
 21
1081.7838999999999
  0
LINE
  8
_0-0_LAYER001
  6
CONTINUOUS
 62
    4
 10
1141.1071999999999
 20
1081.7838999999999
 11
1144.3972000000001
 21
1081.3502000000001
  0
LINE
  8
_0-0_LAYER001
  6
CONTINUOUS
 62
    4
 10
1144.3972000000001
 20
1081.3502000000001
 11
1146.9165
 21
1081.0823
  0
LINE
  8
_0-0_LAYER001
  6
CONTINUOUS
 62
    4
 10
1146.9165
 20
1081.0823
 11
1151.2686000000001
 21
1080.7422999999999
  0
LINE
  8
_0-0_LAYER001
  6
CONTINUOUS
 62
    4
 10
1151.2686000000001
 20
1080.7422999999999
 11
1155.6288
 21
1080.5427999999999
  0
LINE
  8
_0-0_LAYER001
  6
CONTINUOUS
 62
    4
 10
1155.6288
 20
1080.5427999999999
 11
1159.9939999999999
 21
1080.4682
  0
LINE
  8
_0-0_LAYER001
  6
CONTINUOUS
 62
    4
 10
1159.9939999999999
 20
1080.4682
 11
1164.3611000000001
 21
1080.5026
  0
LINE
  8
_0-0_LAYER001
  6
CONTINUOUS
 62
    4
 10
1164.3611000000001
 20
1080.5026
 11
1168.7270000000001
 21
1080.6301000000001
  0
LINE
  8
_0-0_LAYER001
  6
CONTINUOUS
 62
    4
 10
1168.7270000000001
 20
1080.6301000000001
 11
1171.2574999999999
 21
1080.7406000000001
  0
LINE
  8
_0-0_LAYER001
  6
CONTINUOUS
 62
    4
 10
1171.2574999999999
 20
1080.7406000000001
 11
1175.9866
 21
1081.0088000000001
  0
LINE
  8
_0-0_LAYER001
  6
CONTINUOUS
 62
    4
 10
1175.9866
 20
1081.0088000000001
 11
1184.1247000000001
 21
1081.6397999999999
  0
LINE
  8
_0-0_LAYER001
  6
CONTINUOUS
 62
    4
 10
1184.1247000000001
 20
1081.6397999999999
 11
1192.2455
 21
1082.4537
  0
LINE
  8
_0-0_LAYER001
  6
CONTINUOUS
 62
    4
 10
1192.2455
 20
1082.4537
 11
1200.3513
 21
1083.4149
  0
LINE
  8
_0-0_LAYER001
  6
CONTINUOUS
 62
    4
 10
1200.3513
 20
1083.4149
 11
1208.4448
 21
1084.4881
  0
LINE
  8
_0-0_LAYER001
  6
CONTINUOUS
 62
    4
 10
1208.4448
 20
1084.4881
 11
1216.5282999999999
 21
1085.6377
  0
LINE
  8
_0-0_LAYER001
  6
CONTINUOUS
 62
    4
 10
1216.5282999999999
 20
1085.6377
 11
1221.2131999999999
 21
1086.3254999999999
  0
LINE
  8
_0-0_LAYER001
  6
CONTINUOUS
 62
    4
 10
1221.2131999999999
 20
1086.3254999999999
 11
1223.6481000000001
 21
1086.6863000000001
  0
LINE
  8
_0-0_LAYER001
  6
CONTINUOUS
 62
    4
 10
1223.6481000000001
 20
1086.6863000000001
 11
1227.8451
 21
1087.3123000000001
  0
LINE
  8
_0-0_LAYER001
  6
CONTINUOUS
 62
    4
 10
1227.8451
 20
1087.3123000000001
 11
1232.0409
 21
1087.9423999999999
  0
LINE
  8
_0-0_LAYER001
  6
CONTINUOUS
 62
    4
 10
1232.0409
 20
1087.9423999999999
 11
1236.2357
 21
1088.5757000000001
  0
LINE
  8
_0-0_LAYER001
  6
CONTINUOUS
 62
    4
 10
1236.2357
 20
1088.5757000000001
 11
1240.4299000000001
 21
1089.2112999999999
  0
LINE
  8
_0-0_LAYER001
  6
CONTINUOUS
 62
    4
 10
1240.4299000000001
 20
1089.2112999999999
 11
1244.6235999999999
 21
1089.8483000000001
  0
LINE
  8
_0-0_LAYER001
  6
CONTINUOUS
 62
    4
 10
1244.6235999999999
 20
1089.8483000000001
 11
1247.0559000000001
 21
1090.2180000000001
  0
LINE
  8
_0-0_LAYER001
  6
CONTINUOUS
 62
    4
 10
1002.0191
 20
1098.1143999999999
 11
1004.0809999999999
 21
1098.8913
  0
LINE
  8
_0-0_LAYER001
  6
CONTINUOUS
 62
    4
 10
1004.0809999999999
 20
1098.8913
 11
1007.6486
 21
1100.2378000000001
  0
LINE
  8
_0-0_LAYER001
  6
CONTINUOUS
 62
    4
 10
1007.6486
 20
1100.2378000000001
 11
1011.2405000000001
 21
1101.6001000000001
  0
LINE
  8
_0-0_LAYER001
  6
CONTINUOUS
 62
    4
 10
1011.2405000000001
 20
1101.6001000000001
 11
1014.8607999999999
 21
1102.9838999999999
  0
LINE
  8
_0-0_LAYER001
  6
CONTINUOUS
 62
    4
 10
1014.8607999999999
 20
1102.9838999999999
 11
1018.5137999999999
 21
1104.3951
  0
LINE
  8
_0-0_LAYER001
  6
CONTINUOUS
 62
    4
 10
1018.5137999999999
 20
1104.3951
 11
1022.193
 21
1105.8353999999999
  0
LINE
  8
_0-0_LAYER001
  6
CONTINUOUS
 62
    4
 10
1022.193
 20
1105.8353999999999
 11
1024.3481999999999
 21
1106.6895
  0
LINE
  8
_0-0_LAYER001
  6
CONTINUOUS
 62
    4
 10
1024.3481999999999
 20
1106.6895
 11
1026.3717999999999
 21
1107.4961000000001
  0
LINE
  8
_0-0_LAYER001
  6
CONTINUOUS
 62
    4
 10
1026.3717999999999
 20
1107.4961000000001
 11
1029.6436000000001
 21
1108.7674999999999
  0
LINE
  8
_0-0_LAYER001
  6
CONTINUOUS
 62
    4
 10
1029.6436000000001
 20
1108.7674999999999
 11
1032.5388
 21
1109.7898
  0
LINE
  8
_0-0_LAYER001
  6
CONTINUOUS
 62
    4
 10
1032.5388
 20
1109.7898
 11
1035.0069000000001
 21
1110.5094999999999
  0
LINE
  8
_0-0_LAYER001
  6
CONTINUOUS
 62
    4
 10
1035.0069000000001
 20
1110.5094999999999
 11
1036.9985999999999
 21
1110.9168999999999
  0
LINE
  8
_0-0_LAYER001
  6
CONTINUOUS
 62
    4
 10
1036.9985999999999
 20
1110.9168999999999
 11
1038.7779
 21
1111.0814
  0
LINE
  8
_0-0_LAYER001
  6
CONTINUOUS
 62
    4
 10
1038.7779
 20
1111.0814
 11
1039.4575
 21
1111.0726
  0
LINE
  8
_0-0_LAYER001
  6
CONTINUOUS
 62
    4
 10
1039.4575
 20
1111.0726
 11
1039.3814
 21
1111.0780999999999
  0
LINE
  8
_0-0_LAYER001
  6
CONTINUOUS
 62
    4
 10
1039.3814
 20
1111.0780999999999
 11
1039.9949999999999
 21
1111.0065999999999
  0
LINE
  8
_0-0_LAYER001
  6
CONTINUOUS
 62
    4
 10
1039.9949999999999
 20
1111.0065999999999
 11
1040.5853999999999
 21
1110.9069
  0
LINE
  8
_0-0_LAYER001
  6
CONTINUOUS
 62
    4
 10
1040.5853999999999
 20
1110.9069
 11
1041.2529
 21
1110.7618
  0
LINE
  8
_0-0_LAYER001
  6
CONTINUOUS
 62
    4
 10
1041.2529
 20
1110.7618
 11
1041.9864
 21
1110.5693000000001
  0
LINE
  8
_0-0_LAYER001
  6
CONTINUOUS
 62
    4
 10
1041.9864
 20
1110.5693000000001
 11
1042.8356000000001
 21
1110.3108999999999
  0
LINE
  8
_0-0_LAYER001
  6
CONTINUOUS
 62
    4
 10
1042.8356000000001
 20
1110.3108999999999
 11
1043.0797
 21
1110.229
  0
LINE
  8
_0-0_LAYER001
  6
CONTINUOUS
 62
    4
 10
1043.0797
 20
1110.229
 11
1044.6396
 21
1109.6369
  0
LINE
  8
_0-0_LAYER001
  6
CONTINUOUS
 62
    4
 10
1044.6396
 20
1109.6369
 11
1047.5872999999999
 21
1108.2665
  0
LINE
  8
_0-0_LAYER001
  6
CONTINUOUS
 62
    4
 10
1047.5872999999999
 20
1108.2665
 11
1050.5482999999999
 21
1106.6059
  0
LINE
  8
_0-0_LAYER001
  6
CONTINUOUS
 62
    4
 10
1050.5482999999999
 20
1106.6059
 11
1053.7159999999999
 21
1104.5844999999999
  0
LINE
  8
_0-0_LAYER001
  6
CONTINUOUS
 62
    4
 10
1053.7159999999999
 20
1104.5844999999999
 11
1057.1007
 21
1102.2396000000001
  0
LINE
  8
_0-0_LAYER001
  6
CONTINUOUS
 62
    4
 10
1057.1007
 20
1102.2396000000001
 11
1060.7065
 21
1099.6370999999999
  0
LINE
  8
_0-0_LAYER001
  6
CONTINUOUS
 62
    4
 10
1060.7065
 20
1099.6370999999999
 11
1062.9133999999999
 21
1098.0346999999999
  0
LINE
  8
_0-0_LAYER001
  6
CONTINUOUS
 62
    4
 10
1062.9133999999999
 20
1098.0346999999999
 11
1066.4033999999999
 21
1095.5344
  0
LINE
  8
_0-0_LAYER001
  6
CONTINUOUS
 62
    4
 10
1066.4033999999999
 20
1095.5344
 11
1072.4956
 21
1091.3094000000001
  0
LINE
  8
_0-0_LAYER001
  6
CONTINUOUS
 62
    4
 10
1072.4956
 20
1091.3094000000001
 11
1078.7992999999999
 21
1087.1694
  0
LINE
  8
_0-0_LAYER001
  6
CONTINUOUS
 62
    4
 10
1078.7992999999999
 20
1087.1694
 11
1085.3199999999999
 21
1083.1805999999999
  0
LINE
  8
_0-0_LAYER001
  6
CONTINUOUS
 62
    4
 10
1085.3199999999999
 20
1083.1805999999999
 11
1092.086
 21
1079.3966
  0
LINE
  8
_0-0_LAYER001
  6
CONTINUOUS
 62
    4
 10
1092.086
 20
1079.3966
 11
1099.029
 21
1075.9221
  0
LINE
  8
_0-0_LAYER001
  6
CONTINUOUS
 62
    4
 10
1099.029
 20
1075.9221
 11
1103.3025
 21
1073.9975999999999
  0
LINE
  8
_0-0_LAYER001
  6
CONTINUOUS
 62
    4
 10
1103.3025
 20
1073.9975999999999
 11
1106.9075
 21
1072.4997000000001
  0
LINE
  8
_0-0_LAYER001
  6
CONTINUOUS
 62
    4
 10
1106.9075
 20
1072.4997000000001
 11
1112.9636
 21
1070.2378000000001
  0
LINE
  8
_0-0_LAYER001
  6
CONTINUOUS
 62
    4
 10
1112.9636
 20
1070.2378000000001
 11
1119.2135000000001
 21
1068.2267999999999
  0
LINE
  8
_0-0_LAYER001
  6
CONTINUOUS
 62
    4
 10
1119.2135000000001
 20
1068.2267999999999
 11
1125.5622000000001
 21
1066.5054
  0
LINE
  8
_0-0_LAYER001
  6
CONTINUOUS
 62
    4
 10
1125.5622000000001
 20
1066.5054
 11
1131.9965
 21
1065.0825
  0
LINE
  8
_0-0_LAYER001
  6
CONTINUOUS
 62
    4
 10
1131.9965
 20
1065.0825
 11
1138.4102
 21
1063.9837
  0
LINE
  8
_0-0_LAYER001
  6
CONTINUOUS
 62
    4
 10
1138.4102
 20
1063.9837
 11
1142.269
 21
1063.4749999999999
  0
LINE
  8
_0-0_LAYER001
  6
CONTINUOUS
 62
    4
 10
1142.269
 20
1063.4749999999999
 11
1145.2636
 21
1063.1566
  0
LINE
  8
_0-0_LAYER001
  6
CONTINUOUS
 62
    4
 10
1145.2636
 20
1063.1566
 11
1150.1559999999999
 21
1062.7743
  0
LINE
  8
_0-0_LAYER001
  6
CONTINUOUS
 62
    4
 10
1150.1559999999999
 20
1062.7743
 11
1155.0636
 21
1062.5499
  0
LINE
  8
_0-0_LAYER001
  6
CONTINUOUS
 62
    4
 10
1155.0636
 20
1062.5499
 11
1159.9109000000001
 21
1062.4670000000001
  0
LINE
  8
_0-0_LAYER001
  6
CONTINUOUS
 62
    4
 10
1159.9109000000001
 20
1062.4670000000001
 11
1164.6948
 21
1062.5046
  0
LINE
  8
_0-0_LAYER001
  6
CONTINUOUS
 62
    4
 10
1164.6948
 20
1062.5046
 11
1169.3824999999999
 21
1062.6415999999999
  0
LINE
  8
_0-0_LAYER001
  6
CONTINUOUS
 62
    4
 10
1169.3824999999999
 20
1062.6415999999999
 11
1172.1596999999999
 21
1062.7628999999999
  0
LINE
  8
_0-0_LAYER001
  6
CONTINUOUS
 62
    4
 10
1172.1596999999999
 20
1062.7628999999999
 11
1177.192
 21
1063.0482
  0
LINE
  8
_0-0_LAYER001
  6
CONTINUOUS
 62
    4
 10
1177.192
 20
1063.0482
 11
1185.7181
 21
1063.7093
  0
LINE
  8
_0-0_LAYER001
  6
CONTINUOUS
 62
    4
 10
1185.7181
 20
1063.7093
 11
1194.203
 21
1064.5597
  0
LINE
  8
_0-0_LAYER001
  6
CONTINUOUS
 62
    4
 10
1194.203
 20
1064.5597
 11
1202.5943
 21
1065.5547999999999
  0
LINE
  8
_0-0_LAYER001
  6
CONTINUOUS
 62
    4
 10
1202.5943
 20
1065.5547999999999
 11
1210.895
 21
1066.6555000000001
  0
LINE
  8
_0-0_LAYER001
  6
CONTINUOUS
 62
    4
 10
1210.895
 20
1066.6555000000001
 11
1219.1027999999999
 21
1067.8226999999999
  0
LINE
  8
_0-0_LAYER001
  6
CONTINUOUS
 62
    4
 10
1219.1027999999999
 20
1067.8226999999999
 11
1223.8398999999999
 21
1068.5182
  0
LINE
  8
_0-0_LAYER001
  6
CONTINUOUS
 62
    4
 10
1223.8398999999999
 20
1068.5182
 11
1226.2953
 21
1068.8820000000001
  0
LINE
  8
_0-0_LAYER001
  6
CONTINUOUS
 62
    4
 10
1226.2953
 20
1068.8820000000001
 11
1230.5093999999999
 21
1069.5106000000001
  0
LINE
  8
_0-0_LAYER001
  6
CONTINUOUS
 62
    4
 10
1230.5093999999999
 20
1069.5106000000001
 11
1234.7209
 21
1070.1431
  0
LINE
  8
_0-0_LAYER001
  6
CONTINUOUS
 62
    4
 10
1234.7209
 20
1070.1431
 11
1238.9277
 21
1070.7781
  0
LINE
  8
_0-0_LAYER001
  6
CONTINUOUS
 62
    4
 10
1238.9277
 20
1070.7781
 11
1243.1298999999999
 21
1071.4149
  0
LINE
  8
_0-0_LAYER001
  6
CONTINUOUS
 62
    4
 10
1243.1298999999999
 20
1071.4149
 11
1247.3278
 21
1072.0526
  0
LINE
  8
_0-0_LAYER001
  6
CONTINUOUS
 62
    4
 10
1247.3278
 20
1072.0526
 11
1248.9455
 21
1072.2985000000001
  0
LINE
  8
_0-0_LAYER001
  6
CONTINUOUS
 62
    4
 10
996.49019999999996
 20
1115.2646
 11
996.91619999999989
 21
1115.4277
  0
ARC
  8
_0-0_LAYER001
  6
CONTINUOUS
 62
    4
 10
997.56279999999992
 20
1112.4629
 40
3
 50
110.94902000000002
 51
178.70000000000002
  0
LINE
  8
_0-0_LAYER001
  6
CONTINUOUS
 62
    4
 10
994.4543000000001
 20
1096.6918000000001
 11
994.4543000000001
 21
1112.4142999999999
  0
LINE
  8
_0-0_LAYER001
  6
CONTINUOUS
 62
    4
 10
995.80829999999992
 20
1095.7565999999999
 11
1001.9830999999999
 21
1098.0938000000001
  0
ARC
  8
_0-0_LAYER001
  6
CONTINUOUS
 62
    4
 10
995.4543000000001
 20
1096.6918000000001
 40
1
 50
180
 51
290.73165999999998
  0
LINE
  8
_0-0_LAYER001
  6
CONTINUOUS
 62
    4
 10
1247.1808000000001
 20
1090.2534000000001
 11
1291.6351
 21
1099.9013
  0
LINE
  8
_0-0_LAYER001
  6
CONTINUOUS
 62
    4
 10
1253.9260999999999
 20
1070.4196999999999
 11
1292.5979000000002
 21
1079.4697000000001
  0
LINE
  8
_0-0_LAYER001
  6
CONTINUOUS
 62
    4
 10
1292.5979000000002
 20
1080.4262000000001
 11
1292.5979000000002
 21
1079.4697000000001
  0
ARC
  8
_0-0_LAYER001
  6
CONTINUOUS
 62
    4
 10
1293.5979
 20
1080.4262000000001
 40
1
 50
102.72435
 51
180
  0
LINE
  8
_0-0_LAYER001
  6
CONTINUOUS
 62
    4
 10
1298.4149
 20
1082.539
 11
1293.3776
 21
1081.4015999999999
  0
ARC
  8
_0-0_LAYER001
  6
CONTINUOUS
 62
    4
 10
1298.6351
 20
1081.5636
 40
1
 50
0
 51
102.72435
  0
LINE
  8
_0-0_LAYER001
  6
CONTINUOUS
 62
    4
 10
1298.8471999999999
 20
1083.0474999999999
 11
1248.7132999999999
 21
1072.1669999999999
  0
ARC
  8
_0-0_LAYER001
  6
CONTINUOUS
 62
    4
 10
1298.6351
 20
1084.0247999999999
 40
1
 50
282.24497000000002
 51
0
  0
LINE
  8
_0-0_LAYER001
  6
CONTINUOUS
 62
    4
 10
1298.8530000000001
 20
1062.3068000000001
 11
1249.269
 21
1051.2389000000001
  0
LINE
  8
_0-0_LAYER001
  6
CONTINUOUS
 62
    4
 10
1299.6351
 20
1063.2828
 11
1299.6351
 21
1081.5636
  0
ARC
  8
_0-0_LAYER001
  6
CONTINUOUS
 62
    4
 10
1298.6351
 20
1063.2828
 40
1
 50
282.58296000000001
 51
0.0000000000000254
  0
LINE
  8
_0-0_LAYER001
  6
CONTINUOUS
 62
    4
 10
1291.6351
 20
1101.3583000000001
 11
1291.6351
 21
1099.9013
  0
ARC
  8
_0-0_LAYER001
  6
CONTINUOUS
 62
    4
 10
1292.6351
 20
1101.3583000000001
 40
1
 50
101.73308
 51
180
  0
LINE
  8
_0-0_LAYER001
  6
CONTINUOUS
 62
    4
 10
1298.4318000000003
 20
1103.5835999999999
 11
1292.4317999999998
 21
1102.3373999999999
  0
LINE
  8
_0-0_LAYER001
  6
CONTINUOUS
 62
    4
 10
1299.6351
 20
1102.6044999999999
 11
1299.6351
 21
1084.0247999999999
  0
ARC
  8
_0-0_LAYER001
  6
CONTINUOUS
 62
    4
 10
1298.6351
 20
1102.6044999999999
 40
1
 50
0
 51
101.73308
  0
LINE
  8
_0-0_LAYER001
  6
CONTINUOUS
 62
    4
 10
854.9045000000001
 20
1031.7146
 11
846.36909999999989
 21
1046.2479000000001
  0
LINE
  8
_0-0_LAYER001
  6
CONTINUOUS
 62
    4
 10
863.07240000000002
 20
1031.0643
 11
871.37860000000001
 21
1041.1297999999999
  0
ARC
  8
_0-0_LAYER001
  6
CONTINUOUS
 62
    4
 10
859.21589999999992
 20
1034.2466999999999
 40
5
 50
210.42578
 51
320.47001
  0
LINE
  8
_0-0_LAYER001
  6
CONTINUOUS
 62
    4
 10
939.01800000000003
 20
1030.5944
 11
931.69260000000008
 21
1041.9005
  0
LINE
  8
_0-0_LAYER001
  6
CONTINUOUS
 62
    4
 10
947.52749999999992
 20
1030.7844
 11
956.46599999999989
 21
1046.03
  0
ARC
  8
_0-0_LAYER001
  6
CONTINUOUS
 62
    4
 10
943.21419999999989
 20
1033.3132000000001
 40
5
 50
212.93986000000001
 51
329.61716000000001
  0
LINE
  8
_0-0_LAYER001
  6
CONTINUOUS
 62
    4
 10
986.80960000000005
 20
1070.3420000000001
 11
989.2376999999999
 21
1070.7458999999999
  0
LINE
  8
_0-0_LAYER001
  6
CONTINUOUS
 62
    4
 10
982.62049999999999
 20
1069.6457
 11
986.80960000000005
 21
1070.3420000000001
  0
LINE
  8
_0-0_LAYER001
  6
CONTINUOUS
 62
    4
 10
978.42679999999996
 20
1068.9502
 11
982.62049999999999
 21
1069.6457
  0
LINE
  8
_0-0_LAYER001
  6
CONTINUOUS
 62
    4
 10
974.22800000000007
 20
1068.2562
 11
978.42679999999996
 21
1068.9502
  0
LINE
  8
_0-0_LAYER001
  6
CONTINUOUS
 62
    4
 10
970.02389999999991
 20
1067.5646999999999
 11
974.22800000000007
 21
1068.2562
  0
LINE
  8
_0-0_LAYER001
  6
CONTINUOUS
 62
    4
 10
965.81709999999998
 20
1066.8770999999999
 11
970.02389999999991
 21
1067.5646999999999
  0
LINE
  8
_0-0_LAYER001
  6
CONTINUOUS
 62
    4
 10
963.36480000000006
 20
1066.4785999999999
 11
965.81709999999998
 21
1066.8770999999999
  0
LINE
  8
_0-0_LAYER001
  6
CONTINUOUS
 62
    4
 10
958.63200000000006
 20
1065.7161000000001
 11
963.36480000000006
 21
1066.4785999999999
  0
LINE
  8
_0-0_LAYER001
  6
CONTINUOUS
 62
    4
 10
950.42759999999998
 20
1064.4322
 11
958.63200000000006
 21
1065.7161000000001
  0
LINE
  8
_0-0_LAYER001
  6
CONTINUOUS
 62
    4
 10
942.12010000000009
 20
1063.2123999999999
 11
950.42759999999998
 21
1064.4322
  0
LINE
  8
_0-0_LAYER001
  6
CONTINUOUS
 62
    4
 10
933.71180000000004
 20
1062.096
 11
942.12010000000009
 21
1063.2123999999999
  0
LINE
  8
_0-0_LAYER001
  6
CONTINUOUS
 62
    4
 10
925.19929999999999
 20
1061.1226999999999
 11
933.71180000000004
 21
1062.096
  0
LINE
  8
_0-0_LAYER001
  6
CONTINUOUS
 62
    4
 10
916.64010000000007
 20
1060.3387
 11
925.19929999999999
 21
1061.1226999999999
  0
LINE
  8
_0-0_LAYER001
  6
CONTINUOUS
 62
    4
 10
911.57860000000005
 20
1059.9807000000001
 11
916.64010000000007
 21
1060.3387
  0
LINE
  8
_0-0_LAYER001
  6
CONTINUOUS
 62
    4
 10
908.77600000000007
 20
1059.8190999999999
 11
911.57860000000005
 21
1059.9807000000001
  0
LINE
  8
_0-0_LAYER001
  6
CONTINUOUS
 62
    4
 10
904.05500000000006
 20
1059.6151
 11
908.77600000000007
 21
1059.8190999999999
  0
LINE
  8
_0-0_LAYER001
  6
CONTINUOUS
 62
    4
 10
899.22579999999994
 20
1059.5096000000001
 11
904.05500000000006
 21
1059.6151
  0
LINE
  8
_0-0_LAYER001
  6
CONTINUOUS
 62
    4
 10
894.32410000000004
 20
1059.5250000000001
 11
899.22579999999994
 21
1059.5096000000001
  0
LINE
  8
_0-0_LAYER001
  6
CONTINUOUS
 62
    4
 10
889.35310000000004
 20
1059.6829
 11
894.32410000000004
 21
1059.5250000000001
  0
LINE
  8
_0-0_LAYER001
  6
CONTINUOUS
 62
    4
 10
884.39570000000003
 20
1060.0006000000001
 11
889.35310000000004
 21
1059.6829
  0
LINE
  8
_0-0_LAYER001
  6
CONTINUOUS
 62
    4
 10
881.34410000000003
 20
1060.2820999999999
 11
884.39570000000003
 21
1060.0006000000001
  0
LINE
  8
_0-0_LAYER001
  6
CONTINUOUS
 62
    4
 10
877.41519999999991
 20
1060.7443000000001
 11
881.34410000000003
 21
1060.2820999999999
  0
LINE
  8
_0-0_LAYER001
  6
CONTINUOUS
 62
    4
 10
870.90129999999999
 20
1061.7669000000001
 11
877.41519999999991
 21
1060.7443000000001
  0
LINE
  8
_0-0_LAYER001
  6
CONTINUOUS
 62
    4
 10
864.35459999999989
 20
1063.1189999999999
 11
870.90129999999999
 21
1061.7669000000001
  0
LINE
  8
_0-0_LAYER001
  6
CONTINUOUS
 62
    4
 10
857.8916999999999
 20
1064.7748999999999
 11
864.35459999999989
 21
1063.1189999999999
  0
LINE
  8
_0-0_LAYER001
  6
CONTINUOUS
 62
    4
 10
851.52579999999989
 20
1066.7256
 11
857.8916999999999
 21
1064.7748999999999
  0
LINE
  8
_0-0_LAYER001
  6
CONTINUOUS
 62
    4
 10
845.3610000000001
 20
1068.9304999999999
 11
851.52579999999989
 21
1066.7256
  0
LINE
  8
_0-0_LAYER001
  6
CONTINUOUS
 62
    4
 10
841.6742999999999
 20
1070.4023
 11
845.3610000000001
 21
1068.9304999999999
  0
LINE
  8
_0-0_LAYER001
  6
CONTINUOUS
 62
    4
 10
837.31009999999992
 20
1072.2947999999999
 11
841.6742999999999
 21
1070.4023
  0
LINE
  8
_0-0_LAYER001
  6
CONTINUOUS
 62
    4
 10
833.03490000000011
 20
1074.3601000000001
 11
837.31009999999992
 21
1072.2947999999999
  0
LINE
  8
_0-0_LAYER001
  6
CONTINUOUS
 62
    4
 10
982.79899999999998
 20
1051.1545000000001
 11
984.41309999999999
 21
1051.423
  0
LINE
  8
_0-0_LAYER001
  6
CONTINUOUS
 62
    4
 10
978.61040000000003
 20
1050.4583
 11
982.79899999999998
 21
1051.1545000000001
  0
LINE
  8
_0-0_LAYER001
  6
CONTINUOUS
 62
    4
 10
974.41750000000002
 20
1049.7628999999999
 11
978.61040000000003
 21
1050.4583
  0
LINE
  8
_0-0_LAYER001
  6
CONTINUOUS
 62
    4
 10
970.22000000000003
 20
1049.0691999999999
 11
974.41750000000002
 21
1049.7628999999999
  0
LINE
  8
_0-0_LAYER001
  6
CONTINUOUS
 62
    4
 10
966.0177000000001
 20
1048.3779999999999
 11
970.22000000000003
 21
1049.0691999999999
  0
LINE
  8
_0-0_LAYER001
  6
CONTINUOUS
 62
    4
 10
961.81279999999992
 20
1047.6905999999999
 11
966.0177000000001
 21
1048.3779999999999
  0
LINE
  8
_0-0_LAYER001
  6
CONTINUOUS
 62
    4
 10
959.36280000000011
 20
1047.2925
 11
961.81279999999992
 21
1047.6905999999999
  0
LINE
  8
_0-0_LAYER001
  6
CONTINUOUS
 62
    4
 10
954.63580000000002
 20
1046.5309999999999
 11
959.36280000000011
 21
1047.2925
  0
LINE
  8
_0-0_LAYER001
  6
CONTINUOUS
 62
    4
 10
946.44509999999991
 20
1045.2492
 11
954.63580000000002
 21
1046.5309999999999
  0
LINE
  8
_0-0_LAYER001
  6
CONTINUOUS
 62
    4
 10
938.16059999999993
 20
1044.0328
 11
946.44509999999991
 21
1045.2492
  0
LINE
  8
_0-0_LAYER001
  6
CONTINUOUS
 62
    4
 10
929.78400000000011
 20
1042.9205999999999
 11
938.16059999999993
 21
1044.0328
  0
LINE
  8
_0-0_LAYER001
  6
CONTINUOUS
 62
    4
 10
921.31179999999995
 20
1041.9519
 11
929.78400000000011
 21
1042.9205999999999
  0
LINE
  8
_0-0_LAYER001
  6
CONTINUOUS
 62
    4
 10
912.7956999999999
 20
1041.1718000000001
 11
921.31179999999995
 21
1041.9519
  0
LINE
  8
_0-0_LAYER001
  6
CONTINUOUS
 62
    4
 10
907.76790000000005
 20
1040.8162
 11
912.7956999999999
 21
1041.1718000000001
  0
LINE
  8
_0-0_LAYER001
  6
CONTINUOUS
 62
    4
 10
904.99270000000001
 20
1040.6561999999999
 11
907.76790000000005
 21
1040.8162
  0
LINE
  8
_0-0_LAYER001
  6
CONTINUOUS
 62
    4
 10
900.30739999999992
 20
1040.4538
 11
904.99270000000001
 21
1040.6561999999999
  0
LINE
  8
_0-0_LAYER001
  6
CONTINUOUS
 62
    4
 10
895.52449999999999
 20
1040.3493000000001
 11
900.30739999999992
 21
1040.4538
  0
LINE
  8
_0-0_LAYER001
  6
CONTINUOUS
 62
    4
 10
890.67640000000006
 20
1040.3644999999999
 11
895.52449999999999
 21
1040.3493000000001
  0
LINE
  8
_0-0_LAYER001
  6
CONTINUOUS
 62
    4
 10
885.76620000000003
 20
1040.5205000000001
 11
890.67640000000006
 21
1040.3644999999999
  0
LINE
  8
_0-0_LAYER001
  6
CONTINUOUS
 62
    4
 10
880.86899999999991
 20
1040.8344
 11
885.76620000000003
 21
1040.5205000000001
  0
LINE
  8
_0-0_LAYER001
  6
CONTINUOUS
 62
    4
 10
877.87020000000007
 20
1041.1108999999999
 11
880.86899999999991
 21
1040.8344
  0
LINE
  8
_0-0_LAYER001
  6
CONTINUOUS
 62
    4
 10
874.00459999999998
 20
1041.5657000000001
 11
877.87020000000007
 21
1041.1108999999999
  0
LINE
  8
_0-0_LAYER001
  6
CONTINUOUS
 62
    4
 10
867.57619999999997
 20
1042.5748000000001
 11
874.00459999999998
 21
1041.5657000000001
  0
LINE
  8
_0-0_LAYER001
  6
CONTINUOUS
 62
    4
 10
861.1228000000001
 20
1043.9077
 11
867.57619999999997
 21
1042.5748000000001
  0
LINE
  8
_0-0_LAYER001
  6
CONTINUOUS
 62
    4
 10
854.75060000000008
 20
1045.5402999999999
 11
861.1228000000001
 21
1043.9077
  0
LINE
  8
_0-0_LAYER001
  6
CONTINUOUS
 62
    4
 10
848.47330000000011
 20
1047.4639
 11
854.75060000000008
 21
1045.5402999999999
  0
LINE
  8
_0-0_LAYER001
  6
CONTINUOUS
 62
    4
 10
842.38619999999992
 20
1049.6411000000001
 11
848.47330000000011
 21
1047.4639
  0
LINE
  8
_0-0_LAYER001
  6
CONTINUOUS
 62
    4
 10
838.76050000000009
 20
1051.0885000000001
 11
842.38619999999992
 21
1049.6411000000001
  0
LINE
  8
_0-0_LAYER001
  6
CONTINUOUS
 62
    4
 10
834.46070000000009
 20
1052.9530999999999
 11
838.76050000000009
 21
1051.0885000000001
  0
LINE
  8
_0-0_LAYER001
  6
CONTINUOUS
 62
    4
 10
833.03490000000011
 20
1053.6419000000001
 11
834.46070000000009
 21
1052.9530999999999
  0
LINE
  8
_0-0_LAYER001
  6
CONTINUOUS
 62
    4
 10
979.5145
 20
1040.7333000000001
 11
977.26909999999998
 21
1049.3067000000001
  0
ARC
  8
_0-0_LAYER001
  6
CONTINUOUS
 62
    4
 10
982.41660000000002
 20
1041.4934000000001
 40
3
 50
194.67639000000003
 51
270.00000000000006
  0
LINE
  8
_0-0_LAYER001
  6
CONTINUOUS
 62
    4
 10
985.8590999999999
 20
1038.4891
 11
982.44129999999996
 21
1038.4891
  0
LINE
  8
_0-0_LAYER001
  6
CONTINUOUS
 62
    4
 10
988.81829999999991
 20
1040.9958999999999
 11
990.7523000000001
 21
1052.5999999999999
  0
ARC
  8
_0-0_LAYER001
  6
CONTINUOUS
 62
    4
 10
985.8590999999999
 20
1041.4891
 40
3
 50
270
 51
350.53766999999999
  0
LINE
  8
_0-0_LAYER001
  6
CONTINUOUS
 62
    4
 10
833.03490000000011
 20
1096.9766
 11
835.6880000000001
 21
1095.4928
  0
LINE
  8
_0-0_LAYER001
  6
CONTINUOUS
 62
    4
 10
835.6880000000001
 20
1095.4928
 11
841.93229999999994
 21
1092.3679999999999
  0
LINE
  8
_0-0_LAYER001
  6
CONTINUOUS
 62
    4
 10
841.93229999999994
 20
1092.3679999999999
 11
845.62959999999998
 21
1090.703
  0
LINE
  8
_0-0_LAYER001
  6
CONTINUOUS
 62
    4
 10
845.62959999999998
 20
1090.703
 11
848.6889000000001
 21
1089.4319
  0
LINE
  8
_0-0_LAYER001
  6
CONTINUOUS
 62
    4
 10
848.6889000000001
 20
1089.4319
 11
854.04940000000011
 21
1087.4296999999999
  0
LINE
  8
_0-0_LAYER001
  6
CONTINUOUS
 62
    4
 10
854.04940000000011
 20
1087.4296999999999
 11
859.50510000000008
 21
1085.6741999999999
  0
LINE
  8
_0-0_LAYER001
  6
CONTINUOUS
 62
    4
 10
859.50510000000008
 20
1085.6741999999999
 11
865.04009999999994
 21
1084.1735000000001
  0
LINE
  8
_0-0_LAYER001
  6
CONTINUOUS
 62
    4
 10
865.04009999999994
 20
1084.1735000000001
 11
870.63840000000005
 21
1082.9354000000001
  0
LINE
  8
_0-0_LAYER001
  6
CONTINUOUS
 62
    4
 10
870.63840000000005
 20
1082.9354000000001
 11
876.28410000000008
 21
1081.9682
  0
LINE
  8
_0-0_LAYER001
  6
CONTINUOUS
 62
    4
 10
876.28410000000008
 20
1081.9682
 11
879.57410000000004
 21
1081.5345
  0
LINE
  8
_0-0_LAYER001
  6
CONTINUOUS
 62
    4
 10
879.57410000000004
 20
1081.5345
 11
882.0933
 21
1081.2665999999999
  0
LINE
  8
_0-0_LAYER001
  6
CONTINUOUS
 62
    4
 10
882.0933
 20
1081.2665999999999
 11
886.44540000000006
 21
1080.9266
  0
LINE
  8
_0-0_LAYER001
  6
CONTINUOUS
 62
    4
 10
886.44540000000006
 20
1080.9266
 11
890.80569999999989
 21
1080.7272
  0
LINE
  8
_0-0_LAYER001
  6
CONTINUOUS
 62
    4
 10
890.80569999999989
 20
1080.7272
 11
895.17090000000007
 21
1080.6524999999999
  0
LINE
  8
_0-0_LAYER001
  6
CONTINUOUS
 62
    4
 10
895.17090000000007
 20
1080.6524999999999
 11
899.53800000000001
 21
1080.6868999999999
  0
LINE
  8
_0-0_LAYER001
  6
CONTINUOUS
 62
    4
 10
899.53800000000001
 20
1080.6868999999999
 11
903.90390000000002
 21
1080.8145
  0
LINE
  8
_0-0_LAYER001
  6
CONTINUOUS
 62
    4
 10
903.90390000000002
 20
1080.8145
 11
906.43429999999989
 21
1080.925
  0
LINE
  8
_0-0_LAYER001
  6
CONTINUOUS
 62
    4
 10
906.43429999999989
 20
1080.925
 11
911.16339999999991
 21
1081.1931
  0
LINE
  8
_0-0_LAYER001
  6
CONTINUOUS
 62
    4
 10
911.16339999999991
 20
1081.1931
 11
919.30160000000001
 21
1081.8241
  0
LINE
  8
_0-0_LAYER001
  6
CONTINUOUS
 62
    4
 10
919.30160000000001
 20
1081.8241
 11
927.42229999999995
 21
1082.6379999999999
  0
LINE
  8
_0-0_LAYER001
  6
CONTINUOUS
 62
    4
 10
927.42229999999995
 20
1082.6379999999999
 11
935.52819999999997
 21
1083.5993000000001
  0
LINE
  8
_0-0_LAYER001
  6
CONTINUOUS
 62
    4
 10
935.52819999999997
 20
1083.5993000000001
 11
943.62169999999992
 21
1084.6724999999999
  0
LINE
  8
_0-0_LAYER001
  6
CONTINUOUS
 62
    4
 10
943.62169999999992
 20
1084.6724999999999
 11
951.7052000000001
 21
1085.8219999999999
  0
LINE
  8
_0-0_LAYER001
  6
CONTINUOUS
 62
    4
 10
951.7052000000001
 20
1085.8219999999999
 11
956.39010000000007
 21
1086.5098
  0
LINE
  8
_0-0_LAYER001
  6
CONTINUOUS
 62
    4
 10
956.39010000000007
 20
1086.5098
 11
958.82500000000005
 21
1086.8706999999999
  0
LINE
  8
_0-0_LAYER001
  6
CONTINUOUS
 62
    4
 10
958.82500000000005
 20
1086.8706999999999
 11
963.02199999999993
 21
1087.4966999999999
  0
LINE
  8
_0-0_LAYER001
  6
CONTINUOUS
 62
    4
 10
963.02199999999993
 20
1087.4966999999999
 11
967.21769999999992
 21
1088.1268
  0
LINE
  8
_0-0_LAYER001
  6
CONTINUOUS
 62
    4
 10
967.21769999999992
 20
1088.1268
 11
971.41260000000011
 21
1088.7601
  0
LINE
  8
_0-0_LAYER001
  6
CONTINUOUS
 62
    4
 10
971.41260000000011
 20
1088.7601
 11
975.60670000000005
 21
1089.3956000000001
  0
LINE
  8
_0-0_LAYER001
  6
CONTINUOUS
 62
    4
 10
975.60670000000005
 20
1089.3956000000001
 11
979.80050000000006
 21
1090.0326
  0
LINE
  8
_0-0_LAYER001
  6
CONTINUOUS
 62
    4
 10
979.80050000000006
 20
1090.0326
 11
982.2328
 21
1090.4023999999999
  0
LINE
  8
_0-0_LAYER001
  6
CONTINUOUS
 62
    4
 10
833.03490000000011
 20
1076.6923999999999
 11
834.20589999999993
 21
1076.1063999999999
  0
LINE
  8
_0-0_LAYER001
  6
CONTINUOUS
 62
    4
 10
834.20589999999993
 20
1076.1063999999999
 11
838.47929999999997
 21
1074.182
  0
LINE
  8
_0-0_LAYER001
  6
CONTINUOUS
 62
    4
 10
838.47929999999997
 20
1074.182
 11
842.08439999999996
 21
1072.6840999999999
  0
LINE
  8
_0-0_LAYER001
  6
CONTINUOUS
 62
    4
 10
842.08439999999996
 20
1072.6840999999999
 11
848.14049999999997
 21
1070.4221
  0
LINE
  8
_0-0_LAYER001
  6
CONTINUOUS
 62
    4
 10
848.14049999999997
 20
1070.4221
 11
854.39030000000002
 21
1068.4111
  0
LINE
  8
_0-0_LAYER001
  6
CONTINUOUS
 62
    4
 10
854.39030000000002
 20
1068.4111
 11
860.73910000000001
 21
1066.6896999999999
  0
LINE
  8
_0-0_LAYER001
  6
CONTINUOUS
 62
    4
 10
860.73910000000001
 20
1066.6896999999999
 11
867.17329999999993
 21
1065.2668000000001
  0
LINE
  8
_0-0_LAYER001
  6
CONTINUOUS
 62
    4
 10
867.17329999999993
 20
1065.2668000000001
 11
873.58699999999999
 21
1064.1679999999999
  0
LINE
  8
_0-0_LAYER001
  6
CONTINUOUS
 62
    4
 10
873.58699999999999
 20
1064.1679999999999
 11
877.44589999999994
 21
1063.6593
  0
LINE
  8
_0-0_LAYER001
  6
CONTINUOUS
 62
    4
 10
877.44589999999994
 20
1063.6593
 11
880.44049999999993
 21
1063.3408999999999
  0
LINE
  8
_0-0_LAYER001
  6
CONTINUOUS
 62
    4
 10
880.44049999999993
 20
1063.3408999999999
 11
885.33290000000011
 21
1062.9586999999999
  0
LINE
  8
_0-0_LAYER001
  6
CONTINUOUS
 62
    4
 10
885.33290000000011
 20
1062.9586999999999
 11
890.24039999999991
 21
1062.7342000000001
  0
LINE
  8
_0-0_LAYER001
  6
CONTINUOUS
 62
    4
 10
890.24039999999991
 20
1062.7342000000001
 11
895.08780000000002
 21
1062.6513
  0
LINE
  8
_0-0_LAYER001
  6
CONTINUOUS
 62
    4
 10
895.08780000000002
 20
1062.6513
 11
899.87169999999992
 21
1062.6890000000001
  0
LINE
  8
_0-0_LAYER001
  6
CONTINUOUS
 62
    4
 10
899.87169999999992
 20
1062.6890000000001
 11
904.5594000000001
 21
1062.8259
  0
LINE
  8
_0-0_LAYER001
  6
CONTINUOUS
 62
    4
 10
904.5594000000001
 20
1062.8259
 11
907.33649999999989
 21
1062.9472000000001
  0
LINE
  8
_0-0_LAYER001
  6
CONTINUOUS
 62
    4
 10
907.33649999999989
 20
1062.9472000000001
 11
912.36889999999994
 21
1063.2326
  0
LINE
  8
_0-0_LAYER001
  6
CONTINUOUS
 62
    4
 10
912.36889999999994
 20
1063.2326
 11
920.89499999999998
 21
1063.8937000000001
  0
LINE
  8
_0-0_LAYER001
  6
CONTINUOUS
 62
    4
 10
920.89499999999998
 20
1063.8937000000001
 11
929.37989999999991
 21
1064.7439999999999
  0
LINE
  8
_0-0_LAYER001
  6
CONTINUOUS
 62
    4
 10
929.37989999999991
 20
1064.7439999999999
 11
937.77119999999991
 21
1065.7392
  0
LINE
  8
_0-0_LAYER001
  6
CONTINUOUS
 62
    4
 10
937.77119999999991
 20
1065.7392
 11
946.07189999999991
 21
1066.8398
  0
LINE
  8
_0-0_LAYER001
  6
CONTINUOUS
 62
    4
 10
946.07189999999991
 20
1066.8398
 11
954.27960000000007
 21
1068.0070000000001
  0
LINE
  8
_0-0_LAYER001
  6
CONTINUOUS
 62
    4
 10
954.27960000000007
 20
1068.0070000000001
 11
959.0168000000001
 21
1068.7025000000001
  0
LINE
  8
_0-0_LAYER001
  6
CONTINUOUS
 62
    4
 10
959.0168000000001
 20
1068.7025000000001
 11
961.47209999999995
 21
1069.0663999999999
  0
LINE
  8
_0-0_LAYER001
  6
CONTINUOUS
 62
    4
 10
961.47209999999995
 20
1069.0663999999999
 11
965.6862000000001
 21
1069.6949999999999
  0
LINE
  8
_0-0_LAYER001
  6
CONTINUOUS
 62
    4
 10
965.6862000000001
 20
1069.6949999999999
 11
969.89779999999996
 21
1070.3273999999999
  0
LINE
  8
_0-0_LAYER001
  6
CONTINUOUS
 62
    4
 10
969.89779999999996
 20
1070.3273999999999
 11
974.10449999999992
 21
1070.9625000000001
  0
LINE
  8
_0-0_LAYER001
  6
CONTINUOUS
 62
    4
 10
974.10449999999992
 20
1070.9625000000001
 11
978.30670000000009
 21
1071.5993000000001
  0
LINE
  8
_0-0_LAYER001
  6
CONTINUOUS
 62
    4
 10
978.30670000000009
 20
1071.5993000000001
 11
982.50459999999998
 21
1072.2369000000001
  0
LINE
  8
_0-0_LAYER001
  6
CONTINUOUS
 62
    4
 10
982.50459999999998
 20
1072.2369000000001
 11
984.1223
 21
1072.4828
  0
LINE
  8
_0-0_LAYER001
  6
CONTINUOUS
 62
    4
 10
994.63110000000006
 20
1075.5540000000001
 11
994.63110000000006
 21
1092.7512999999999
  0
LINE
  8
_0-0_LAYER001
  6
CONTINUOUS
 62
    4
 10
982.35770000000002
 20
1090.4377999999999
 11
1026.8119999999999
 21
1100.0857000000001
  0
LINE
  8
_0-0_LAYER001
  6
CONTINUOUS
 62
    4
 10
989.10290000000009
 20
1070.6041
 11
1027.7746999999999
 21
1079.654
  0
LINE
  8
_0-0_LAYER001
  6
CONTINUOUS
 62
    4
 10
1027.7746999999999
 20
1080.6105
 11
1027.7746999999999
 21
1079.654
  0
ARC
  8
_0-0_LAYER001
  6
CONTINUOUS
 62
    4
 10
1028.7746999999999
 20
1080.6105
 40
1
 50
102.72435
 51
180
  0
LINE
  8
_0-0_LAYER001
  6
CONTINUOUS
 62
    4
 10
1033.5916999999999
 20
1082.7234000000001
 11
1028.5545
 21
1081.5859
  0
ARC
  8
_0-0_LAYER001
  6
CONTINUOUS
 62
    4
 10
1033.8119999999999
 20
1081.748
 40
1
 50
0
 51
102.72435
  0
LINE
  8
_0-0_LAYER001
  6
CONTINUOUS
 62
    4
 10
1034.0241000000001
 20
1083.2319
 11
983.89010000000007
 21
1072.3513
  0
ARC
  8
_0-0_LAYER001
  6
CONTINUOUS
 62
    4
 10
1033.8119999999999
 20
1084.2091
 40
1
 50
282.24497000000002
 51
0
  0
LINE
  8
_0-0_LAYER001
  6
CONTINUOUS
 62
    4
 10
1034.0298
 20
1062.4911
 11
984.44589999999994
 21
1051.4232999999999
  0
LINE
  8
_0-0_LAYER001
  6
CONTINUOUS
 62
    4
 10
1034.8119999999999
 20
1063.4671000000001
 11
1034.8119999999999
 21
1081.748
  0
ARC
  8
_0-0_LAYER001
  6
CONTINUOUS
 62
    4
 10
1033.8119999999999
 20
1063.4671000000001
 40
1
 50
282.58296000000001
 51
0.0000000000000254
  0
LINE
  8
_0-0_LAYER001
  6
CONTINUOUS
 62
    4
 10
1026.8119999999999
 20
1101.5427
 11
1026.8119999999999
 21
1100.0857000000001
  0
ARC
  8
_0-0_LAYER001
  6
CONTINUOUS
 62
    4
 10
1027.8119999999999
 20
1101.5427
 40
1
 50
101.73308
 51
180
  0
LINE
  8
_0-0_LAYER001
  6
CONTINUOUS
 62
    4
 10
1033.6086
 20
1103.7679000000001
 11
1027.6086
 21
1102.5218
  0
LINE
  8
_0-0_LAYER001
  6
CONTINUOUS
 62
    4
 10
1034.8119999999999
 20
1102.7888
 11
1034.8119999999999
 21
1084.2091
  0
ARC
  8
_0-0_LAYER001
  6
CONTINUOUS
 62
    4
 10
1033.8119999999999
 20
1102.7888
 40
1
 50
0
 51
101.73308
  0
LINE
  8
_0-0_LAYER001
  6
DASHED1
 62
    2
 10
834.02289999999994
 20
1075.307
 11
850.02289999999994
 21
1075.307
  0
LINE
  8
_0-0_LAYER001
  6
DASHED1
 62
    2
 10
850.02289999999994
 20
1075.307
 11
850.02289999999994
 21
1072.307
  0
LINE
  8
_0-0_LAYER001
  6
DASHED1
 62
    2
 10
834.02289999999994
 20
1075.307
 11
834.02289999999994
 21
1072.307
  0
LINE
  8
_0-0_LAYER001
  6
DASHED1
 62
    2
 10
834.02289999999994
 20
1072.307
 11
850.02289999999994
 21
1072.307
  0
LINE
  8
_0-0_LAYER001
  6
DASHED1
 62
    2
 10
845.02289999999994
 20
1017.4110000000001
 11
841.97270000000003
 21
1002.9021
  0
LINE
  8
_0-0_LAYER001
  6
DASHED1
 62
    2
 10
845.02289999999994
 20
1072.307
 11
845.02289999999994
 21
1017.4110000000001
  0
LINE
  8
_0-0_LAYER001
  6
DASHED1
 62
    2
 10
841.97270000000003
 20
1002.9021
 11
839.02289999999994
 21
1017.1596
  0
LINE
  8
_0-0_LAYER001
  6
DASHED1
 62
    2
 10
839.02289999999994
 20
1072.307
 11
839.02289999999994
 21
1017.1596
  0
LINE
  8
_0-0_LAYER001
  6
DASHED1
 62
    2
 10
1099.0291
 20
1072.5758000000001
 11
1115.0291
 21
1072.5758000000001
  0
LINE
  8
_0-0_LAYER001
  6
DASHED1
 62
    2
 10
1115.0291
 20
1072.5758000000001
 11
1115.0291
 21
1069.5758000000001
  0
LINE
  8
_0-0_LAYER001
  6
DASHED1
 62
    2
 10
1099.0291
 20
1072.5758000000001
 11
1099.0291
 21
1069.5758000000001
  0
LINE
  8
_0-0_LAYER001
  6
DASHED1
 62
    2
 10
1099.0291
 20
1069.5758000000001
 11
1115.0291
 21
1069.5758000000001
  0
LINE
  8
_0-0_LAYER001
  6
DASHED1
 62
    2
 10
1110.0291
 20
1014.6796999999999
 11
1106.9789000000001
 21
1000.1708000000001
  0
LINE
  8
_0-0_LAYER001
  6
DASHED1
 62
    2
 10
1110.0291
 20
1069.5758000000001
 11
1110.0291
 21
1014.6796999999999
  0
LINE
  8
_0-0_LAYER001
  6
DASHED1
 62
    2
 10
1106.9789000000001
 20
1000.1708000000001
 11
1104.0291
 21
1014.4283
  0
LINE
  8
_0-0_LAYER001
  6
DASHED1
 62
    2
 10
1104.0291
 20
1069.5758000000001
 11
1104.0291
 21
1014.4283
  0
LINE
  8
_0-1_LAYER003
  6
CONTINUOUS
 62
    7
 10
833.03490000000011
 20
1037.7251000000001
 11
1714.7689
 21
1037.7251000000001
  0
LINE
  8
_0-1_LAYER003
  6
CONTINUOUS
 62
    7
 10
1714.7689
 20
1037.7251000000001
 11
1714.7689
 21
1022.7251000000001
  0
LINE
  8
_0-1_LAYER003
  6
CONTINUOUS
 62
    7
 10
1714.7689
 20
1022.7251000000001
 11
833.03490000000011
 21
1022.7251000000001
  0
LINE
  8
_0-1_LAYER003
  6
CONTINUOUS
 62
    7
 10
833.03490000000011
 20
1019.7251000000001
 11
1701.9839000000002
 21
1019.7251000000001
  0
LINE
  8
_0-1_LAYER003
  6
CONTINUOUS
 62
    7
 10
1701.9839000000002
 20
1019.7251000000001
 11
1701.9839000000002
 21
1022.7251000000001
  0
LINE
  8
_0-1_LAYER003
  6
CONTINUOUS
 62
    7
 10
1701.9839000000002
 20
1022.7251000000001
 11
1677.9839000000004
 21
1019.7251000000001
  0
LINE
  8
_0-1_LAYER003
  6
CONTINUOUS
 62
    7
 10
1677.9839000000004
 20
1019.7251000000001
 11
1677.9839000000002
 21
1022.7251000000001
  0
LINE
  8
_0-1_LAYER003
  6
CONTINUOUS
 62
    7
 10
1720.0439000000001
 20
1037.7251000000001
 11
1720.0439000000001
 21
1018.4611
  0
LINE
  8
_0-1_LAYER003
  6
CONTINUOUS
 62
    7
 10
1720.0439000000001
 20
1018.4611
 11
1839.6179000000002
 21
1018.4611
  0
LINE
  8
_0-1_LAYER003
  6
CONTINUOUS
 62
    7
 10
1839.6179000000002
 20
1018.4611
 11
1839.6179000000002
 21
1085.2157
  0
LINE
  8
_0-1_LAYER003
  6
CONTINUOUS
 62
    7
 10
1839.6179000000002
 20
1085.2157
 11
1833.2168000000001
 21
1074.617
  0
LINE
  8
_0-1_LAYER003
  6
CONTINUOUS
 62
    7
 10
1861.9549000000002
 20
1085.2157
 11
1831.9549000000002
 21
1085.2157
  0
LINE
  8
_0-1_LAYER003
  6
CONTINUOUS
 62
    7
 10
1831.9549000000002
 20
1085.2157
 11
1831.9549000000002
 21
1122.1648163735358
  0
LINE
  8
_0-1_LAYER003
  6
CONTINUOUS
 62
    7
 10
1831.9549000000002
 20
1122.1648163735358
 11
1849.7219
 21
1125.2157
  0
LINE
  8
_0-1_LAYER003
  6
CONTINUOUS
 62
    7
 10
1849.7219
 20
1125.2157
 11
1861.9549000000002
 21
1125.2157
  0
LINE
  8
_0-1_LAYER003
  6
CONTINUOUS
 62
    7
 10
1861.9549000000002
 20
1125.2157
 11
1861.9549000000002
 21
1085.2157
  0
LINE
  8
_0-1_LAYER003
  6
CONTINUOUS
 62
    7
 10
1849.7219
 20
1125.4193
 11
1761.1949
 21
1109.2032999999999
  0
LINE
  8
_0-1_LAYER003
  6
CONTINUOUS
 62
    7
 10
1761.1949
 20
1109.2032999999999
 11
1758.4919
 21
1123.9583
  0
LINE
  8
_0-1_LAYER003
  6
CONTINUOUS
 62
    7
 10
1758.4919
 20
1123.9583
 11
1847.0198999999998
 21
1140.1732999999999
  0
LINE
  8
_0-1_LAYER003
  6
CONTINUOUS
 62
    7
 10
1831.9549000000002
 20
1111.2157
 11
1837.9548
 21
1108.2156
  0
LINE
  8
_0-1_LAYER003
  6
CONTINUOUS
 62
    7
 10
1837.9548
 20
1108.2156
 11
1837.9548
 21
1102.2157
  0
LINE
  8
_0-1_LAYER003
  6
CONTINUOUS
 62
    7
 10
1837.9548
 20
1102.2157
 11
1831.9549000000002
 21
1099.2156
  0
LINE
  8
_0-1_LAYER003
  6
CONTINUOUS
 62
    7
 10
1832.8647999999998
 20
1108.2158999999999
 11
1837.9548
 21
1103.1259
  0
LINE
  8
_0-1_LAYER003
  6
CONTINUOUS
 62
    7
 10
1838.1680999999999
 20
1102.9126000000001
 11
1836.2269999999999
 21
1110.1569999999999
  0
LINE
  8
_0-1_LAYER003
  6
CONTINUOUS
 62
    7
 10
1836.2269999999999
 20
1110.1569999999999
 11
1838.1680999999999
 21
1102.9126000000001
  0
LINE
  8
_0-1_LAYER003
  6
CONTINUOUS
 62
    7
 10
1837.9548
 20
1103.1259
 11
1838.1680999999999
 21
1102.9126000000001
  0
LINE
  8
_0-1_LAYER003
  6
CONTINUOUS
 62
    7
 10
1837.9548
 20
1102.2157
 11
1861.9549000000002
 21
1102.2157
  0
LINE
  8
_0-1_LAYER003
  6
CONTINUOUS
 62
    7
 10
1837.9548
 20
1108.2156
 11
1861.9549000000002
 21
1108.2156
  0
LINE
  8
_0-1_LAYER003
  6
CONTINUOUS
 62
    7
 10
1849.3609000000001
 20
1103.1215
 11
1847.2637
 21
1111.7556
  0
LINE
  8
_0-1_LAYER003
  6
CONTINUOUS
 62
    7
 10
1843.9045999999998
 20
1110.1893
 11
1849.3609000000001
 21
1103.1215
  0
LINE
  8
_0-1_LAYER003
  6
CONTINUOUS
 62
    7
 10
1861.9549000000002
 20
1085.2157
 11
1861.9549000000002
 21
973.58909999999992
  0
LINE
  8
_0-1_LAYER003
  6
CONTINUOUS
 62
    7
 10
1861.9549000000002
 20
973.58909999999992
 11
833.03490000000011
 21
973.58909999999992
  0
LINE
  8
_0-1_LAYER003
  6
CONTINUOUS
 62
    7
 10
833.03490000000011
 20
1013.5890999999999
 11
1861.9549000000002
 21
1013.5890999999999
  0
LINE
  8
_0-1_LAYER003
  6
CONTINUOUS
 62
    7
 10
1859.6318999999999
 20
1016.0861
 11
833.03490000000011
 21
1016.0861
  0
LINE
  8
_0-1_LAYER003
  6
CONTINUOUS
 62
    7
 10
928.9677999999999
 20
991.18389999999999
 11
938.9677999999999
 21
991.18389999999999
  0
LINE
  8
_0-1_LAYER003
  6
CONTINUOUS
 62
    7
 10
938.9677999999999
 20
991.18389999999999
 11
938.9677999999999
 21
937.16519999999991
  0
LINE
  8
_0-1_LAYER003
  6
CONTINUOUS
 62
    7
 10
938.9677999999999
 20
937.16519999999991
 11
960.33789999999999
 21
937.16519999999991
  0
LINE
  8
_0-1_LAYER003
  6
CONTINUOUS
 62
    7
 10
960.33789999999999
 20
937.16519999999991
 11
960.33789999999999
 21
927.16519999999991
  0
LINE
  8
_0-1_LAYER003
  6
CONTINUOUS
 62
    7
 10
960.33789999999999
 20
927.16519999999991
 11
928.9677999999999
 21
927.16519999999991
  0
LINE
  8
_0-1_LAYER003
  6
CONTINUOUS
 62
    7
 10
928.9677999999999
 20
927.16519999999991
 11
928.9677999999999
 21
991.18389999999999
  0
LINE
  8
_0-1_LAYER003
  6
CONTINUOUS
 62
    7
 10
940.3934999999999
 20
932.42219999999998
 11
942.33459999999991
 21
925.17779999999993
  0
LINE
  8
_0-1_LAYER003
  6
CONTINUOUS
 62
    7
 10
940.3934999999999
 20
932.42219999999998
 11
945.69679999999994
 21
927.11889999999994
  0
LINE
  8
_0-1_LAYER003
  6
CONTINUOUS
 62
    7
 10
940.3934999999999
 20
932.42219999999998
 11
965.02179999999998
 21
889.76469999999995
  0
LINE
  8
_0-1_LAYER003
  6
CONTINUOUS
 62
    7
 10
965.02179999999998
 20
889.76469999999995
 11
1035.0293579409022
 21
889.83215546706117
  0
LINE
  8
_0-1_LAYER003
  6
CONTINUOUS
 62
    7
 10
1035.3208999999999
 20
973.58909999999992
 11
905.32089999999994
 21
843.58909999999992
  0
LINE
  8
_0-1_LAYER003
  6
CONTINUOUS
 62
    7
 10
894.00790000000006
 20
843.58909999999992
 11
1024.0079000000001
 21
973.58909999999992
  0
LINE
  8
_0-1_LAYER003
  6
CONTINUOUS
 62
    7
 10
1012.6939
 20
973.58909999999992
 11
882.69389999999999
 21
843.58909999999992
  0
LINE
  8
_0-1_LAYER003
  6
CONTINUOUS
 62
    7
 10
833.03490000000011
 20
843.58909999999992
 11
1861.9549000000002
 21
843.58909999999992
  0
LINE
  8
_0-1_LAYER003
  6
CONTINUOUS
 62
    7
 10
1711.9549000000002
 20
918.38789999999995
 11
1711.9549000000002
 21
866.68790000000001
  0
LINE
  8
_0-1_LAYER003
  6
CONTINUOUS
 62
    7
 10
1711.9549000000002
 20
868.38789999999995
 11
1861.9549000000002
 21
868.38789999999995
  0
LINE
  8
_0-1_LAYER003
  6
CONTINUOUS
 62
    7
 10
1861.9549000000002
 20
865.88789999999995
 11
1861.9549000000002
 21
918.38789999999995
  0
LINE
  8
_0-1_LAYER003
  6
CONTINUOUS
 62
    7
 10
2136.9650000000001
 20
871.95669999999996
 11
1902.9650000000001
 21
871.95669999999996
  0
LINE
  8
_0-1_LAYER003
  6
CONTINUOUS
 62
    7
 10
1902.9650000000001
 20
871.95669999999996
 11
1818.4295999999999
 21
1018.4611
  0
LINE
  8
_0-1_LAYER003
  6
CONTINUOUS
 62
    7
 10
1818.4295999999999
 20
1018.4611
 11
1820.2550999999999
 21
1011.3323
  0
LINE
  8
_0-1_LAYER003
  6
CONTINUOUS
 62
    7
 10
1818.3139000000001
 20
1018.5768
 11
1823.3016000000002
 21
1013.5890999999999
  0
LINE
  8
_0-1_LAYER003
  6
CONTINUOUS
 62
    7
 10
2067.6992
 20
929.91810000000009
 11
1915.7487999999998
 21
929.91810000000009
  0
LINE
  8
_0-1_LAYER003
  6
CONTINUOUS
 62
    7
 10
1915.7487999999998
 20
929.91810000000009
 11
1849.9569999999999
 21
1043.8729000000001
  0
LINE
  8
_0-1_LAYER003
  6
CONTINUOUS
 62
    7
 10
1849.9569999999999
 20
1043.8729000000001
 11
1851.8980999999999
 21
1036.6285
  0
LINE
  8
_0-1_LAYER003
  6
CONTINUOUS
 62
    7
 10
1849.9569999999999
 20
1043.8729000000001
 11
1855.2602999999999
 21
1038.5696
  0
LINE
  8
_0-1_LAYER003
  6
CONTINUOUS
 62
    7
 10
1842.1489000000001
 20
1017.8351
 11
1857.1489000000001
 21
1017.8351
  0
LINE
  8
_0-1_LAYER003
  6
CONTINUOUS
 62
    7
 10
1857.1489000000001
 20
1017.8351
 11
1857.1489000000001
 21
1085.2157
  0
LINE
  8
_0-1_LAYER003
  6
CONTINUOUS
 62
    7
 10
1859.6318999999999
 20
1085.2157
 11
1859.6318999999999
 21
1016.0861
  0
LINE
  8
_0-2_LAYER004
  6
CONTINUOUS
 62
    2
 10
1842.1489000000001
 20
1017.8351
 11
1842.1489000000001
 21
1085.2157
  0
LINE
  8
_0-1_LAYER003
  6
CONTINUOUS
 62
    7
 10
1842.1489000000001
 20
1085.2157
 11
1842.1489000000001
 21
1017.8351
  0
LINE
  8
_0-2_LAYER004
  6
CONTINUOUS
 62
    2
 10
1861.9549000000002
 20
1260.558
 11
1861.9549000000002
 21
1109.6192895823374
  0
LINE
  8
_0-2_LAYER004
  6
CONTINUOUS
 62
    2
 10
1861.9549000000002
 20
1109.6192895823374
 11
1861.9549000000002
 21
973.58909999999992
  0
LINE
  8
_0-1_LAYER003
  6
CONTINUOUS
 62
    7
 10
1880.1547999999998
 20
1109.4667999999999
 11
1861.9549000000002
 21
1109.4657
  0
LINE
  8
_0-1_LAYER003
  6
CONTINUOUS
 62
    7
 10
1880.1547999999998
 20
1109.4667999999999
 11
1889.2487000000001
 21
1111.0697
  0
LINE
  8
_0-1_LAYER003
  6
CONTINUOUS
 62
    7
 10
1889.2487000000001
 20
1111.0697
 11
1889.5448000000001
 21
1109.3967
  0
LINE
  8
_0-1_LAYER003
  6
CONTINUOUS
 62
    7
 10
1889.5448000000001
 20
1109.3967
 11
1891.2177000000001
 21
1109.6917000000001
  0
LINE
  8
_0-1_LAYER003
  6
CONTINUOUS
 62
    7
 10
1891.2177000000001
 20
1109.6917000000001
 11
1890.9227999999998
 21
1111.3647000000001
  0
LINE
  8
_0-1_LAYER003
  6
CONTINUOUS
 62
    7
 10
1890.9227999999998
 20
1111.3647000000001
 11
1893.5817999999999
 21
1111.8336999999999
  0
LINE
  8
_0-1_LAYER003
  6
CONTINUOUS
 62
    7
 10
1893.5817999999999
 20
1111.8336999999999
 11
1893.8778000000002
 21
1110.1606999999999
  0
LINE
  8
_0-1_LAYER003
  6
CONTINUOUS
 62
    7
 10
1893.8778000000002
 20
1110.1606999999999
 11
1895.5508
 21
1110.4557
  0
LINE
  8
_0-1_LAYER003
  6
CONTINUOUS
 62
    7
 10
1895.5508
 20
1110.4557
 11
1895.2559715202533
 21
1112.1288302531023
  0
LINE
  8
_0-1_LAYER003
  6
CONTINUOUS
 62
    7
 10
1895.2559715202533
 20
1112.1288302531023
 11
1897.9148
 21
1112.5978
  0
LINE
  8
_0-1_LAYER003
  6
CONTINUOUS
 62
    7
 10
1897.9148
 20
1112.5978
 11
1898.2107000000001
 21
1110.9247
  0
LINE
  8
_0-1_LAYER003
  6
CONTINUOUS
 62
    7
 10
1898.2107000000001
 20
1110.9247
 11
1899.8847999999998
 21
1111.2197000000001
  0
LINE
  8
_0-1_LAYER003
  6
CONTINUOUS
 62
    7
 10
1899.8847999999998
 20
1111.2197000000001
 11
1899.589088549938
 21
1112.8926333132958
  0
LINE
  8
_0-1_LAYER003
  6
CONTINUOUS
 62
    7
 10
1899.589088549938
 20
1112.8926333132958
 11
1901.066841138907
 21
1113.1554593242563
  0
LINE
  8
_0-1_LAYER003
  6
CONTINUOUS
 62
    7
 10
1901.066841138907
 20
1113.1554593242563
 11
1902.7988313622893
 21
1111.9447057996454
  0
LINE
  8
_0-1_LAYER003
  6
CONTINUOUS
 62
    7
 10
1902.7988313622893
 20
1111.9447057996454
 11
1903.2037999999998
 21
1109.6727000000001
  0
LINE
  8
_0-1_LAYER003
  6
CONTINUOUS
 62
    7
 10
1903.2037999999998
 20
1109.6727000000001
 11
1877.9308999999998
 21
1105.2167999999999
  0
LINE
  8
_0-1_LAYER003
  6
CONTINUOUS
 62
    7
 10
1877.9308999999998
 20
1105.2167999999999
 11
1903.0288
 21
1100.7907
  0
LINE
  8
_0-1_LAYER003
  6
CONTINUOUS
 62
    7
 10
1903.0288
 20
1100.7907
 11
1902.6309000000001
 21
1098.5257999999999
  0
LINE
  8
_0-1_LAYER003
  6
CONTINUOUS
 62
    7
 10
1902.6309000000001
 20
1098.5257999999999
 11
1899.4148
 21
1097.5697
  0
LINE
  8
_0-1_LAYER003
  6
CONTINUOUS
 62
    7
 10
1899.4148
 20
1097.5697
 11
1899.7107999999998
 21
1099.2437
  0
LINE
  8
_0-1_LAYER003
  6
CONTINUOUS
 62
    7
 10
1899.7107999999998
 20
1099.2437
 11
1898.0367999999999
 21
1099.5386000000001
  0
LINE
  8
_0-1_LAYER003
  6
CONTINUOUS
 62
    7
 10
1898.0367697835677
 20
1099.5384291684045
 11
1897.7408999999998
 21
1097.8657000000001
  0
LINE
  8
_0-1_LAYER003
  6
CONTINUOUS
 62
    7
 10
1897.7408999999998
 20
1097.8657000000001
 11
1895.0817999999999
 21
1098.3347000000001
  0
LINE
  8
_0-1_LAYER003
  6
CONTINUOUS
 62
    7
 10
1895.0817999999999
 20
1098.3347000000001
 11
1895.3768
 21
1100.0077000000001
  0
LINE
  8
_0-1_LAYER003
  6
CONTINUOUS
 62
    7
 10
1895.3768
 20
1100.0077000000001
 11
1893.7038697520679
 21
1100.3025290956091
  0
LINE
  8
_0-1_LAYER003
  6
CONTINUOUS
 62
    7
 10
1893.7038697520679
 20
1100.3025290956091
 11
1893.4078
 21
1098.6297
  0
LINE
  8
_0-1_LAYER003
  6
CONTINUOUS
 62
    7
 10
1893.4078
 20
1098.6297
 11
1890.7487000000001
 21
1099.0987
  0
LINE
  8
_0-1_LAYER003
  6
CONTINUOUS
 62
    7
 10
1890.7487000000001
 20
1099.0987
 11
1891.0437999999999
 21
1100.7716
  0
LINE
  8
_0-1_LAYER003
  6
CONTINUOUS
 62
    7
 10
1891.0437999999999
 20
1100.7716
 11
1889.3707697520335
 21
1101.0665290478942
  0
LINE
  8
_0-1_LAYER003
  6
CONTINUOUS
 62
    7
 10
1889.3707697520335
 20
1101.0665290478942
 11
1889.0747999999999
 21
1099.3938000000001
  0
LINE
  8
_0-1_LAYER003
  6
CONTINUOUS
 62
    7
 10
1889.0747999999999
 20
1099.3938000000001
 11
1880.1547999999998
 21
1100.9657
  0
LINE
  8
_0-1_LAYER003
  6
CONTINUOUS
 62
    7
 10
1880.1547999999998
 20
1100.9657
 11
1861.9549000000002
 21
1100.9657
  0
LINE
  8
_0-1_LAYER003
  6
CONTINUOUS
 62
    7
 10
1847.2637
 20
1111.7556
 11
1835.8530999999998
 21
1136.2284
  0
LINE
  8
_0-1_LAYER003
  6
CONTINUOUS
 62
    7
 10
1835.8530999999998
 20
1136.2284
 11
1837.5355
 21
1138.7729999999999
  0
LINE
  8
_0-1_LAYER003
  6
CONTINUOUS
 62
    7
 10
1837.5355
 20
1138.7729999999999
 11
1829.4648000000002
 21
1135.0102999999999
  0
LINE
  8
_0-1_LAYER003
  6
CONTINUOUS
 62
    7
 10
1829.4648000000002
 20
1135.0102999999999
 11
1832.4935999999998
 21
1134.6636000000001
  0
LINE
  8
_0-1_LAYER003
  6
CONTINUOUS
 62
    7
 10
1832.4935999999998
 20
1134.6636000000001
 11
1843.9045999999998
 21
1110.1893
  0
LINE
  8
_0-1_LAYER003
  6
CONTINUOUS
 62
    7
 10
1837.9548
 20
1103.2820465894335
 11
1711.5556999999999
 21
1322.2118
  0
LINE
  8
_0-1_LAYER003
  6
CONTINUOUS
 62
    7
 10
1711.5556999999999
 20
1322.2118
 11
1578.3706000000002
 21
1322.2118
  0
LINE
  8
_0-1_LAYER003
  6
CONTINUOUS
 62
    7
 10
1478.4956999999999
 20
1276.3642
 11
1712.4956999999999
 21
1276.3642
  0
LINE
  8
_0-1_LAYER003
  6
CONTINUOUS
 62
    7
 10
1712.4956999999999
 20
1276.3642
 11
1800.0932760559276
 21
1124.6245239440723
  0
LINE
  8
_0-1_LAYER003
  6
CONTINUOUS
 62
    7
 10
1800.0932760559276
 20
1124.6245239440723
 11
1798.1743000000001
 21
1131.8468
  0
LINE
  8
_0-1_LAYER003
  6
CONTINUOUS
 62
    7
 10
1800.0932760559276
 20
1124.6245239440723
 11
1795.0569307013641
 21
1133.3486627503721
  0
LINE
  8
_0-1_LAYER003
  6
CONTINUOUS
 62
    7
 10
1795.0569307013641
 20
1133.3486627503721
 11
1800.0932760559276
 21
1124.6245239440723
  0
LINE
  8
_0-1_LAYER003
  6
CONTINUOUS
 62
    7
 10
1800.0932760559276
 20
1124.6245239440723
 11
1794.8121000000001
 21
1129.9057
  0
LINE
  8
_0-1_LAYER003
  6
CONTINUOUS
 62
    7
 10
1781.1113
 20
1110.2170000000001
 11
1779.1702
 21
1117.4614999999999
  0
LINE
  8
_0-1_LAYER003
  6
CONTINUOUS
 62
    7
 10
1781.1113
 20
1110.2170000000001
 11
1775.808
 21
1115.5202999999999
  0
LINE
  8
_0-1_LAYER003
  6
CONTINUOUS
 62
    7
 10
1749.8708999999999
 20
1104.9056
 11
1744.5738999999999
 21
1098.9466
  0
LINE
  8
_0-1_LAYER003
  6
CONTINUOUS
 62
    7
 10
1744.5738999999999
 20
1098.9466
 11
1746.9549000000002
 21
1124.5376000000001
  0
LINE
  8
_0-1_LAYER003
  6
CONTINUOUS
 62
    7
 10
1746.9549000000002
 20
1124.5376000000001
 11
1836.9549000000002
 21
1141.0233000000001
  0
LINE
  8
_0-1_LAYER003
  6
CONTINUOUS
 62
    7
 10
1836.9549000000002
 20
1141.0233000000001
 11
1836.9549000000002
 21
1240.558
  0
LINE
  8
_0-1_LAYER003
  6
CONTINUOUS
 62
    7
 10
1836.9549000000002
 20
1240.558
 11
1861.9549000000002
 21
1240.558
  0
LINE
  8
_0-1_LAYER003
  6
CONTINUOUS
 62
    7
 10
1861.9549000000002
 20
1240.558
 11
1861.9549000000002
 21
1260.558
  0
LINE
  8
_0-1_LAYER003
  6
CONTINUOUS
 62
    7
 10
1861.9549000000002
 20
1260.558
 11
1837.4281542749557
 21
1260.5579996653159
  0
LINE
  8
_0-1_LAYER003
  6
CONTINUOUS
 62
    7
 10
1852.4379000354661
 20
1260.5579998701339
 11
1852.4378999999999
 21
1240.558
  0
LINE
  8
_0-1_LAYER003
  6
CONTINUOUS
 62
    7
 10
1852.4378999999999
 20
1240.558
 11
1857.8998999999999
 21
1260.5579999446668
  0
LINE
  8
_0-1_LAYER003
  6
CONTINUOUS
 62
    7
 10
1857.8998999999999
 20
1240.558
 11
1857.8998999999999
 21
1260.558
  0
LINE
  8
_0-1_LAYER003
  6
CONTINUOUS
 62
    7
 10
1857.8998999999999
 20
1240.558
 11
1852.4378999999999
 21
1260.5579998701339
  0
LINE
  8
_0-1_LAYER003
  6
CONTINUOUS
 62
    7
 10
1861.9549000000002
 20
1240.558
 11
1861.9549000000002
 21
973.58909999999992
  0
LINE
  8
_0-1_LAYER003
  6
CONTINUOUS
 62
    7
 10
1859.6318999999999
 20
1085.2157
 11
1859.6318999999999
 21
1213.5890999999999
  0
LINE
  8
_0-1_LAYER003
  6
CONTINUOUS
 62
    7
 10
1836.9549000000002
 20
1260.558
 11
1836.9549000000002
 21
1431.7511
  0
LINE
  8
_0-1_LAYER003
  6
CONTINUOUS
 62
    7
 10
1836.9549000000002
 20
1359.2230999999997
 11
1919.5219000000002
 21
1441.7910999999999
  0
LINE
  8
_0-1_LAYER003
  6
CONTINUOUS
 62
    7
 10
1836.9549000000002
 20
1347.9101000000001
 11
1919.5219000000002
 21
1430.4771000000001
  0
LINE
  8
_0-1_LAYER003
  6
CONTINUOUS
 62
    7
 10
1836.9549000000002
 20
1336.5960999999998
 11
1919.5219000000002
 21
1419.1631000000002
  0
LINE
  8
_0-1_LAYER003
  6
CONTINUOUS
 62
    7
 10
1679.7858000000001
 20
1378.2309
 11
1760.7858000000001
 21
1378.2309
  0
LINE
  8
_0-1_LAYER003
  6
CONTINUOUS
 62
    7
 10
1760.7858000000001
 20
1378.2309
 11
1840.2713170728236
 21
1240.558
  0
LINE
  8
_0-1_LAYER003
  6
CONTINUOUS
 62
    7
 10
1840.2713170728236
 20
1240.558
 11
1841.5315000000001
 21
1238.3752999999999
  0
LINE
  8
_0-1_LAYER003
  6
CONTINUOUS
 62
    7
 10
1841.5315000000001
 20
1238.3752999999999
 11
1839.5902999999998
 21
1245.6197999999999
  0
LINE
  8
_0-1_LAYER003
  6
CONTINUOUS
 62
    7
 10
1841.5315000000001
 20
1238.3752999999999
 11
1836.2282
 21
1243.6786
  0
ARC
  8
_0-1_LAYER003
  6
CONTINUOUS
 62
    7
 10
1822.2203239921735
 20
1248.9960860788387
 40
18.729270771996617
 50
333.38734811876532
 51
38.120536071255877
  0
LINE
  8
_0-1_LAYER003
  6
CONTINUOUS
 62
    7
 10
1837.4281542749557
 20
1260.5579996653159
 11
1836.9549000000002
 21
1260.558
  0
LINE
  8
_0-1_LAYER003
  6
CONTINUOUS
 62
    7
 10
1836.9549000000002
 20
1260.558
 11
1837.4281542749557
 21
1260.5579996653159
  0
LINE
  8
_0-1_LAYER003
  6
CONTINUOUS
 62
    7
 10
1836.9549000000002
 20
1211.7057
 11
1746.9549000000002
 21
1211.7057
  0
LINE
  8
_0-1_LAYER003
  6
CONTINUOUS
 62
    7
 10
1746.9549000000002
 20
1213.4057
 11
1746.9549000000002
 21
1160.1697999999999
  0
LINE
  8
_0-1_LAYER003
  6
CONTINUOUS
 62
    7
 10
1781.1113
 20
1110.2170000000001
 11
1707.8400999999999
 21
1237.1265000000001
  0
LINE
  8
_0-1_LAYER003
  6
CONTINUOUS
 62
    7
 10
1707.8400999999999
 20
1237.1265000000001
 11
1577.3400999999999
 21
1237.1265000000001
  0
LINE
  8
_0-1_LAYER003
  6
CONTINUOUS
 62
    7
 10
1931.2664
 20
1261.0233000000001
 11
1981.2664
 21
1261.0233000000001
  0
LINE
  8
_0-1_LAYER003
  6
CONTINUOUS
 62
    7
 10
1981.2664
 20
1261.0233000000001
 11
1981.2664
 21
1015.2891
  0
LINE
  8
_0-1_LAYER003
  6
CONTINUOUS
 62
    7
 10
1931.2664
 20
1141.0233000000001
 11
1982.9664
 21
1141.0233000000001
  0
LINE
  8
_0-1_LAYER003
  6
CONTINUOUS
 62
    7
 10
1981.2664
 20
1261.0233000000001
 11
1982.9664
 21
1261.0233000000001
  0
LINE
  8
_0-1_LAYER003
  6
CONTINUOUS
 62
    7
 10
1982.9664
 20
1261.0233000000001
 11
1981.2664
 21
1261.0233000000001
  0
LINE
  8
_0-1_LAYER003
  6
CONTINUOUS
 62
    7
 10
1982.9664
 20
1241.0233000000001
 11
1931.2664
 21
1241.0233000000001
  0
LINE
  8
_0-1_LAYER003
  6
CONTINUOUS
 62
    7
 10
2013.4843999999998
 20
1213.5890999999999
 11
2065.1844000000001
 21
1213.5890999999999
  0
LINE
  8
_0-1_LAYER003
  6
CONTINUOUS
 62
    7
 10
2065.1844000000001
 20
1213.5890999999999
 11
2063.4843999999998
 21
1213.5890999999999
  0
LINE
  8
_0-1_LAYER003
  6
CONTINUOUS
 62
    7
 10
2063.4843999999998
 20
1213.5890999999999
 11
2063.4843999999998
 21
1013.5890999999999
  0
LINE
  8
_0-1_LAYER003
  6
CONTINUOUS
 62
    7
 10
2065.1844000000001
 20
1013.5890999999999
 11
2013.4843999999998
 21
1013.5890999999999
  0
LINE
  8
_0-1_LAYER003
  6
CONTINUOUS
 62
    7
 10
1981.2664
 20
1015.2891
 11
1981.2664
 21
1013.5890999999999
  0
LINE
  8
_0-1_LAYER003
  6
CONTINUOUS
 62
    7
 10
1982.9664
 20
1013.5890999999999
 11
1931.2664
 21
1013.5890999999999
  0
LINE
  8
_0-1_LAYER003
  6
CONTINUOUS
 62
    7
 10
1931.2664
 20
1085.2157
 11
1982.9664
 21
1085.2157
  0
LINE
  8
_0-1_LAYER003
  6
CONTINUOUS
 62
    7
 10
1857.1489000000001
 20
1085.2157
 11
1842.1489000000001
 21
1017.8351
  0
LINE
  8
_0-1_LAYER003
  6
CONTINUOUS
 62
    7
 10
1849.7219
 20
1125.4193
 11
1847.0198999999998
 21
1140.1732999999999
  0
LINE
  8
_0-1_LAYER003
  6
CONTINUOUS
 62
    7
 10
1849.7219
 20
1125.4193
 11
1758.4919
 21
1123.9583
  0
LINE
  8
_0-1_LAYER003
  6
CONTINUOUS
 62
    7
 10
1540.0779000000002
 20
1022.7251000000001
 11
1540.0779000000002
 21
1019.7251000000001
  0
LINE
  8
_0-1_LAYER003
  6
CONTINUOUS
 62
    7
 10
1540.0779000000002
 20
1022.7251000000001
 11
1516.0789
 21
1019.7251000000001
  0
LINE
  8
_0-1_LAYER003
  6
CONTINUOUS
 62
    7
 10
1516.0789
 20
1019.7251000000001
 11
1516.0789
 21
1022.7251000000001
  0
LINE
  8
_0-1_LAYER003
  6
CONTINUOUS
 62
    7
 10
1528.9677999999999
 20
991.18389999999999
 11
1538.9677999999999
 21
991.18389999999999
  0
LINE
  8
_0-1_LAYER003
  6
CONTINUOUS
 62
    7
 10
1538.9677999999999
 20
991.18389999999999
 11
1538.9677999999999
 21
937.16519999999991
  0
LINE
  8
_0-1_LAYER003
  6
CONTINUOUS
 62
    7
 10
1538.9677999999999
 20
937.16519999999991
 11
1560.3379
 21
937.16519999999991
  0
LINE
  8
_0-1_LAYER003
  6
CONTINUOUS
 62
    7
 10
1560.3379
 20
937.16519999999991
 11
1560.3379
 21
927.16519999999991
  0
LINE
  8
_0-1_LAYER003
  6
CONTINUOUS
 62
    7
 10
1560.3379
 20
927.16519999999991
 11
1528.9677999999999
 21
927.16519999999991
  0
LINE
  8
_0-1_LAYER003
  6
CONTINUOUS
 62
    7
 10
1528.9677999999999
 20
927.16519999999991
 11
1528.9677999999999
 21
991.18389999999999
  0
LINE
  8
_0-1_LAYER003
  6
CONTINUOUS
 62
    7
 10
1476.9868999999999
 20
973.58909999999992
 11
1346.9868999999999
 21
843.58909999999992
  0
LINE
  8
_0-1_LAYER003
  6
CONTINUOUS
 62
    7
 10
1465.6729
 20
973.58909999999992
 11
1335.6729
 21
843.58909999999992
  0
LINE
  8
_0-1_LAYER003
  6
CONTINUOUS
 62
    7
 10
1324.3588999999999
 20
843.58909999999992
 11
1454.3589000000002
 21
973.58909999999992
  0
LINE
  8
_0-1_LAYER003
  6
CONTINUOUS
 62
    7
 10
1224.4434000000001
 20
921.33649999999989
 11
1284.4434000000001
 21
921.33649999999989
  0
LINE
  8
_0-1_LAYER003
  6
CONTINUOUS
 62
    7
 10
1284.4434000000001
 20
921.33649999999989
 11
1292.7011349616146
 21
921.33649999999989
  0
LINE
  8
_0-1_LAYER003
  6
CONTINUOUS
 62
    7
 10
1224.4434000000001
 20
921.33649999999989
 11
1186.9808
 21
986.22360000000003
  0
LINE
  8
_0-1_LAYER003
  6
CONTINUOUS
 62
    7
 10
1186.9808
 20
986.22360000000003
 11
1188.922
 21
978.97919999999999
  0
LINE
  8
_0-1_LAYER003
  6
CONTINUOUS
 62
    7
 10
1186.9808
 20
986.22360000000003
 11
1192.2841000000001
 21
980.9203
  0
LINE
  8
_0-1_LAYER003
  6
CONTINUOUS
 62
    7
 10
1207.8779
 20
1022.7251000000001
 11
1207.8779
 21
1019.7251000000001
  0
LINE
  8
_0-1_LAYER003
  6
CONTINUOUS
 62
    7
 10
1207.8779
 20
1019.7251000000001
 11
1231.8779
 21
1022.7251000000001
  0
LINE
  8
_0-1_LAYER003
  6
CONTINUOUS
 62
    7
 10
1231.8779
 20
1022.7251000000001
 11
1231.8779
 21
1019.7251000000001
  0
LINE
  8
_0-1_LAYER003
  6
CONTINUOUS
 62
    7
 10
1127.3027999999999
 20
1025.6854000000001
 11
1127.3027999999999
 21
1018.1854000000001
  0
LINE
  8
_0-1_LAYER003
  6
CONTINUOUS
 62
    7
 10
1127.3027999999999
 20
1025.6854000000001
 11
1131.0527999999999
 21
1019.1902
  0
LINE
  8
_0-1_LAYER003
  6
CONTINUOUS
 62
    7
 10
1209.3157000000001
 20
718.1706999999999
 11
1414.1383999999998
 21
718.1706999999999
  0
LINE
  8
_0-1_LAYER003
  6
CONTINUOUS
 62
    7
 10
994.17000000000007
 20
822.03330000000005
 11
994.17000000000007
 21
769.53330000000005
  0
LINE
  8
_0-1_LAYER003
  6
CONTINUOUS
 62
    7
 10
995.87000000000012
 20
772.03330000000005
 11
1829.1700000000001
 21
772.03330000000005
  0
LINE
  8
_0-1_LAYER003
  6
CONTINUOUS
 62
    7
 10
1829.1700000000001
 20
770.33330000000001
 11
1829.1700000000001
 21
822.03330000000005
  0
LINE
  8
_0-1_LAYER003
  6
CONTINUOUS
 62
    7
 10
1524.1700000000001
 20
770.33330000000001
 11
1524.1700000000001
 21
822.03330000000005
  0
LINE
  8
_0-1_LAYER003
  6
CONTINUOUS
 62
    7
 10
1259.1700000000001
 20
770.33330000000001
 11
1259.1700000000001
 21
822.03330000000005
  0
LINE
  8
_0-0_LAYER001
  6
CONTINUOUS
 62
    2
 10
1225.7122273703415
 20
658.41619999999989
 11
1464.5646999999999
 21
658.41619999999989
  0
LINE
  8
_0-1_LAYER003
  6
CONTINUOUS
 62
    7
 10
1225.7122273703415
 20
658.41619999999989
 11
1464.5646999999999
 21
658.41619999999989
  0
LINE
  8
_0-0_LAYER001
  6
CONTINUOUS
 62
    2
 10
1127.3027999999999
 20
1025.6854000000001
 11
1225.7122273703415
 21
658.41619999999989
  0
LINE
  8
_0-1_LAYER003
  6
CONTINUOUS
 62
    7
 10
1225.7122273703415
 20
658.41619999999989
 11
1127.3027999999999
 21
1025.6854000000001
  0
LINE
  8
_0-1_LAYER003
  6
CONTINUOUS
 62
    7
 10
1330.4161999999999
 20
1156.9942000000001
 11
1370.9161999999997
 21
1156.9942000000001
  0
LINE
  8
_0-1_LAYER003
  6
CONTINUOUS
 62
    7
 10
1370.9161999999997
 20
1156.9942000000001
 11
1434.7062000000001
 21
1046.5065999999999
  0
LINE
  8
_0-1_LAYER003
  6
CONTINUOUS
 62
    7
 10
1434.7062000000001
 20
1046.5065999999999
 11
1432.7651000000001
 21
1053.7511
  0
LINE
  8
_0-1_LAYER003
  6
CONTINUOUS
 62
    7
 10
1434.7062000000001
 20
1046.5065999999999
 11
1429.4029
 21
1051.8099
  0
TEXT
  8
_0-0_LAYER001
 62
    7
 10
1118.4163950231004
 20
783.61172701725377
 40
20
 41
1
 50
0
  1
265
  0
TEXT
  8
_0-2_LAYER004
 62
    7
 10
1677.1171143586575
 20
1382.050075490838
 40
20
 41
1
 50
0
  1
シーリング
  0
TEXT
  8
_0-2_LAYER004
 62
    7
 10
1392.3856972446811
 20
1281.2076985963045
 40
20
 41
1
 50
0
  1
雨押水切カラー鋼板0.35ｍｍ以上
  0
TEXT
  8
_0-2_LAYER004
 62
    7
 10
1592.0931495260118
 20
1324.7083317664953
 40
20
 41
1
 50
0
  1
下地：40x30
  0
TEXT
  8
_0-2_LAYER004
 62
    7
 10
1360.7488731209057
 20
780.95041713910916
 40
20
 41
1
 50
0
  1
265
  0
TEXT
  8
_0-2_LAYER004
 62
    7
 10
1665.253305312242
 20
782.92771864684505
 40
20
 41
1
 50
0
  1
305
  0
TEXT
  8
_0-2_LAYER004
 62
    7
 10
1770.0502852222473
 20
879.81549252590662
 40
20
 41
1
 50
0
  1
150
  0
TEXT
  8
_0-2_LAYER004
 62
    7
 10
1783.8913957763989
 20
1219.91135185649
 40
20
 41
1
 50
0
  1
90
  0
TEXT
  8
_0-2_LAYER004
 62
    7
 10
1922.3025013179154
 20
931.22533172704141
 40
20
 41
1
 50
0
  1
下地材：15x60
  0
TEXT
  8
_0-2_LAYER004
 62
    7
 10
1904.5067877482918
 20
877.83819101817073
 40
20
 41
1
 50
0
  1
捨谷水切カラー鋼板0.35ｍｍ以上
  0
TEXT
  8
_0-2_LAYER004
 62
    7
 10
977.15238062013157
 20
891.6793015723224
 40
20
 41
1
 50
0
  1
アンカー
  0
TEXT
  8
_0-2_LAYER004
 62
    7
 10
1230.246973610333
 20
927.27072871156952
 40
20
 41
1
 50
0
  1
溶接金網
  0
TEXT
  8
_0-2_LAYER004
 62
    7
 10
1315.2709384429791
 20
1160.5923066244115
 40
20
 41
1
 50
0
  1
桟　瓦
  0
TEXT
  8
_0-2_LAYER004
 62
    7
 10
2008.1055589422958
 20
1035.6520497162223
 40
20
 41
1
 50
90
  1
水切り立上がり寸法
  0
TEXT
  8
_0-1_LAYER003
 62
    7
 10
2094.5848588248491
 20
1013.8374515476504
 40
20
 41
1
 50
90
  1
下葺き材立上がり寸法
  0
TEXT
  8
_0-0_LAYER001
 62
    7
 10
1962.1390842299479
 20
1169.6560098945927
 40
20
 41
1
 50
90
  1
100
  0
TEXT
  8
_0-2_LAYER004
 62
    7
 10
1965.2554553968869
 20
1105.7704009723464
 40
20
 41
1
 50
90
  1
56
  0
TEXT
  8
_0-2_LAYER004
 62
    7
 10
1966.8136409803562
 20
1037.2102352996917
 40
20
 41
1
 50
90
  1
72
  0
TEXT
  8
_0-2_LAYER004
 62
    7
 10
1963.6972698134173
 20
1239.7743611507165
 40
20
 41
1
 50
90
  1
20
  0
TEXT
  8
_0-2_LAYER004
 62
    7
 10
2055.6302192381136
 20
1094.0840090963256
 40
20
 41
1
 50
90
  1
200
  0
LINE
  8
_0-2_LAYER004
  6
CONTINUOUS
 62
    7
 10
1478.4956999999999
 20
1276.3642
 11
1391.0640678884051
 21
1276.3642
  0
LINE
  8
_0-2_LAYER004
  6
CONTINUOUS
 62
    7
 10
1330.4161999999999
 20
1156.9942000000001
 11
1317.8293454653419
 21
1156.9942000000001
  0
LINE
  8
_0-2_LAYER004
  6
CONTINUOUS
 62
    7
 10
1292.7011349616146
 20
921.33649999999989
 11
1319.3875310488113
 21
921.33649999999989
  0
LINE
  8
_0-2_LAYER004
  6
CONTINUOUS
 62
    7
 10
2136.9650000000001
 20
871.95669999999996
 11
2221.5769838776068
 21
871.95669999999996
  0
LINE
  8
_0-2_LAYER004
  6
CONTINUOUS
 62
    7
 10
1464.5646999999999
 20
658.41619999999989
 11
1512.6025433990199
 21
658.41619999999989
  0
LINE
  8
_0-2_LAYER004
  6
CONTINUOUS
 62
    7
 10
1414.1383999999998
 20
718.1706999999999
 11
1428.4605218916709
 21
718.1706999999999
  0
LINE
  8
_0-2_LAYER004
  6
CONTINUOUS
 62
    7
 10
1035.0293579409022
 20
889.83215546706117
 11
1059.1705386094181
 21
889.83215546706117
  0
TEXT
  8
_0-2_LAYER004
 62
    7
 10
1213.4309113728907
 20
720.11946906366438
 40
20
 41
1
 50
0
  1
瓦桟：15x30以上
  0
TEXT
  8
_0-2_LAYER004
 62
    7
 10
1227.4545816241155
 20
662.46660247529576
 40
20
 41
1
 50
0
  1
パーライト系モルタルｔ＝40
  0
TEXT
  8
_0-2_LAYER004
 62
    7
 10
1585.8372658220828
 20
1240.5534539424511
 40
20
 41
1
 50
0
  1
笠木：15x90
  0
TEXT
  8
_0-2_LAYER004
 62
    7
 10
1218.3831645639175
 20
691.97184929099149
 40
20
 41
1
 50
0
  1
下葺材：ルーフィング
  0
LINE
  8
_0-0_LAYER001
  6
CONTINUOUS
 62
    2
 10
1216.9987000000001
 20
688.51160000000004
 11
1385.4041272570935
 21
688.51160000000004
  0
LINE
  8
_0-1_LAYER003
  6
CONTINUOUS
 62
    7
 10
1216.9987000000001
 20
688.51160000000004
 11
1451.8013757523647
 21
688.51160000000004
  0
ENDSEC
  0
EOF
