  0
SECTION
  2
HEADER
  9
$ACADVER
  1
AC1009
  9
$INSBASE
 10
0
 20
0
 30
0
  9
$EXTMIN
 10
0
 20
0
  9
$EXTMAX
 10
2970
 20
2100
  9
$LIMMIN
 10
0
 20
0
  9
$LIMMAX
 10
2970
 20
2100
  9
$LTSCALE
 40
10
  0
ENDSEC
  0
SECTION
  2
TABLES
  0
TABLE
  2
LTYPE
 70
     9
  0
LTYPE
  2
CONTINUOUS
 70
    64
  3
実線
 72
    65
 73
     0
 40
0.0
  0
LTYPE
  2
DASHED1
 70
    64
  3
--  --  --  --  --  --  --  --  
 72
    65
 73
     2
 40
2.5
 49
1.25
 49
-1.25
  0
LTYPE
  2
DASHED2
 70
    64
  3
----    ----    ----    ----    
 72
    65
 73
     2
 40
5.0
 49
2.5
 49
-2.5
  0
LTYPE
  2
DASHED3
 70
    64
  3
------  ------  ------  ------  
 72
    65
 73
     2
 40
5.0
 49
3.75
 49
-1.25
  0
LTYPE
  2
CENTER1
 70
    64
  3
----- - ----- - ----- - ----- - 
 72
    65
 73
     4
 40
10.0
 49
6.25
 49
-1.25
 49
1.25
 49
-1.25
  0
LTYPE
  2
CENTER2
 70
    64
  3
----------  --  ----------  --  
 72
    65
 73
     4
 40
20.0
 49
12.5
 49
-2.5
 49
2.5
 49
-2.5
  0
LTYPE
  2
PHANTOM1
 70
    64
  3
--- - - --- - - --- - - --- - - 
 72
    65
 73
     6
 40
10.0
 49
3.25
 49
-1.25
 49
1.25
 49
-1.25
 49
1.25
 49
-1.25
  0
LTYPE
  2
PHANTOM2
 70
    64
  3
--------  -  -  --------  -  -  
 72
    65
 73
     6
 40
20.0
 49
10.0
 49
-2.5
 49
1.25
 49
-2.5
 49
1.25
 49
-2.5
  0
LTYPE
  2
DOT
 70
    64
  3
-   -   -   -   -   -   -   -   
 72
    65
 73
     2
 40
2.5
 49
0.625
 49
-1.875
  0
LTYPE
  2
DUMMY
 70
    64
  3
ダミー
 72
    65
 73
     0
 40
0.0
  0
LTYPE
  2
RAND1
 70
    64
  3
ランダム線1
 72
    65
 73
     4
 40
10.0
 49
1.0
 49
-2.0
 49
3.0
 49
-4.0
  0
LTYPE
  2
RAND2
 70
    64
  3
ランダム線2
 72
    65
 73
     4
 40
14.0
 49
2.0
 49
-3.0
 49
4.0
 49
-5.0
  0
LTYPE
  2
RAND3
 70
    64
  3
ランダム線3
 72
    65
 73
     4
 40
18.0
 49
3.0
 49
-4.0
 49
5.0
 49
-6.0
  0
LTYPE
  2
RAND4
 70
    64
  3
ランダム線4
 72
    65
 73
     4
 40
22.0
 49
4.0
 49
-5.0
 49
6.0
 49
-7.0
  0
LTYPE
  2
RAND5
 70
    64
  3
ランダム線5
 72
    65
 73
     4
 40
26.0
 49
5.0
 49
-6.0
 49
7.0
 49
-8.0
  0
LTYPE
  2
LONG1
 70
    64
  3
----------  --  ----------  --  
 72
    65
 73
     4
 40
40.0
 49
32.5
 49
-2.5
 49
2.5
 49
-2.5
  0
LTYPE
  2
LONG2
 70
    64
  3
--------  -  -  --------  -  -  
 72
    65
 73
     6
 40
40.0
 49
30.0
 49
-2.5
 49
1.25
 49
-2.5
 49
1.25
 49
-2.5
  0
LTYPE
  2
LONG3
 70
    64
  3
+++++++++++++++..+++++++++++++++
 72
    65
 73
     2
 40
40.0
 49
37.5
 49
-2.5
  0
LTYPE
  2
LONG4
 70
    64
  3
+++++++++++++++..+++++++++++++++
 72
    65
 73
     2
 40
80.0
 49
75.0
 49
-5.0
  0
LTYPE
  2
LONG5
 70
    64
  3
----------  --  ----------  --  
 72
    65
 73
     4
 40
60.0
 49
37.5
 49
-7.5
 49
7.5
 49
-7.5
  0
LTYPE
  2
dashed
 70
   64
  3
-------   -------------   ------
 72
   65
 73
    2
 40
7.5
 49
6
 49
-1.5
  0
LTYPE
  2
dashed_spaced
 70
   64
  3
----        --------        ----
 72
   65
 73
    2
 40
12
 49
6
 49
-6
  0
LTYPE
  2
long_dashed_dotted
 70
   64
  3
------------- --- --------------
 72
   65
 73
    4
 40
15.25
 49
12
 49
-1.5
 49
0.25
 49
-1.5
  0
LTYPE
  2
long_dashed_double-dotted
 70
   64
  3
----------- --- --- ------------
 72
   65
 73
    6
 40
17
 49
12
 49
-1.5
 49
0.25
 49
-1.5
 49
0.25
 49
-1.5
  0
LTYPE
  2
long_dashed_triplicate-dotted
 70
   64
  3
--------- --- --- --- ----------
 72
   65
 73
    8
 40
18.75
 49
12
 49
-1.5
 49
0.25
 49
-1.5
 49
0.25
 49
-1.5
 49
0.25
 49
-1.5
  0
LTYPE
  2
dotted
 70
   64
  3
   -       -       -       -    
 72
   65
 73
    2
 40
1.75
 49
0.25
 49
-1.5
  0
LTYPE
  2
chain
 70
   64
  3
-------------- -- --------------
 72
   65
 73
    4
 40
18.5
 49
12
 49
-1.5
 49
3.5
 49
-1.5
  0
LTYPE
  2
chain_double_dash
 70
   64
  3
------------ -- -- -------------
 72
   65
 73
    6
 40
23.5
 49
12
 49
-1.5
 49
3.5
 49
-1.5
 49
3.5
 49
-1.5
  0
LTYPE
  2
dashed_dotted
 70
   64
  3
-----------     -     ----------
 72
   65
 73
    4
 40
9.25
 49
6
 49
-1.5
 49
0.25
 49
-1.5
  0
LTYPE
  2
double-dashed_dotted
 70
   64
  3
------   -----------   -   -----
 72
   65
 73
    6
 40
16.75
 49
6
 49
-1.5
 49
6
 49
-1.5
 49
0.25
 49
-1.5
  0
LTYPE
  2
dashed_double-dotted
 70
   64
  3
---------    -    -    ---------
 72
   65
 73
    6
 40
11
 49
6
 49
-1.5
 49
0.25
 49
-1.5
 49
0.25
 49
-1.5
  0
LTYPE
  2
double-dashed_double-dotted
 70
   64
  3
-----   ---------   -   -   ----
 72
   65
 73
    8
 40
18.5
 49
6
 49
-1.5
 49
6
 49
-1.5
 49
0.25
 49
-1.5
 49
0.25
 49
-1.5
  0
LTYPE
  2
dashed_triplicate-dotted
 70
   64
  3
-------    -    -    -    ------
 72
   65
 73
    8
 40
12.75
 49
6
 49
-1.5
 49
0.25
 49
-1.5
 49
0.25
 49
-1.5
 49
0.25
 49
-1.5
  0
LTYPE
  2
double-dashed_triplicate-dotted
 70
   64
  3
-----  ---------  -  -  -  -----
 72
   65
 73
   10
 40
20.25
 49
6
 49
-1.5
 49
6
 49
-1.5
 49
0.25
 49
-1.5
 49
0.25
 49
-1.5
 49
0.25
 49
-1.5
  0
LTYPE
  2
undefined
 70
   64
  3
--------------------------------
 72
   65
 73
    0
 40
0
  0
ENDTAB
  0
TABLE
  2
STYLE
  5
3
100
AcDbSymbolTable
 70
     1
  0
STYLE
  5
10
100
AcDbSymbolTableRecord
100
AcDbTextStyleTableRecord
  2
STANDARD
 70
     0
 40
0.0
 41
1.0
 50
0.0
 71
     0
 42
0.2
  3
txt
  4
bigfont.shx
  0
STYLE
  5
26
100
AcDbSymbolTableRecord
100
AcDbTextStyleTableRecord
  2
TATEGAKI
 70
    68
 40
0.0
 41
1.0
 50
0.0
 71
     0
 42
1.0
  3
txt
  4
bigfont.shx
  0
ENDTAB
  0
TABLE
  2
LAYER
 70
    6
  0
LAYER
  2
_0-0_LAYER001
 70
   64
 62
    7
  6
CONTINUOUS
  0
LAYER
  2
_0-1_LAYER003
 70
   64
 62
    7
  6
CONTINUOUS
  0
LAYER
  2
_0-2_LAYER004
 70
   64
 62
    7
  6
CONTINUOUS
  0
LAYER
  2
_0-3_LAYER005
 70
   64
 62
    7
  6
CONTINUOUS
  0
LAYER
  2
_0-4_LAYER007
 70
   64
 62
    7
  6
CONTINUOUS
  0
LAYER
  2
ADD_LINE
 70
   64
 62
    7
  6
CONTINUOUS
  0
ENDTAB
  0
ENDSEC
  0
SECTION
  2
BLOCKS
  0
ENDSEC
  0
SECTION
  2
ENTITIES
  0
LINE
  8
_0-0_LAYER001
  6
CONTINUOUS
 62
    2
 10
843.47090000000003
 20
942.2186999999999
 11
1872.3908999999999
 21
942.2186999999999
  0
LINE
  8
_0-0_LAYER001
  6
CONTINUOUS
 62
    2
 10
1832.2745
 20
981.4543000000001
 11
1830.3334
 21
988.69869999999992
  0
LINE
  8
_0-0_LAYER001
  6
CONTINUOUS
 62
    2
 10
1830.3334
 20
988.69869999999992
 11
1835.6367
 21
983.39540000000011
  0
LINE
  8
_0-0_LAYER001
  6
CONTINUOUS
 62
    2
 10
1830.3334
 20
988.69869999999992
 11
1892.529
 21
880.97280000000001
  0
LINE
  8
_0-0_LAYER001
  6
CONTINUOUS
 62
    2
 10
1892.529
 20
880.97280000000001
 11
2126.529
 21
880.97280000000001
  0
LINE
  8
_0-0_LAYER001
  6
CONTINUOUS
 62
    1
 10
1860.6752000000001
 20
942.2186999999999
 11
1872.3908999999999
 21
953.9344000000001
  0
LINE
  8
_0-0_LAYER001
  6
CONTINUOUS
 62
    1
 10
1846.5331000000001
 20
942.2186999999999
 11
1872.3908999999999
 21
968.0764999999999
  0
LINE
  8
_0-0_LAYER001
  6
CONTINUOUS
 62
    1
 10
1832.3908999999999
 20
942.2186999999999
 11
1872.3908999999999
 21
982.2186999999999
  0
LINE
  8
_0-0_LAYER001
  6
CONTINUOUS
 62
    1
 10
1818.2487999999998
 20
942.2186999999999
 11
1858.2487999999998
 21
982.2186999999999
  0
LINE
  8
_0-0_LAYER001
  6
CONTINUOUS
 62
    1
 10
1804.1066000000001
 20
942.2186999999999
 11
1844.1066000000001
 21
982.2186999999999
  0
LINE
  8
_0-0_LAYER001
  6
CONTINUOUS
 62
    1
 10
1789.9645
 20
942.2186999999999
 11
1829.9645
 21
982.2186999999999
  0
LINE
  8
_0-0_LAYER001
  6
CONTINUOUS
 62
    1
 10
1775.8224
 20
942.2186999999999
 11
1815.8224
 21
982.2186999999999
  0
LINE
  8
_0-0_LAYER001
  6
CONTINUOUS
 62
    1
 10
1761.6801999999998
 20
942.2186999999999
 11
1801.6801999999998
 21
982.2186999999999
  0
LINE
  8
_0-0_LAYER001
  6
CONTINUOUS
 62
    1
 10
1747.5381000000002
 20
942.2186999999999
 11
1787.5381000000002
 21
982.2186999999999
  0
LINE
  8
_0-0_LAYER001
  6
CONTINUOUS
 62
    1
 10
1733.3960000000002
 20
942.2186999999999
 11
1773.3960000000002
 21
982.2186999999999
  0
LINE
  8
_0-0_LAYER001
  6
CONTINUOUS
 62
    1
 10
1719.2538
 20
942.2186999999999
 11
1759.2538
 21
982.2186999999999
  0
LINE
  8
_0-0_LAYER001
  6
CONTINUOUS
 62
    1
 10
1705.1116999999999
 20
942.2186999999999
 11
1745.1116999999999
 21
982.2186999999999
  0
LINE
  8
_0-0_LAYER001
  6
CONTINUOUS
 62
    1
 10
1690.9695999999999
 20
942.2186999999999
 11
1730.9695999999999
 21
982.2186999999999
  0
LINE
  8
_0-0_LAYER001
  6
CONTINUOUS
 62
    1
 10
1676.8274000000001
 20
942.2186999999999
 11
1716.8274000000001
 21
982.2186999999999
  0
LINE
  8
_0-0_LAYER001
  6
CONTINUOUS
 62
    1
 10
1662.6853000000001
 20
942.2186999999999
 11
1702.6853000000001
 21
982.2186999999999
  0
LINE
  8
_0-0_LAYER001
  6
CONTINUOUS
 62
    1
 10
1648.5432000000001
 20
942.2186999999999
 11
1688.5432000000001
 21
982.2186999999999
  0
LINE
  8
_0-0_LAYER001
  6
CONTINUOUS
 62
    1
 10
1634.4009999999998
 20
942.2186999999999
 11
1674.4009999999998
 21
982.2186999999999
  0
LINE
  8
_0-0_LAYER001
  6
CONTINUOUS
 62
    1
 10
1620.2588999999998
 20
942.2186999999999
 11
1660.2588999999998
 21
982.2186999999999
  0
LINE
  8
_0-0_LAYER001
  6
CONTINUOUS
 62
    1
 10
1606.1167
 20
942.2186999999999
 11
1646.1167
 21
982.2186999999999
  0
LINE
  8
_0-0_LAYER001
  6
CONTINUOUS
 62
    1
 10
1591.9746
 20
942.2186999999999
 11
1631.9746
 21
982.2186999999999
  0
LINE
  8
_0-0_LAYER001
  6
CONTINUOUS
 62
    1
 10
1577.8325
 20
942.2186999999999
 11
1617.8325
 21
982.2186999999999
  0
LINE
  8
_0-0_LAYER001
  6
CONTINUOUS
 62
    1
 10
1563.6903000000002
 20
942.2186999999999
 11
1603.6903000000002
 21
982.2186999999999
  0
LINE
  8
_0-0_LAYER001
  6
CONTINUOUS
 62
    1
 10
1549.5482000000002
 20
942.2186999999999
 11
1589.5482000000002
 21
982.2186999999999
  0
LINE
  8
_0-0_LAYER001
  6
CONTINUOUS
 62
    1
 10
1535.4061000000002
 20
942.2186999999999
 11
1575.4061000000002
 21
982.2186999999999
  0
LINE
  8
_0-0_LAYER001
  6
CONTINUOUS
 62
    1
 10
1521.2638999999999
 20
942.2186999999999
 11
1561.2638999999999
 21
982.2186999999999
  0
LINE
  8
_0-0_LAYER001
  6
CONTINUOUS
 62
    1
 10
1507.1217999999999
 20
942.2186999999999
 11
1547.1217999999999
 21
982.2186999999999
  0
LINE
  8
_0-0_LAYER001
  6
CONTINUOUS
 62
    1
 10
1492.9796999999999
 20
942.2186999999999
 11
1532.9796999999999
 21
982.2186999999999
  0
LINE
  8
_0-0_LAYER001
  6
CONTINUOUS
 62
    1
 10
1478.8375000000001
 20
942.2186999999999
 11
1518.8375000000001
 21
982.2186999999999
  0
LINE
  8
_0-0_LAYER001
  6
CONTINUOUS
 62
    1
 10
1464.6954000000001
 20
942.2186999999999
 11
1504.6954000000001
 21
982.2186999999999
  0
LINE
  8
_0-0_LAYER001
  6
CONTINUOUS
 62
    1
 10
1450.5533
 20
942.2186999999999
 11
1490.5533
 21
982.2186999999999
  0
LINE
  8
_0-0_LAYER001
  6
CONTINUOUS
 62
    1
 10
1436.4110999999998
 20
942.2186999999999
 11
1476.4110999999998
 21
982.2186999999999
  0
LINE
  8
_0-0_LAYER001
  6
CONTINUOUS
 62
    1
 10
1422.269
 20
942.2186999999999
 11
1462.2689999999998
 21
982.2186999999999
  0
LINE
  8
_0-0_LAYER001
  6
CONTINUOUS
 62
    1
 10
1408.1269
 20
942.2186999999999
 11
1448.1269000000002
 21
982.2186999999999
  0
LINE
  8
_0-0_LAYER001
  6
CONTINUOUS
 62
    1
 10
1393.9847
 20
942.2186999999999
 11
1433.9847
 21
982.2186999999999
  0
LINE
  8
_0-0_LAYER001
  6
CONTINUOUS
 62
    1
 10
1379.8425999999999
 20
942.2186999999999
 11
1419.8425999999999
 21
982.2186999999999
  0
LINE
  8
_0-0_LAYER001
  6
CONTINUOUS
 62
    1
 10
1365.7004000000002
 20
942.2186999999999
 11
1405.7004000000002
 21
982.2186999999999
  0
LINE
  8
_0-0_LAYER001
  6
CONTINUOUS
 62
    1
 10
1351.5582999999997
 20
942.2186999999999
 11
1391.5582999999997
 21
982.2186999999999
  0
LINE
  8
_0-0_LAYER001
  6
CONTINUOUS
 62
    1
 10
1337.4161999999999
 20
942.2186999999999
 11
1377.4161999999999
 21
982.2186999999999
  0
LINE
  8
_0-0_LAYER001
  6
CONTINUOUS
 62
    1
 10
1323.2739999999999
 20
942.2186999999999
 11
1363.2739999999999
 21
982.2186999999999
  0
LINE
  8
_0-0_LAYER001
  6
CONTINUOUS
 62
    1
 10
1309.1319000000001
 20
942.2186999999999
 11
1349.1319000000001
 21
982.2186999999999
  0
LINE
  8
_0-0_LAYER001
  6
CONTINUOUS
 62
    1
 10
1294.9898000000003
 20
942.2186999999999
 11
1334.9898000000003
 21
982.2186999999999
  0
LINE
  8
_0-0_LAYER001
  6
CONTINUOUS
 62
    1
 10
1280.8476000000001
 20
942.2186999999999
 11
1320.8476000000001
 21
982.2186999999999
  0
LINE
  8
_0-0_LAYER001
  6
CONTINUOUS
 62
    1
 10
1266.7055
 20
942.2186999999999
 11
1306.7055
 21
982.2186999999999
  0
LINE
  8
_0-0_LAYER001
  6
CONTINUOUS
 62
    1
 10
1252.5634
 20
942.2186999999999
 11
1292.5634
 21
982.2186999999999
  0
LINE
  8
_0-0_LAYER001
  6
CONTINUOUS
 62
    1
 10
1238.4212
 20
942.2186999999999
 11
1278.4212
 21
982.2186999999999
  0
LINE
  8
_0-0_LAYER001
  6
CONTINUOUS
 62
    1
 10
1224.2791
 20
942.2186999999999
 11
1264.2791
 21
982.2186999999999
  0
LINE
  8
_0-0_LAYER001
  6
CONTINUOUS
 62
    1
 10
1210.1369999999999
 20
942.2186999999999
 11
1250.1369999999999
 21
982.2186999999999
  0
LINE
  8
_0-0_LAYER001
  6
CONTINUOUS
 62
    1
 10
1195.9947999999999
 20
942.2186999999999
 11
1235.9947999999999
 21
982.2186999999999
  0
LINE
  8
_0-0_LAYER001
  6
CONTINUOUS
 62
    1
 10
1181.8526999999999
 20
942.2186999999999
 11
1221.8526999999999
 21
982.2186999999999
  0
LINE
  8
_0-0_LAYER001
  6
CONTINUOUS
 62
    1
 10
1167.7104999999999
 20
942.2186999999999
 11
1207.7104999999999
 21
982.2186999999999
  0
LINE
  8
_0-0_LAYER001
  6
CONTINUOUS
 62
    1
 10
1153.5684000000001
 20
942.2186999999999
 11
1193.5684000000001
 21
982.2186999999999
  0
LINE
  8
_0-0_LAYER001
  6
CONTINUOUS
 62
    1
 10
1139.4263000000001
 20
942.2186999999999
 11
1179.4263000000001
 21
982.2186999999999
  0
LINE
  8
_0-0_LAYER001
  6
CONTINUOUS
 62
    1
 10
1125.2841000000001
 20
942.2186999999999
 11
1165.2841000000001
 21
982.2186999999999
  0
LINE
  8
_0-0_LAYER001
  6
CONTINUOUS
 62
    1
 10
1111.1420000000001
 20
942.2186999999999
 11
1151.1420000000001
 21
982.2186999999999
  0
LINE
  8
_0-0_LAYER001
  6
CONTINUOUS
 62
    1
 10
1096.9999
 20
942.2186999999999
 11
1136.9999
 21
982.2186999999999
  0
LINE
  8
_0-0_LAYER001
  6
CONTINUOUS
 62
    1
 10
1082.8577
 20
942.2186999999999
 11
1122.8577
 21
982.2186999999999
  0
LINE
  8
_0-0_LAYER001
  6
CONTINUOUS
 62
    1
 10
1068.7156
 20
942.2186999999999
 11
1108.7156
 21
982.2186999999999
  0
LINE
  8
_0-0_LAYER001
  6
CONTINUOUS
 62
    1
 10
1054.5735
 20
942.2186999999999
 11
1094.5735
 21
982.2186999999999
  0
LINE
  8
_0-0_LAYER001
  6
CONTINUOUS
 62
    1
 10
1040.4313
 20
942.2186999999999
 11
1080.4313
 21
982.2186999999999
  0
LINE
  8
_0-0_LAYER001
  6
CONTINUOUS
 62
    1
 10
1026.2891999999999
 20
942.2186999999999
 11
1066.2891999999999
 21
982.2186999999999
  0
LINE
  8
_0-0_LAYER001
  6
CONTINUOUS
 62
    1
 10
1012.1470999999999
 20
942.2186999999999
 11
1052.1470999999999
 21
982.2186999999999
  0
LINE
  8
_0-0_LAYER001
  6
CONTINUOUS
 62
    1
 10
998.00489999999991
 20
942.2186999999999
 11
1038.0048999999999
 21
982.2186999999999
  0
LINE
  8
_0-0_LAYER001
  6
CONTINUOUS
 62
    1
 10
983.86280000000011
 20
942.2186999999999
 11
1023.8628000000001
 21
982.2186999999999
  0
LINE
  8
_0-0_LAYER001
  6
CONTINUOUS
 62
    1
 10
969.7206000000001
 20
942.2186999999999
 11
1009.7206000000001
 21
982.2186999999999
  0
LINE
  8
_0-0_LAYER001
  6
CONTINUOUS
 62
    1
 10
955.57850000000008
 20
942.2186999999999
 11
995.57850000000008
 21
982.2186999999999
  0
LINE
  8
_0-0_LAYER001
  6
CONTINUOUS
 62
    1
 10
941.43640000000005
 20
942.2186999999999
 11
981.43640000000005
 21
982.2186999999999
  0
LINE
  8
_0-0_LAYER001
  6
CONTINUOUS
 62
    1
 10
927.29420000000005
 20
942.2186999999999
 11
967.29420000000005
 21
982.2186999999999
  0
LINE
  8
_0-0_LAYER001
  6
CONTINUOUS
 62
    1
 10
913.15210000000002
 20
942.2186999999999
 11
953.15210000000002
 21
982.2186999999999
  0
LINE
  8
_0-0_LAYER001
  6
CONTINUOUS
 62
    1
 10
899.00999999999999
 20
942.2186999999999
 11
939.00999999999999
 21
982.2186999999999
  0
LINE
  8
_0-0_LAYER001
  6
CONTINUOUS
 62
    1
 10
884.86779999999999
 20
942.2186999999999
 11
924.86779999999999
 21
982.2186999999999
  0
LINE
  8
_0-0_LAYER001
  6
CONTINUOUS
 62
    1
 10
870.72569999999996
 20
942.2186999999999
 11
910.72569999999996
 21
982.2186999999999
  0
LINE
  8
_0-0_LAYER001
  6
CONTINUOUS
 62
    1
 10
856.58359999999993
 20
942.2186999999999
 11
896.58359999999993
 21
982.2186999999999
  0
LINE
  8
_0-0_LAYER001
  6
CONTINUOUS
 62
    1
 10
843.47090000000003
 20
943.2482
 11
882.44139999999993
 21
982.2186999999999
  0
LINE
  8
_0-0_LAYER001
  6
CONTINUOUS
 62
    1
 10
843.47090000000003
 20
957.39030000000002
 11
868.2992999999999
 21
982.2186999999999
  0
LINE
  8
_0-0_LAYER001
  6
CONTINUOUS
 62
    1
 10
843.47090000000003
 20
971.53240000000005
 11
854.1572000000001
 21
982.2186999999999
  0
LINE
  8
_0-0_LAYER001
  6
CONTINUOUS
 62
    1
 10
843.47090000000003
 20
950.47849999999994
 11
851.73070000000007
 21
942.2186999999999
  0
LINE
  8
_0-0_LAYER001
  6
CONTINUOUS
 62
    1
 10
843.47090000000003
 20
964.62059999999997
 11
865.87290000000007
 21
942.2186999999999
  0
LINE
  8
_0-0_LAYER001
  6
CONTINUOUS
 62
    1
 10
843.47090000000003
 20
978.76279999999997
 11
880.0150000000001
 21
942.2186999999999
  0
LINE
  8
_0-0_LAYER001
  6
CONTINUOUS
 62
    1
 10
854.1572000000001
 20
982.2186999999999
 11
894.1572000000001
 21
942.2186999999999
  0
LINE
  8
_0-0_LAYER001
  6
CONTINUOUS
 62
    1
 10
868.2992999999999
 20
982.2186999999999
 11
908.2992999999999
 21
942.2186999999999
  0
LINE
  8
_0-0_LAYER001
  6
CONTINUOUS
 62
    1
 10
882.44139999999993
 20
982.2186999999999
 11
922.44139999999993
 21
942.2186999999999
  0
LINE
  8
_0-0_LAYER001
  6
CONTINUOUS
 62
    1
 10
896.58359999999993
 20
982.2186999999999
 11
936.58359999999993
 21
942.2186999999999
  0
LINE
  8
_0-0_LAYER001
  6
CONTINUOUS
 62
    1
 10
910.72569999999996
 20
982.2186999999999
 11
950.72569999999996
 21
942.2186999999999
  0
LINE
  8
_0-0_LAYER001
  6
CONTINUOUS
 62
    1
 10
924.86779999999999
 20
982.2186999999999
 11
964.86779999999999
 21
942.2186999999999
  0
LINE
  8
_0-0_LAYER001
  6
CONTINUOUS
 62
    1
 10
939.00999999999999
 20
982.2186999999999
 11
979.00999999999999
 21
942.2186999999999
  0
LINE
  8
_0-0_LAYER001
  6
CONTINUOUS
 62
    1
 10
953.15210000000002
 20
982.2186999999999
 11
993.15210000000002
 21
942.2186999999999
  0
LINE
  8
_0-0_LAYER001
  6
CONTINUOUS
 62
    1
 10
967.29420000000005
 20
982.2186999999999
 11
1007.2942
 21
942.2186999999999
  0
LINE
  8
_0-0_LAYER001
  6
CONTINUOUS
 62
    1
 10
981.43640000000005
 20
982.2186999999999
 11
1021.4364
 21
942.2186999999999
  0
LINE
  8
_0-0_LAYER001
  6
CONTINUOUS
 62
    1
 10
995.57850000000008
 20
982.2186999999999
 11
1035.5785000000001
 21
942.2186999999999
  0
LINE
  8
_0-0_LAYER001
  6
CONTINUOUS
 62
    1
 10
1009.7206000000001
 20
982.2186999999999
 11
1049.7206000000001
 21
942.2186999999999
  0
LINE
  8
_0-0_LAYER001
  6
CONTINUOUS
 62
    1
 10
1023.8628000000001
 20
982.2186999999999
 11
1063.8628000000001
 21
942.2186999999999
  0
LINE
  8
_0-0_LAYER001
  6
CONTINUOUS
 62
    1
 10
1038.0048999999999
 20
982.2186999999999
 11
1078.0048999999999
 21
942.2186999999999
  0
LINE
  8
_0-0_LAYER001
  6
CONTINUOUS
 62
    1
 10
1052.1470999999999
 20
982.2186999999999
 11
1092.1470999999999
 21
942.2186999999999
  0
LINE
  8
_0-0_LAYER001
  6
CONTINUOUS
 62
    1
 10
1066.2891999999999
 20
982.2186999999999
 11
1106.2891999999999
 21
942.2186999999999
  0
LINE
  8
_0-0_LAYER001
  6
CONTINUOUS
 62
    1
 10
1080.4313
 20
982.2186999999999
 11
1120.4313
 21
942.2186999999999
  0
LINE
  8
_0-0_LAYER001
  6
CONTINUOUS
 62
    1
 10
1094.5735
 20
982.2186999999999
 11
1134.5735
 21
942.2186999999999
  0
LINE
  8
_0-0_LAYER001
  6
CONTINUOUS
 62
    1
 10
1108.7156
 20
982.2186999999999
 11
1148.7156
 21
942.2186999999999
  0
LINE
  8
_0-0_LAYER001
  6
CONTINUOUS
 62
    1
 10
1122.8577
 20
982.2186999999999
 11
1162.8577
 21
942.2186999999999
  0
LINE
  8
_0-0_LAYER001
  6
CONTINUOUS
 62
    1
 10
1136.9999
 20
982.2186999999999
 11
1176.9999
 21
942.2186999999999
  0
LINE
  8
_0-0_LAYER001
  6
CONTINUOUS
 62
    1
 10
1151.1420000000001
 20
982.2186999999999
 11
1191.1420000000001
 21
942.2186999999999
  0
LINE
  8
_0-0_LAYER001
  6
CONTINUOUS
 62
    1
 10
1165.2841000000001
 20
982.2186999999999
 11
1205.2841000000001
 21
942.2186999999999
  0
LINE
  8
_0-0_LAYER001
  6
CONTINUOUS
 62
    1
 10
1179.4263000000001
 20
982.2186999999999
 11
1219.4263000000001
 21
942.2186999999999
  0
LINE
  8
_0-0_LAYER001
  6
CONTINUOUS
 62
    1
 10
1193.5684000000001
 20
982.2186999999999
 11
1233.5684000000001
 21
942.2186999999999
  0
LINE
  8
_0-0_LAYER001
  6
CONTINUOUS
 62
    1
 10
1207.7104999999999
 20
982.2186999999999
 11
1247.7104999999999
 21
942.2186999999999
  0
LINE
  8
_0-0_LAYER001
  6
CONTINUOUS
 62
    1
 10
1221.8526999999999
 20
982.2186999999999
 11
1261.8526999999999
 21
942.2186999999999
  0
LINE
  8
_0-0_LAYER001
  6
CONTINUOUS
 62
    1
 10
1235.9947999999999
 20
982.2186999999999
 11
1275.9947999999999
 21
942.2186999999999
  0
LINE
  8
_0-0_LAYER001
  6
CONTINUOUS
 62
    1
 10
1250.1369999999999
 20
982.2186999999999
 11
1290.1369999999999
 21
942.2186999999999
  0
LINE
  8
_0-0_LAYER001
  6
CONTINUOUS
 62
    1
 10
1264.2791
 20
982.2186999999999
 11
1304.2791
 21
942.2186999999999
  0
LINE
  8
_0-0_LAYER001
  6
CONTINUOUS
 62
    1
 10
1278.4212
 20
982.2186999999999
 11
1318.4212
 21
942.2186999999999
  0
LINE
  8
_0-0_LAYER001
  6
CONTINUOUS
 62
    1
 10
1292.5634
 20
982.2186999999999
 11
1332.5634
 21
942.2186999999999
  0
LINE
  8
_0-0_LAYER001
  6
CONTINUOUS
 62
    1
 10
1306.7055
 20
982.2186999999999
 11
1346.7055
 21
942.2186999999999
  0
LINE
  8
_0-0_LAYER001
  6
CONTINUOUS
 62
    1
 10
1320.8476000000001
 20
982.2186999999999
 11
1360.8476000000001
 21
942.2186999999999
  0
LINE
  8
_0-0_LAYER001
  6
CONTINUOUS
 62
    1
 10
1334.9898000000003
 20
982.2186999999999
 11
1374.9898000000003
 21
942.2186999999999
  0
LINE
  8
_0-0_LAYER001
  6
CONTINUOUS
 62
    1
 10
1349.1319000000001
 20
982.2186999999999
 11
1389.1319000000001
 21
942.2186999999999
  0
LINE
  8
_0-0_LAYER001
  6
CONTINUOUS
 62
    1
 10
1363.2739999999999
 20
982.2186999999999
 11
1403.2739999999999
 21
942.2186999999999
  0
LINE
  8
_0-0_LAYER001
  6
CONTINUOUS
 62
    1
 10
1377.4161999999999
 20
982.2186999999999
 11
1417.4161999999999
 21
942.2186999999999
  0
LINE
  8
_0-0_LAYER001
  6
CONTINUOUS
 62
    1
 10
1391.5582999999997
 20
982.2186999999999
 11
1431.5583000000001
 21
942.2186999999999
  0
LINE
  8
_0-0_LAYER001
  6
CONTINUOUS
 62
    1
 10
1405.7004000000002
 20
982.2186999999999
 11
1445.7004000000002
 21
942.2186999999999
  0
LINE
  8
_0-0_LAYER001
  6
CONTINUOUS
 62
    1
 10
1419.8425999999999
 20
982.2186999999999
 11
1459.8425999999999
 21
942.2186999999999
  0
LINE
  8
_0-0_LAYER001
  6
CONTINUOUS
 62
    1
 10
1433.9847
 20
982.2186999999999
 11
1473.9847
 21
942.2186999999999
  0
LINE
  8
_0-0_LAYER001
  6
CONTINUOUS
 62
    1
 10
1448.1269000000002
 20
982.2186999999999
 11
1488.1269000000002
 21
942.2186999999999
  0
LINE
  8
_0-0_LAYER001
  6
CONTINUOUS
 62
    1
 10
1462.2689999999998
 20
982.2186999999999
 11
1502.2689999999998
 21
942.2186999999999
  0
LINE
  8
_0-0_LAYER001
  6
CONTINUOUS
 62
    1
 10
1476.4110999999998
 20
982.2186999999999
 11
1516.4110999999998
 21
942.2186999999999
  0
LINE
  8
_0-0_LAYER001
  6
CONTINUOUS
 62
    1
 10
1490.5533
 20
982.2186999999999
 11
1530.5533
 21
942.2186999999999
  0
LINE
  8
_0-0_LAYER001
  6
CONTINUOUS
 62
    1
 10
1504.6954000000001
 20
982.2186999999999
 11
1544.6954000000001
 21
942.2186999999999
  0
LINE
  8
_0-0_LAYER001
  6
CONTINUOUS
 62
    1
 10
1518.8375000000001
 20
982.2186999999999
 11
1558.8375000000001
 21
942.2186999999999
  0
LINE
  8
_0-0_LAYER001
  6
CONTINUOUS
 62
    1
 10
1532.9796999999999
 20
982.2186999999999
 11
1572.9796999999999
 21
942.2186999999999
  0
LINE
  8
_0-0_LAYER001
  6
CONTINUOUS
 62
    1
 10
1547.1217999999999
 20
982.2186999999999
 11
1587.1217999999999
 21
942.2186999999999
  0
LINE
  8
_0-0_LAYER001
  6
CONTINUOUS
 62
    1
 10
1561.2638999999999
 20
982.2186999999999
 11
1601.2638999999999
 21
942.2186999999999
  0
LINE
  8
_0-0_LAYER001
  6
CONTINUOUS
 62
    1
 10
1575.4061000000002
 20
982.2186999999999
 11
1615.4061000000002
 21
942.2186999999999
  0
LINE
  8
_0-0_LAYER001
  6
CONTINUOUS
 62
    1
 10
1589.5482000000002
 20
982.2186999999999
 11
1629.5482000000002
 21
942.2186999999999
  0
LINE
  8
_0-0_LAYER001
  6
CONTINUOUS
 62
    1
 10
1603.6903000000002
 20
982.2186999999999
 11
1643.6903000000002
 21
942.2186999999999
  0
LINE
  8
_0-0_LAYER001
  6
CONTINUOUS
 62
    1
 10
1617.8325
 20
982.2186999999999
 11
1657.8325
 21
942.2186999999999
  0
LINE
  8
_0-0_LAYER001
  6
CONTINUOUS
 62
    1
 10
1631.9746
 20
982.2186999999999
 11
1671.9746
 21
942.2186999999999
  0
LINE
  8
_0-0_LAYER001
  6
CONTINUOUS
 62
    1
 10
1646.1167
 20
982.2186999999999
 11
1686.1167
 21
942.2186999999999
  0
LINE
  8
_0-0_LAYER001
  6
CONTINUOUS
 62
    1
 10
1660.2588999999998
 20
982.2186999999999
 11
1700.2588999999998
 21
942.2186999999999
  0
LINE
  8
_0-0_LAYER001
  6
CONTINUOUS
 62
    1
 10
1674.4009999999998
 20
982.2186999999999
 11
1714.4009999999998
 21
942.2186999999999
  0
LINE
  8
_0-0_LAYER001
  6
CONTINUOUS
 62
    1
 10
1688.5432000000001
 20
982.2186999999999
 11
1728.5432000000001
 21
942.2186999999999
  0
LINE
  8
_0-0_LAYER001
  6
CONTINUOUS
 62
    1
 10
1702.6853000000001
 20
982.2186999999999
 11
1742.6853000000001
 21
942.2186999999999
  0
LINE
  8
_0-0_LAYER001
  6
CONTINUOUS
 62
    1
 10
1716.8274000000001
 20
982.2186999999999
 11
1756.8274000000001
 21
942.2186999999999
  0
LINE
  8
_0-0_LAYER001
  6
CONTINUOUS
 62
    1
 10
1730.9695999999999
 20
982.2186999999999
 11
1770.9695999999999
 21
942.2186999999999
  0
LINE
  8
_0-0_LAYER001
  6
CONTINUOUS
 62
    1
 10
1745.1116999999999
 20
982.2186999999999
 11
1785.1116999999999
 21
942.2186999999999
  0
LINE
  8
_0-0_LAYER001
  6
CONTINUOUS
 62
    1
 10
1759.2538
 20
982.2186999999999
 11
1799.2538
 21
942.2186999999999
  0
LINE
  8
_0-0_LAYER001
  6
CONTINUOUS
 62
    1
 10
1773.3960000000002
 20
982.2186999999999
 11
1813.3960000000002
 21
942.2186999999999
  0
LINE
  8
_0-0_LAYER001
  6
CONTINUOUS
 62
    1
 10
1787.5381000000002
 20
982.2186999999999
 11
1827.5381000000002
 21
942.2186999999999
  0
LINE
  8
_0-0_LAYER001
  6
CONTINUOUS
 62
    1
 10
1801.6801999999998
 20
982.2186999999999
 11
1841.6801999999998
 21
942.2186999999999
  0
LINE
  8
_0-0_LAYER001
  6
CONTINUOUS
 62
    1
 10
1815.8224
 20
982.2186999999999
 11
1855.8224
 21
942.2186999999999
  0
LINE
  8
_0-0_LAYER001
  6
CONTINUOUS
 62
    1
 10
1829.9645
 20
982.2186999999999
 11
1869.9645
 21
942.2186999999999
  0
LINE
  8
_0-0_LAYER001
  6
CONTINUOUS
 62
    1
 10
1844.1066000000001
 20
982.2186999999999
 11
1872.3908999999999
 21
953.9344000000001
  0
LINE
  8
_0-0_LAYER001
  6
CONTINUOUS
 62
    1
 10
1858.2487999999998
 20
982.2186999999999
 11
1872.3908999999999
 21
968.0764999999999
  0
LINE
  8
_0-1_LAYER003
  6
CONTINUOUS
 62
    2
 10
2095.7492000000002
 20
982.2186999999999
 11
2043.2492000000002
 21
982.2186999999999
  0
CIRCLE
  8
_0-1_LAYER003
  6
CONTINUOUS
 62
    2
 10
2093.2492000000002
 20
982.2186999999999
 40
1.6999999999999997
  0
LINE
  8
_0-1_LAYER003
  6
CONTINUOUS
 62
    2
 10
2093.2492000000002
 20
982.2186999999999
 11
2093.2492000000002
 21
1232.2186999999999
  0
CIRCLE
  8
_0-1_LAYER003
  6
CONTINUOUS
 62
    2
 10
2093.2492000000002
 20
1232.2186999999999
 40
1.6999999999999997
  0
LINE
  8
_0-1_LAYER003
  6
CONTINUOUS
 62
    2
 10
2095.7492000000002
 20
1232.2186999999999
 11
2043.2492000000002
 21
1232.2186999999999
  0
LINE
  8
_0-1_LAYER003
  6
CONTINUOUS
 62
    2
 10
1752.7415999999998
 20
1121.5818999999999
 11
1754.6826999999998
 21
1114.3375000000001
  0
LINE
  8
_0-1_LAYER003
  6
CONTINUOUS
 62
    2
 10
1754.6826999999998
 20
1114.3375000000001
 11
1749.3793999999998
 21
1119.6407999999999
  0
LINE
  8
_0-1_LAYER003
  6
CONTINUOUS
 62
    2
 10
1754.6826999999998
 20
1114.3375000000001
 11
1704.1417000000001
 21
1201.8770999999999
  0
LINE
  8
_0-1_LAYER003
  6
CONTINUOUS
 62
    2
 10
1704.1417000000001
 20
1201.8770999999999
 11
1590.1417000000001
 21
1201.8770999999999
  0
LINE
  8
_0-0_LAYER001
  6
CONTINUOUS
 62
    2
 10
1872.3908999999999
 20
837.48180000000002
 11
1872.3908999999999
 21
889.98180000000002
  0
CIRCLE
  8
_0-0_LAYER001
  6
CONTINUOUS
 62
    2
 10
1872.3908999999999
 20
839.98180000000002
 40
1.6999999999999997
  0
LINE
  8
_0-0_LAYER001
  6
CONTINUOUS
 62
    2
 10
1872.3908999999999
 20
839.98180000000002
 11
1722.3908999999999
 21
839.98180000000002
  0
CIRCLE
  8
_0-0_LAYER001
  6
CONTINUOUS
 62
    2
 10
1722.3908999999999
 20
839.98180000000002
 40
1.6999999999999997
  0
LINE
  8
_0-0_LAYER001
  6
CONTINUOUS
 62
    2
 10
1722.3908999999999
 20
837.48180000000002
 11
1722.3908999999999
 21
889.98180000000002
  0
LINE
  8
_0-1_LAYER003
  6
CONTINUOUS
 62
    2
 10
1315.4121
 20
1030.8299999999999
 11
1317.3532
 21
1023.5856000000001
  0
LINE
  8
_0-1_LAYER003
  6
CONTINUOUS
 62
    2
 10
1317.3532
 20
1023.5856000000001
 11
1312.0499
 21
1028.8888999999999
  0
LINE
  8
_0-1_LAYER003
  6
CONTINUOUS
 62
    2
 10
1317.3532
 20
1023.5856000000001
 11
1256.3395
 21
1129.2646
  0
LINE
  8
_0-1_LAYER003
  6
CONTINUOUS
 62
    2
 10
1256.3395
 20
1129.2646
 11
1215.8395
 21
1129.2646
  0
LINE
  8
_0-0_LAYER001
  6
CONTINUOUS
 62
    2
 10
1842.4812000000002
 20
1064.0732
 11
1840.54
 21
1071.3177000000001
  0
LINE
  8
_0-0_LAYER001
  6
CONTINUOUS
 62
    2
 10
1840.54
 20
1071.3177000000001
 11
1845.8433
 21
1066.0144
  0
LINE
  8
_0-0_LAYER001
  6
CONTINUOUS
 62
    2
 10
1840.54
 20
1071.3177000000001
 11
1922.4076
 21
929.51890000000003
  0
LINE
  8
_0-0_LAYER001
  6
CONTINUOUS
 62
    2
 10
1922.4076
 20
929.51890000000003
 11
1998.5093000000002
 21
929.51890000000003
  0
LINE
  8
_0-2_LAYER004
  6
CONTINUOUS
 62
    3
 10
859.15570000000002
 20
955.13439999999991
 11
1849.3090000000002
 21
955.13439999999991
  0
CIRCLE
  8
_0-2_LAYER004
  6
CONTINUOUS
 62
    3
 10
864.62899999999991
 20
956.3596
 40
1.3049219999999999
  0
CIRCLE
  8
_0-2_LAYER004
  6
CONTINUOUS
 62
    3
 10
1014.6289999999999
 20
956.3596
 40
1.3049219999999999
  0
CIRCLE
  8
_0-2_LAYER004
  6
CONTINUOUS
 62
    3
 10
1164.6289999999999
 20
956.3596
 40
1.3049219999999999
  0
CIRCLE
  8
_0-2_LAYER004
  6
CONTINUOUS
 62
    3
 10
1314.6289999999999
 20
956.3596
 40
1.3049219999999999
  0
CIRCLE
  8
_0-2_LAYER004
  6
CONTINUOUS
 62
    3
 10
1614.6289999999999
 20
956.3596
 40
1.3049219999999999
  0
CIRCLE
  8
_0-2_LAYER004
  6
CONTINUOUS
 62
    3
 10
1764.6289999999999
 20
956.3596
 40
1.3049219999999999
  0
CIRCLE
  8
_0-2_LAYER004
  6
CONTINUOUS
 62
    3
 10
1464.6289999999999
 20
956.3596
 40
1.3049219999999999
  0
LINE
  8
_0-2_LAYER004
  6
DASHED1
 62
    2
 10
949.40390000000002
 20
959.81349999999998
 11
939.40390000000002
 21
959.81349999999998
  0
LINE
  8
_0-2_LAYER004
  6
DASHED1
 62
    2
 10
970.77389999999991
 20
905.7947999999999
 11
970.77389999999991
 21
895.7947999999999
  0
LINE
  8
_0-2_LAYER004
  6
DASHED1
 62
    2
 10
949.40390000000002
 20
959.81349999999998
 11
949.40390000000002
 21
905.7947999999999
  0
LINE
  8
_0-2_LAYER004
  6
DASHED1
 62
    2
 10
939.40390000000002
 20
959.81349999999998
 11
939.40390000000002
 21
895.7947999999999
  0
LINE
  8
_0-2_LAYER004
  6
DASHED1
 62
    2
 10
949.40390000000002
 20
905.7947999999999
 11
970.77389999999991
 21
905.7947999999999
  0
LINE
  8
_0-2_LAYER004
  6
DASHED1
 62
    2
 10
939.40390000000002
 20
895.7947999999999
 11
970.77389999999991
 21
895.7947999999999
  0
LINE
  8
_0-2_LAYER004
  6
DASHED1
 62
    2
 10
1549.4038999999998
 20
959.81349999999998
 11
1539.4038999999998
 21
959.81349999999998
  0
LINE
  8
_0-2_LAYER004
  6
DASHED1
 62
    2
 10
1570.7739000000001
 20
905.7947999999999
 11
1570.7739000000001
 21
895.7947999999999
  0
LINE
  8
_0-2_LAYER004
  6
DASHED1
 62
    2
 10
1549.4038999999998
 20
959.81349999999998
 11
1549.4038999999998
 21
905.7947999999999
  0
LINE
  8
_0-2_LAYER004
  6
DASHED1
 62
    2
 10
1539.4038999999998
 20
959.81349999999998
 11
1539.4038999999998
 21
895.7947999999999
  0
LINE
  8
_0-2_LAYER004
  6
DASHED1
 62
    2
 10
1549.4038999999998
 20
905.7947999999999
 11
1570.7739000000001
 21
905.7947999999999
  0
LINE
  8
_0-2_LAYER004
  6
DASHED1
 62
    2
 10
1539.4038999999998
 20
895.7947999999999
 11
1570.7739000000001
 21
895.7947999999999
  0
LINE
  8
_0-2_LAYER004
  6
CONTINUOUS
 62
    2
 10
952.77070000000003
 20
893.80739999999992
 11
950.82950000000005
 21
901.05179999999996
  0
LINE
  8
_0-2_LAYER004
  6
CONTINUOUS
 62
    2
 10
950.82950000000005
 20
901.05179999999996
 11
956.13280000000009
 21
895.74849999999992
  0
LINE
  8
_0-2_LAYER004
  6
CONTINUOUS
 62
    2
 10
950.82950000000005
 20
901.05179999999996
 11
975.45779999999991
 21
858.39439999999991
  0
LINE
  8
_0-2_LAYER004
  6
CONTINUOUS
 62
    2
 10
975.45779999999991
 20
858.39439999999991
 11
1035.4577999999999
 21
858.39439999999991
  0
LINE
  8
_0-2_LAYER004
  6
CONTINUOUS
 62
    2
 10
1199.3579999999999
 20
947.60879999999997
 11
1197.4168999999999
 21
954.85320000000002
  0
LINE
  8
_0-2_LAYER004
  6
CONTINUOUS
 62
    2
 10
1197.4168999999999
 20
954.85320000000002
 11
1202.7202
 21
949.54989999999998
  0
LINE
  8
_0-2_LAYER004
  6
CONTINUOUS
 62
    2
 10
1197.4168999999999
 20
954.85320000000002
 11
1234.8795
 21
889.9661000000001
  0
LINE
  8
_0-2_LAYER004
  6
CONTINUOUS
 62
    2
 10
1234.8795
 20
889.9661000000001
 11
1294.8795
 21
889.9661000000001
  0
LINE
  8
_0-0_LAYER001
  6
CONTINUOUS
 62
    2
 10
1155.8055999999999
 20
683.09850000000006
 11
1360.6283000000003
 21
683.09850000000006
  0
LINE
  8
_0-0_LAYER001
  6
CONTINUOUS
 62
    2
 10
1072.6110000000001
 20
984.42740000000003
 11
1072.6110000000001
 21
991.92740000000003
  0
LINE
  8
_0-0_LAYER001
  6
CONTINUOUS
 62
    2
 10
1072.6110000000001
 20
991.92740000000003
 11
1076.3610000000001
 21
985.43219999999997
  0
LINE
  8
_0-0_LAYER001
  6
CONTINUOUS
 62
    2
 10
1855.9267
 20
1180.0255
 11
1872.3908999999999
 21
1180.0255
  0
LINE
  8
_0-0_LAYER001
  6
CONTINUOUS
 62
    2
 10
1920.3908999999999
 20
1160.0255
 11
1915.3908999999999
 21
1163.0254
  0
LINE
  8
_0-0_LAYER001
  6
CONTINUOUS
 62
    2
 10
1915.3908999999999
 20
1157.0255
 11
1920.3908999999999
 21
1160.0255
  0
LINE
  8
_0-0_LAYER001
  6
CONTINUOUS
 62
    2
 10
1914.3159000000001
 20
1157.0255
 11
1917.1649000000002
 21
1161.9616000000001
  0
LINE
  8
_0-0_LAYER001
  6
CONTINUOUS
 62
    2
 10
1848.3908000000001
 20
1157.0255
 11
1848.3908000000001
 21
1163.0254
  0
LINE
  8
_0-0_LAYER001
  6
CONTINUOUS
 62
    2
 10
1842.3908999999999
 20
1154.0254
 11
1842.3908999999999
 21
1166.0255
  0
LINE
  8
_0-0_LAYER001
  6
CONTINUOUS
 62
    2
 10
1851.2777999999998
 20
1157.0255
 11
1854.7408999999998
 21
1163.0254
  0
LINE
  8
_0-0_LAYER001
  6
CONTINUOUS
 62
    2
 10
1842.3908999999999
 20
1154.0254
 11
1848.3908000000001
 21
1157.0255
  0
LINE
  8
_0-0_LAYER001
  6
CONTINUOUS
 62
    2
 10
1848.3908000000001
 20
1163.0254
 11
1842.3908999999999
 21
1166.0255
  0
LINE
  8
_0-0_LAYER001
  6
CONTINUOUS
 62
    2
 10
1915.3908999999999
 20
1163.0254
 11
1905.3757999999998
 21
1163.0254
  0
LINE
  8
_0-0_LAYER001
  6
CONTINUOUS
 62
    2
 10
1896.7239
 20
1158.5526
 11
1898.6179000000002
 21
1161.8335
  0
LINE
  8
_0-0_LAYER001
  6
CONTINUOUS
 62
    2
 10
1905.1079
 20
1157.0744999999999
 11
1908.5428999999999
 21
1163.0254
  0
LINE
  8
_0-0_LAYER001
  6
CONTINUOUS
 62
    2
 10
1915.3908999999999
 20
1157.0255
 11
1905.384
 21
1157.0255
  0
LINE
  8
_0-0_LAYER001
  6
CONTINUOUS
 62
    2
 10
1913.2399
 20
1166.7484999999999
 11
1913.6399000000001
 21
1164.4825000000001
  0
LINE
  8
_0-0_LAYER001
  6
CONTINUOUS
 62
    2
 10
1913.0668999999998
 20
1153.3356000000001
 11
1913.4648000000002
 21
1155.6005
  0
LINE
  8
_0-0_LAYER001
  6
CONTINUOUS
 62
    2
 10
1908.6468
 20
1165.7345
 11
1910.3209000000002
 21
1166.0295000000001
  0
LINE
  8
_0-0_LAYER001
  6
CONTINUOUS
 62
    2
 10
1904.3139000000001
 20
1164.9704999999999
 11
1905.9868000000001
 21
1165.2655
  0
LINE
  8
_0-0_LAYER001
  6
CONTINUOUS
 62
    2
 10
1899.9807999999998
 20
1164.2065
 11
1901.6538
 21
1164.5015000000001
  0
LINE
  8
_0-0_LAYER001
  6
CONTINUOUS
 62
    2
 10
1899.6848
 20
1165.8795
 11
1890.5907999999999
 21
1164.2765999999999
  0
LINE
  8
_0-0_LAYER001
  6
CONTINUOUS
 62
    2
 10
1904.0178000000001
 20
1166.6434999999999
 11
1901.3588
 21
1166.1745000000001
  0
LINE
  8
_0-0_LAYER001
  6
CONTINUOUS
 62
    2
 10
1908.3508000000002
 20
1167.4076
 11
1905.6918999999998
 21
1166.9386
  0
LINE
  8
_0-0_LAYER001
  6
CONTINUOUS
 62
    2
 10
1911.5028000000002
 20
1167.9635000000001
 11
1910.0248999999999
 21
1167.7023999999999
  0
LINE
  8
_0-0_LAYER001
  6
CONTINUOUS
 62
    2
 10
1910.3209000000002
 20
1166.0295000000001
 11
1910.0248999999999
 21
1167.7035000000001
  0
LINE
  8
_0-0_LAYER001
  6
CONTINUOUS
 62
    2
 10
1908.6468
 20
1165.7345
 11
1908.3508000000002
 21
1167.4086
  0
LINE
  8
_0-0_LAYER001
  6
CONTINUOUS
 62
    2
 10
1905.9879000000001
 20
1165.2655
 11
1905.6918999999998
 21
1166.9395999999999
  0
LINE
  8
_0-0_LAYER001
  6
CONTINUOUS
 62
    2
 10
1904.3139000000001
 20
1164.9704999999999
 11
1904.0178000000001
 21
1166.6445000000001
  0
LINE
  8
_0-0_LAYER001
  6
CONTINUOUS
 62
    2
 10
1901.6549
 20
1164.5015000000001
 11
1901.3588
 21
1166.1754000000001
  0
LINE
  8
_0-0_LAYER001
  6
CONTINUOUS
 62
    2
 10
1899.9807999999998
 20
1164.2065
 11
1899.6848
 21
1165.8805
  0
LINE
  8
_0-0_LAYER001
  6
CONTINUOUS
 62
    2
 10
1908.4719
 20
1154.3484000000001
 11
1910.1459
 21
1154.0535
  0
LINE
  8
_0-0_LAYER001
  6
CONTINUOUS
 62
    2
 10
1904.1388999999999
 20
1155.1125
 11
1905.8128999999999
 21
1154.8175000000001
  0
LINE
  8
_0-0_LAYER001
  6
CONTINUOUS
 62
    2
 10
1899.8058999999998
 20
1155.8765000000001
 11
1901.4798000000001
 21
1155.5814
  0
LINE
  8
_0-0_LAYER001
  6
CONTINUOUS
 62
    2
 10
1899.8069
 20
1155.8765000000001
 11
1899.5108
 21
1154.2036000000001
  0
LINE
  8
_0-0_LAYER001
  6
CONTINUOUS
 62
    2
 10
1901.4807999999998
 20
1155.5814
 11
1901.1848
 21
1153.9085
  0
LINE
  8
_0-0_LAYER001
  6
CONTINUOUS
 62
    2
 10
1904.1399000000001
 20
1155.1125
 11
1903.8438999999998
 21
1153.4395
  0
LINE
  8
_0-0_LAYER001
  6
CONTINUOUS
 62
    2
 10
1905.8139000000001
 20
1154.8175000000001
 11
1905.5178000000001
 21
1153.1445000000001
  0
LINE
  8
_0-0_LAYER001
  6
CONTINUOUS
 62
    2
 10
1908.4728
 20
1154.3484000000001
 11
1908.1768999999999
 21
1152.6755000000001
  0
LINE
  8
_0-0_LAYER001
  6
CONTINUOUS
 62
    2
 10
1910.1469000000002
 20
1154.0535
 11
1909.8508000000002
 21
1152.3806
  0
LINE
  8
_0-0_LAYER001
  6
CONTINUOUS
 62
    2
 10
1899.5108
 20
1154.2036000000001
 11
1890.5907999999999
 21
1155.7755
  0
LINE
  8
_0-0_LAYER001
  6
CONTINUOUS
 62
    2
 10
1903.8438999999998
 20
1153.4395
 11
1901.1848
 21
1153.9085
  0
LINE
  8
_0-0_LAYER001
  6
CONTINUOUS
 62
    2
 10
1908.1768999999999
 20
1152.6755000000001
 11
1905.5178000000001
 21
1153.1445000000001
  0
LINE
  8
_0-0_LAYER001
  6
CONTINUOUS
 62
    2
 10
1911.328
 20
1152.1195
 11
1909.8508000000002
 21
1152.3795
  0
LINE
  8
_0-0_LAYER001
  6
CONTINUOUS
 62
    2
 10
1888.3669
 20
1160.0265999999999
 11
1913.6399000000001
 21
1164.4825000000001
  0
LINE
  8
_0-0_LAYER001
  6
CONTINUOUS
 62
    2
 10
1888.3669
 20
1160.0265999999999
 11
1913.4648000000002
 21
1155.6005
  0
LINE
  8
_0-0_LAYER001
  6
CONTINUOUS
 62
    2
 10
1872.3908999999999
 20
1164.2755
 11
1890.5907999999999
 21
1164.2755
  0
LINE
  8
_0-0_LAYER001
  6
CONTINUOUS
 62
    2
 10
1872.3908999999999
 20
1155.7755
 11
1890.5907999999999
 21
1155.7755
  0
LINE
  8
_0-0_LAYER001
  6
CONTINUOUS
 62
    2
 10
1872.3908999999999
 20
1155.7755
 11
1872.3908999999999
 21
1164.2755
  0
LINE
  8
_0-0_LAYER001
  6
CONTINUOUS
 62
    2
 10
1842.3908999999999
 20
1140.0255
 11
1872.3908999999999
 21
1140.0255
  0
LINE
  8
_0-0_LAYER001
  6
CONTINUOUS
 62
    2
 10
1872.3908999999999
 20
1163.0254
 11
1848.3908000000001
 21
1163.0254
  0
LINE
  8
_0-0_LAYER001
  6
CONTINUOUS
 62
    2
 10
1872.3908999999999
 20
1157.0255
 11
1848.3908000000001
 21
1157.0255
  0
LINE
  8
_0-0_LAYER001
  6
CONTINUOUS
 62
    2
 10
1857.0010000000002
 20
1157.0255
 11
1860.4641000000001
 21
1163.0254
  0
LINE
  8
_0-0_LAYER001
  6
CONTINUOUS
 62
    2
 10
1862.7240999999999
 20
1157.0255
 11
1866.1871999999998
 21
1163.0254
  0
LINE
  8
_0-0_LAYER001
  6
CONTINUOUS
 62
    2
 10
1868.4472999999998
 20
1157.0255
 11
1871.9103
 21
1163.0254
  0
LINE
  8
_0-0_LAYER001
  6
CONTINUOUS
 62
    2
 10
1842.3908999999999
 20
1140.0255
 11
1842.3908999999999
 21
1177.5462
  0
LINE
  8
_0-0_LAYER001
  6
CONTINUOUS
 62
    2
 10
1872.3908999999999
 20
1140.0255
 11
1845.8948999999998
 21
1175.3534999999999
  0
ARC
  8
_0-0_LAYER001
  6
CONTINUOUS
 62
    2
 10
1911.7548999999999
 20
1166.4815000000001
 40
1.5049999999999999
 50
10.451269999999999
 51
99.637527999999989
  0
ARC
  8
_0-0_LAYER001
  6
CONTINUOUS
 62
    2
 10
1911.5868999999998
 20
1153.5985000000001
 40
1.4969999999999999
 50
259.83899000000008
 51
350.14733000000001
  0
LINE
  8
_0-0_LAYER001
  6
CONTINUOUS
 62
    2
 10
1839.9009000000001
 20
1189.8200999999999
 11
1847.9715999999999
 21
1193.5827999999999
  0
LINE
  8
_0-0_LAYER001
  6
CONTINUOUS
 62
    2
 10
1854.3406
 20
1164.9991
 11
1859.7968999999998
 21
1157.9313
  0
LINE
  8
_0-0_LAYER001
  6
CONTINUOUS
 62
    2
 10
1846.2891
 20
1191.0382
 11
1857.6997999999999
 21
1166.5654
  0
LINE
  8
_0-0_LAYER001
  6
CONTINUOUS
 62
    2
 10
1859.7968999999998
 20
1157.9313
 11
1857.6997999999999
 21
1166.5654
  0
LINE
  8
_0-0_LAYER001
  6
CONTINUOUS
 62
    2
 10
1842.9297000000001
 20
1189.4734000000001
 11
1839.9009000000001
 21
1189.8200999999999
  0
LINE
  8
_0-0_LAYER001
  6
CONTINUOUS
 62
    2
 10
1846.2891
 20
1191.0382
 11
1847.9715999999999
 21
1193.5827999999999
  0
LINE
  8
_0-0_LAYER001
  6
CONTINUOUS
 62
    2
 10
1842.9297000000001
 20
1189.4734000000001
 11
1854.3406
 21
1164.9991
  0
LINE
  8
_0-2_LAYER004
  6
CONTINUOUS
 62
    2
 10
1756.3879000000002
 20
1160.8986
 11
1760.6819999999998
 21
1167.2691
  0
LINE
  8
_0-2_LAYER004
  6
CONTINUOUS
 62
    2
 10
1774.3699000000001
 20
1164.9793999999999
 11
1771.6669000000002
 21
1179.7334000000001
  0
LINE
  8
_0-2_LAYER004
  6
CONTINUOUS
 62
    2
 10
1862.8969000000002
 20
1181.1944000000001
 11
1774.3699000000001
 21
1164.9793999999999
  0
LINE
  8
_0-2_LAYER004
  6
CONTINUOUS
 62
    2
 10
1771.6669000000002
 20
1179.7334000000001
 11
1862.8969000000002
 21
1181.1944000000001
  0
LINE
  8
_0-2_LAYER004
  6
CONTINUOUS
 62
    2
 10
1756.9358999999999
 20
1178.9775999999999
 11
1756.3879000000002
 21
1160.8986
  0
LINE
  8
_0-2_LAYER004
  6
CONTINUOUS
 62
    2
 10
1756.9358999999999
 20
1178.9775999999999
 11
1846.9358999999999
 21
1195.4623999999999
  0
LINE
  8
_0-2_LAYER004
  6
CONTINUOUS
 62
    2
 10
1860.1949
 20
1195.9494
 11
1862.8969000000002
 21
1181.1944000000001
  0
LINE
  8
_0-2_LAYER004
  6
CONTINUOUS
 62
    2
 10
1771.6669000000002
 20
1179.7334000000001
 11
1860.1949
 21
1195.9494
  0
ARC
  8
_0-0_LAYER001
  6
CONTINUOUS
 62
    2
 10
1830.1169
 20
1304.095
 40
20.694040000000001
 50
335.49168000000003
 51
33.319545000000062
  0
LINE
  8
_0-0_LAYER001
  6
CONTINUOUS
 62
    2
 10
1862.4189000000001
 20
1315.4623999999999
 11
1862.4189000000001
 21
1295.4623999999999
  0
LINE
  8
_0-2_LAYER004
  6
CONTINUOUS
 62
    2
 10
1867.8809000000001
 20
1315.4623999999999
 11
1862.4189000000001
 21
1295.4623999999999
  0
LINE
  8
_0-2_LAYER004
  6
CONTINUOUS
 62
    2
 10
1867.8809000000001
 20
1295.4623999999999
 11
1862.4189000000001
 21
1315.4623999999999
  0
LINE
  8
_0-2_LAYER004
  6
CONTINUOUS
 62
    2
 10
1869.9427999999998
 20
1295.5639999999999
 11
1869.9427999999998
 21
1312.5068000000001
  0
LINE
  8
_0-3_LAYER005
  6
CONTINUOUS
 62
    2
 10
1846.9358999999999
 20
1295.4623999999999
 11
1871.9358999999999
 21
1295.4623999999999
  0
LINE
  8
_0-3_LAYER005
  6
CONTINUOUS
 62
    2
 10
1867.8809000000001
 20
1295.4623999999999
 11
1867.8809000000001
 21
1315.4623999999999
  0
LINE
  8
_0-3_LAYER005
  6
CONTINUOUS
 62
    2
 10
1856.1109000000001
 20
1295.4623999999999
 11
1862.4189000000001
 21
1301.7704000000001
  0
LINE
  8
_0-3_LAYER005
  6
CONTINUOUS
 62
    2
 10
1851.8679000000002
 20
1295.4623999999999
 11
1862.4189000000001
 21
1306.0133999999998
  0
LINE
  8
_0-3_LAYER005
  6
CONTINUOUS
 62
    2
 10
1849.7665999999999
 20
1297.6043
 11
1862.4189000000001
 21
1310.2556999999999
  0
LINE
  8
_0-3_LAYER005
  6
CONTINUOUS
 62
    2
 10
1850.7736
 20
1302.8531
 11
1862.4189000000001
 21
1314.4983999999999
  0
LINE
  8
_0-3_LAYER005
  6
CONTINUOUS
 62
    2
 10
1850.6149
 20
1306.9362000000001
 11
1859.1397999999999
 21
1315.4623999999999
  0
LINE
  8
_0-3_LAYER005
  6
CONTINUOUS
 62
    2
 10
1849.8294999999998
 20
1310.3922
 11
1854.8962999999999
 21
1315.4623999999999
  0
LINE
  8
_0-0_LAYER001
  6
CONTINUOUS
 62
    4
 10
1724.0826999999999
 20
1081.0972999999999
 11
1724.0826999999999
 21
1063.3813
  0
ARC
  8
_0-0_LAYER001
  6
CONTINUOUS
 62
    4
 10
1899.2386999999999
 20
1222.1393
 40
171.72701000000001
 50
228.22927000000001
 51
257.34244999999999
  0
LINE
  8
_0-0_LAYER001
  6
CONTINUOUS
 62
    4
 10
1727.8063000000002
 20
1066.0823
 11
1763.9964
 21
1082.2385999999999
  0
LINE
  8
_0-0_LAYER001
  6
CONTINUOUS
 62
    4
 10
1727.8063000000002
 20
1066.0823
 11
1727.8063000000002
 21
1064.4691
  0
LINE
  8
_0-0_LAYER001
  6
CONTINUOUS
 62
    4
 10
1724.0826999999999
 20
1063.3813
 11
1727.7982000000002
 21
1064.4958999999999
  0
ARC
  8
_0-0_LAYER001
  6
CONTINUOUS
 62
    4
 10
1769.6732000000002
 20
1065.7402
 40
17.566393000000001
 50
69.918021999999993
 51
110.08197
  0
ARC
  8
_0-0_LAYER001
  6
CONTINUOUS
 62
    4
 10
1905.4802
 20
1235.6611
 40
200.99046999999999
 50
229.91572000000002
 51
257.44371999999998
  0
LINE
  8
_0-0_LAYER001
  6
CONTINUOUS
 62
    4
 10
1724.0826999999999
 20
1081.0972999999999
 11
1758.3195000000001
 21
1096.0759
  0
ARC
  8
_0-0_LAYER001
  6
CONTINUOUS
 62
    4
 10
1769.9328999999998
 20
1073.5968
 40
25.304210000000001
 50
53.942641000000009
 51
117.01753000000001
  0
LINE
  8
_0-0_LAYER001
  6
CONTINUOUS
 62
    3
 10
1827.5949000000001
 20
1130.4358999999999
 11
1827.5722999999998
 21
1129.9707000000001
  0
LINE
  8
_0-0_LAYER001
  6
CONTINUOUS
 62
    3
 10
1827.5722999999998
 20
1129.9707000000001
 11
1827.5108
 21
1128.7079000000001
  0
LINE
  8
_0-0_LAYER001
  6
CONTINUOUS
 62
    3
 10
1827.5108
 20
1128.7079000000001
 11
1827.4202
 21
1126.847
  0
LINE
  8
_0-0_LAYER001
  6
CONTINUOUS
 62
    3
 10
1827.4202
 20
1126.847
 11
1827.3101999999999
 21
1124.5872999999999
  0
LINE
  8
_0-0_LAYER001
  6
CONTINUOUS
 62
    3
 10
1827.3101999999999
 20
1124.5872999999999
 11
1827.1905000000002
 21
1122.1283000000001
  0
LINE
  8
_0-0_LAYER001
  6
CONTINUOUS
 62
    3
 10
1827.1905000000002
 20
1122.1283000000001
 11
1827.0708
 21
1119.6692
  0
LINE
  8
_0-0_LAYER001
  6
CONTINUOUS
 62
    3
 10
1827.0708
 20
1119.6692
 11
1826.9607999999998
 21
1117.4095
  0
LINE
  8
_0-0_LAYER001
  6
CONTINUOUS
 62
    3
 10
1826.9607999999998
 20
1117.4095
 11
1826.8701999999998
 21
1115.5486000000001
  0
LINE
  8
_0-0_LAYER001
  6
CONTINUOUS
 62
    3
 10
1826.8701999999998
 20
1115.5486000000001
 11
1826.8087
 21
1114.2859000000001
  0
LINE
  8
_0-0_LAYER001
  6
CONTINUOUS
 62
    3
 10
1826.8087
 20
1114.2859000000001
 11
1826.7860000000001
 21
1113.8206
  0
LINE
  8
_0-0_LAYER001
  6
CONTINUOUS
 62
    3
 10
1826.7860000000001
 20
1113.8206
 11
1825.6408999999999
 21
1113.8963000000001
  0
LINE
  8
_0-0_LAYER001
  6
CONTINUOUS
 62
    3
 10
1825.6408999999999
 20
1113.8963000000001
 11
1822.2656000000002
 21
1113.9648999999999
  0
LINE
  8
_0-0_LAYER001
  6
CONTINUOUS
 62
    3
 10
1822.2656000000002
 20
1113.9648999999999
 11
1816.7505999999998
 21
1113.789
  0
LINE
  8
_0-0_LAYER001
  6
CONTINUOUS
 62
    3
 10
1816.7505999999998
 20
1113.789
 11
1809.1860999999999
 21
1113.1309000000001
  0
LINE
  8
_0-0_LAYER001
  6
CONTINUOUS
 62
    3
 10
1809.1860999999999
 20
1113.1309000000001
 11
1799.6624999999999
 21
1111.7529999999999
  0
LINE
  8
_0-0_LAYER001
  6
CONTINUOUS
 62
    3
 10
1799.6624999999999
 20
1111.7529999999999
 11
1788.27
 21
1109.4178999999999
  0
LINE
  8
_0-0_LAYER001
  6
CONTINUOUS
 62
    3
 10
1788.27
 20
1109.4178999999999
 11
1775.0990999999999
 21
1105.8878999999999
  0
LINE
  8
_0-0_LAYER001
  6
CONTINUOUS
 62
    3
 10
1775.0990999999999
 20
1105.8878999999999
 11
1760.2399999999998
 21
1100.9255000000001
  0
LINE
  8
_0-0_LAYER001
  6
CONTINUOUS
 62
    3
 10
1760.2399999999998
 20
1100.9255000000001
 11
1743.7829999999999
 21
1094.2932000000001
  0
LINE
  8
_0-0_LAYER001
  6
CONTINUOUS
 62
    3
 10
1743.7829999999999
 20
1094.2932000000001
 11
1725.8184999999999
 21
1085.7533000000001
  0
LINE
  8
_0-0_LAYER001
  6
CONTINUOUS
 62
    3
 10
1725.8184999999999
 20
1085.7533000000001
 11
1725.8553999999999
 21
1086.5103999999999
  0
LINE
  8
_0-0_LAYER001
  6
CONTINUOUS
 62
    3
 10
1725.8553999999999
 20
1086.5103999999999
 11
1725.9553999999998
 21
1088.5654999999999
  0
LINE
  8
_0-0_LAYER001
  6
CONTINUOUS
 62
    3
 10
1725.9553999999998
 20
1088.5654999999999
 11
1726.1028000000001
 21
1091.5941
  0
LINE
  8
_0-0_LAYER001
  6
CONTINUOUS
 62
    3
 10
1726.1028000000001
 20
1091.5941
 11
1726.2819
 21
1095.2717
  0
LINE
  8
_0-0_LAYER001
  6
CONTINUOUS
 62
    3
 10
1726.2819
 20
1095.2717
 11
1726.4767000000002
 21
1099.2737
  0
LINE
  8
_0-0_LAYER001
  6
CONTINUOUS
 62
    3
 10
1726.4767000000002
 20
1099.2737
 11
1726.6714999999999
 21
1103.2757999999999
  0
LINE
  8
_0-0_LAYER001
  6
CONTINUOUS
 62
    3
 10
1726.6714999999999
 20
1103.2757999999999
 11
1726.8506000000002
 21
1106.9532999999999
  0
LINE
  8
_0-0_LAYER001
  6
CONTINUOUS
 62
    3
 10
1726.8506000000002
 20
1106.9532999999999
 11
1726.998
 21
1109.9819
  0
LINE
  8
_0-0_LAYER001
  6
CONTINUOUS
 62
    3
 10
1726.998
 20
1109.9819
 11
1727.0981000000002
 21
1112.037
  0
LINE
  8
_0-0_LAYER001
  6
CONTINUOUS
 62
    3
 10
1727.0981000000002
 20
1112.037
 11
1727.1349
 21
1112.7942
  0
LINE
  8
_0-0_LAYER001
  6
CONTINUOUS
 62
    3
 10
1727.1349
 20
1112.7942
 11
1728.8285000000001
 21
1113.2986000000001
  0
LINE
  8
_0-0_LAYER001
  6
CONTINUOUS
 62
    3
 10
1728.8285000000001
 20
1113.2986000000001
 11
1733.6030999999998
 21
1114.6659
  0
LINE
  8
_0-0_LAYER001
  6
CONTINUOUS
 62
    3
 10
1733.6030999999998
 20
1114.6659
 11
1740.9994000000002
 21
1116.6777
  0
LINE
  8
_0-0_LAYER001
  6
CONTINUOUS
 62
    3
 10
1740.9994000000002
 20
1116.6777
 11
1750.558
 21
1119.1151
  0
LINE
  8
_0-0_LAYER001
  6
CONTINUOUS
 62
    3
 10
1750.558
 20
1119.1151
 11
1761.8195000000001
 21
1121.7596000000001
  0
LINE
  8
_0-0_LAYER001
  6
CONTINUOUS
 62
    3
 10
1761.8195000000001
 20
1121.7596000000001
 11
1774.3247000000001
 21
1124.3925999999999
  0
LINE
  8
_0-0_LAYER001
  6
CONTINUOUS
 62
    3
 10
1774.3247000000001
 20
1124.3925999999999
 11
1787.6140999999998
 21
1126.7953
  0
LINE
  8
_0-0_LAYER001
  6
CONTINUOUS
 62
    3
 10
1787.6140999999998
 20
1126.7953
 11
1801.2285999999999
 21
1128.7492
  0
LINE
  8
_0-0_LAYER001
  6
CONTINUOUS
 62
    3
 10
1801.2285999999999
 20
1128.7492
 11
1814.7085999999999
 21
1130.0356999999999
  0
LINE
  8
_0-0_LAYER001
  6
CONTINUOUS
 62
    3
 10
1827.5949000000001
 20
1130.4358999999999
 11
1814.5956000000001
 21
1130.0248999999999
  0
LINE
  8
_0-0_LAYER001
  6
CONTINUOUS
 62
    3
 10
1838.6959000000002
 20
1162.4721
 11
1838.6732999999999
 21
1162.0069000000001
  0
LINE
  8
_0-0_LAYER001
  6
CONTINUOUS
 62
    3
 10
1838.6732999999999
 20
1162.0069000000001
 11
1838.6118000000001
 21
1160.7440999999999
  0
LINE
  8
_0-0_LAYER001
  6
CONTINUOUS
 62
    3
 10
1838.6118000000001
 20
1160.7440999999999
 11
1838.5212000000001
 21
1158.8832
  0
LINE
  8
_0-0_LAYER001
  6
CONTINUOUS
 62
    3
 10
1838.5212000000001
 20
1158.8832
 11
1838.4112
 21
1156.6234999999999
  0
LINE
  8
_0-0_LAYER001
  6
CONTINUOUS
 62
    3
 10
1838.4112
 20
1156.6234999999999
 11
1838.2914999999998
 21
1154.1645000000001
  0
LINE
  8
_0-0_LAYER001
  6
CONTINUOUS
 62
    3
 10
1838.2914999999998
 20
1154.1645000000001
 11
1838.1718000000001
 21
1151.7054000000001
  0
LINE
  8
_0-0_LAYER001
  6
CONTINUOUS
 62
    3
 10
1838.1718000000001
 20
1151.7054000000001
 11
1838.0617999999999
 21
1149.4457
  0
LINE
  8
_0-0_LAYER001
  6
CONTINUOUS
 62
    3
 10
1838.0617999999999
 20
1149.4457
 11
1837.9712
 21
1147.5848000000001
  0
LINE
  8
_0-0_LAYER001
  6
CONTINUOUS
 62
    3
 10
1837.9712
 20
1147.5848000000001
 11
1837.9097000000002
 21
1146.3219999999999
  0
LINE
  8
_0-0_LAYER001
  6
CONTINUOUS
 62
    3
 10
1837.9097000000002
 20
1146.3219999999999
 11
1837.8870000000002
 21
1145.8568
  0
LINE
  8
_0-0_LAYER001
  6
CONTINUOUS
 62
    3
 10
1837.8870000000002
 20
1145.8568
 11
1836.7419
 21
1145.9324999999999
  0
LINE
  8
_0-0_LAYER001
  6
CONTINUOUS
 62
    3
 10
1836.7419
 20
1145.9324999999999
 11
1833.3665999999998
 21
1146.0011
  0
LINE
  8
_0-0_LAYER001
  6
CONTINUOUS
 62
    3
 10
1833.3665999999998
 20
1146.0011
 11
1827.8516
 21
1145.8252
  0
LINE
  8
_0-0_LAYER001
  6
CONTINUOUS
 62
    3
 10
1827.8516
 20
1145.8252
 11
1820.2871
 21
1145.1670999999999
  0
LINE
  8
_0-0_LAYER001
  6
CONTINUOUS
 62
    3
 10
1820.2871
 20
1145.1670999999999
 11
1810.7635
 21
1143.7891999999999
  0
LINE
  8
_0-0_LAYER001
  6
CONTINUOUS
 62
    3
 10
1810.7635
 20
1143.7891999999999
 11
1799.3710000000001
 21
1141.4540999999999
  0
LINE
  8
_0-0_LAYER001
  6
CONTINUOUS
 62
    3
 10
1799.3710000000001
 20
1141.4540999999999
 11
1786.2001
 21
1137.9241
  0
LINE
  8
_0-0_LAYER001
  6
CONTINUOUS
 62
    3
 10
1786.2001
 20
1137.9241
 11
1771.3409999999999
 21
1132.9617000000001
  0
LINE
  8
_0-0_LAYER001
  6
CONTINUOUS
 62
    3
 10
1771.3409999999999
 20
1132.9617000000001
 11
1754.884
 21
1126.3294000000001
  0
LINE
  8
_0-0_LAYER001
  6
CONTINUOUS
 62
    3
 10
1754.884
 20
1126.3294000000001
 11
1736.9195
 21
1117.7895000000001
  0
LINE
  8
_0-0_LAYER001
  6
CONTINUOUS
 62
    3
 10
1736.9195
 20
1117.7895000000001
 11
1736.9564
 21
1118.5465999999999
  0
LINE
  8
_0-0_LAYER001
  6
CONTINUOUS
 62
    3
 10
1736.9564
 20
1118.5465999999999
 11
1737.0563999999999
 21
1120.6016999999999
  0
LINE
  8
_0-0_LAYER001
  6
CONTINUOUS
 62
    3
 10
1737.0563999999999
 20
1120.6016999999999
 11
1737.2037999999998
 21
1123.6303
  0
LINE
  8
_0-0_LAYER001
  6
CONTINUOUS
 62
    3
 10
1737.2037999999998
 20
1123.6303
 11
1737.3829000000001
 21
1127.3079
  0
LINE
  8
_0-0_LAYER001
  6
CONTINUOUS
 62
    3
 10
1737.3829000000001
 20
1127.3079
 11
1737.5776999999998
 21
1131.3099
  0
LINE
  8
_0-0_LAYER001
  6
CONTINUOUS
 62
    3
 10
1737.5776999999998
 20
1131.3099
 11
1737.7725
 21
1135.3119999999999
  0
LINE
  8
_0-0_LAYER001
  6
CONTINUOUS
 62
    3
 10
1737.7725
 20
1135.3119999999999
 11
1737.9515999999999
 21
1138.9894999999999
  0
LINE
  8
_0-0_LAYER001
  6
CONTINUOUS
 62
    3
 10
1737.9515999999999
 20
1138.9894999999999
 11
1738.0990000000002
 21
1142.0181
  0
LINE
  8
_0-0_LAYER001
  6
CONTINUOUS
 62
    3
 10
1738.0990000000002
 20
1142.0181
 11
1738.1990999999998
 21
1144.0732
  0
LINE
  8
_0-0_LAYER001
  6
CONTINUOUS
 62
    3
 10
1738.1990999999998
 20
1144.0732
 11
1738.2359000000001
 21
1144.8304000000001
  0
LINE
  8
_0-0_LAYER001
  6
CONTINUOUS
 62
    3
 10
1738.2359000000001
 20
1144.8304000000001
 11
1739.9295000000002
 21
1145.3347000000001
  0
LINE
  8
_0-0_LAYER001
  6
CONTINUOUS
 62
    3
 10
1739.9295000000002
 20
1145.3347000000001
 11
1744.7040999999999
 21
1146.7021
  0
LINE
  8
_0-0_LAYER001
  6
CONTINUOUS
 62
    3
 10
1744.7040999999999
 20
1146.7021
 11
1752.1003999999998
 21
1148.7139
  0
LINE
  8
_0-0_LAYER001
  6
CONTINUOUS
 62
    3
 10
1752.1003999999998
 20
1148.7139
 11
1761.6590000000001
 21
1151.1513
  0
LINE
  8
_0-0_LAYER001
  6
CONTINUOUS
 62
    3
 10
1761.6590000000001
 20
1151.1513
 11
1772.9205000000002
 21
1153.7958000000001
  0
LINE
  8
_0-0_LAYER001
  6
CONTINUOUS
 62
    3
 10
1772.9205000000002
 20
1153.7958000000001
 11
1785.4256999999998
 21
1156.4287999999999
  0
LINE
  8
_0-0_LAYER001
  6
CONTINUOUS
 62
    3
 10
1785.4256999999998
 20
1156.4287999999999
 11
1798.7150999999999
 21
1158.8315
  0
LINE
  8
_0-0_LAYER001
  6
CONTINUOUS
 62
    3
 10
1798.7150999999999
 20
1158.8315
 11
1812.3296
 21
1160.7854
  0
LINE
  8
_0-0_LAYER001
  6
CONTINUOUS
 62
    3
 10
1812.3296
 20
1160.7854
 11
1825.8096
 21
1162.0717999999999
  0
LINE
  8
_0-0_LAYER001
  6
CONTINUOUS
 62
    3
 10
1838.6959000000002
 20
1162.4721
 11
1825.6966000000002
 21
1162.0610999999999
  0
ARC
  8
_0-0_LAYER001
  6
CONTINUOUS
 62
    2
 10
1762.8946000000001
 20
1134.3217999999999
 40
20.926341999999998
 50
337.07353999999998
 51
8.9643380000000246
  0
ARC
  8
_0-0_LAYER001
  6
CONTINUOUS
 62
    2
 10
1769.7437
 20
1105.5170000000001
 40
12.524853999999998
 50
320.09210999999999
 51
8.017092999999992
  0
LINE
  8
_0-0_LAYER001
  6
CONTINUOUS
 62
    4
 10
1861.6093000000001
 20
1054.5858000000001
 11
1861.6093000000001
 21
1039.4776999999999
  0
LINE
  8
_0-0_LAYER001
  6
CONTINUOUS
 62
    2
 10
1830.7982999999999
 20
1163.1052
 11
1847.2275
 21
1163.1052
  0
LINE
  8
_0-0_LAYER001
  6
CONTINUOUS
 62
    2
 10
1847.2275
 20
1163.1052
 11
1847.2275
 21
1145.1652999999999
  0
LINE
  8
_0-0_LAYER001
  6
CONTINUOUS
 62
    2
 10
1847.2275
 20
1145.1652999999999
 11
1830.7982999999999
 21
1145.1652999999999
  0
LINE
  8
_0-0_LAYER001
  6
CONTINUOUS
 62
    2
 10
1830.7982999999999
 20
1145.1652999999999
 11
1830.7982999999999
 21
1163.1052
  0
LINE
  8
_0-0_LAYER001
  6
CONTINUOUS
 62
    2
 10
1820.7896999999998
 20
1131.5215000000001
 11
1820.7896999999998
 21
1112.8262
  0
LINE
  8
_0-0_LAYER001
  6
CONTINUOUS
 62
    2
 10
1820.7896999999998
 20
1112.8262
 11
1826.7860000000001
 21
1113.8206
  0
LINE
  8
_0-0_LAYER001
  6
CONTINUOUS
 62
    2
 10
1826.7860000000001
 20
1113.8206
 11
1849.4935999999998
 21
1141.7189000000001
  0
LINE
  8
_0-0_LAYER001
  6
CONTINUOUS
 62
    2
 10
1820.7896999999998
 20
1131.5215000000001
 11
1847.2275
 21
1145.1652999999999
  0
LINE
  8
_0-0_LAYER001
  6
CONTINUOUS
 62
    2
 10
1847.2275
 20
1145.1652999999999
 11
1849.4935999999998
 21
1141.7189000000001
  0
LINE
  8
_0-0_LAYER001
  6
CONTINUOUS
 62
    2
 10
2007.8114
 20
1195.4623999999999
 11
1955.3114
 21
1195.4623999999999
  0
CIRCLE
  8
_0-0_LAYER001
  6
CONTINUOUS
 62
    2
 10
2005.3114
 20
1195.4623999999999
 40
1.6999999999999997
  0
LINE
  8
_0-0_LAYER001
  6
CONTINUOUS
 62
    2
 10
2005.3114
 20
1195.4623999999999
 11
2005.3114
 21
1295.4623999999999
  0
CIRCLE
  8
_0-0_LAYER001
  6
CONTINUOUS
 62
    2
 10
2005.3114
 20
1295.4623999999999
 40
1.6999999999999997
  0
LINE
  8
_0-0_LAYER001
  6
CONTINUOUS
 62
    2
 10
2007.8114
 20
1295.4623999999999
 11
1955.3114
 21
1295.4623999999999
  0
CIRCLE
  8
_0-0_LAYER001
  6
CONTINUOUS
 62
    2
 10
2005.3114
 20
1295.4623999999999
 40
1.6999999999999997
  0
LINE
  8
_0-0_LAYER001
  6
CONTINUOUS
 62
    2
 10
2005.3114
 20
1295.4623999999999
 11
2005.3114
 21
1315.4623999999999
  0
CIRCLE
  8
_0-0_LAYER001
  6
CONTINUOUS
 62
    2
 10
2005.3114
 20
1315.4623999999999
 40
1.6999999999999997
  0
LINE
  8
_0-0_LAYER001
  6
CONTINUOUS
 62
    2
 10
2007.8114
 20
1315.4623999999999
 11
1955.3114
 21
1315.4623999999999
  0
LINE
  8
_0-0_LAYER001
  6
CONTINUOUS
 62
    2
 10
2007.8114
 20
987.09069999999997
 11
1955.3114
 21
987.09069999999997
  0
CIRCLE
  8
_0-0_LAYER001
  6
CONTINUOUS
 62
    2
 10
2005.3114
 20
987.09069999999997
 40
1.6999999999999997
  0
LINE
  8
_0-0_LAYER001
  6
CONTINUOUS
 62
    2
 10
2005.3114
 20
987.09069999999997
 11
2005.3114
 21
1102.2186999999999
  0
CIRCLE
  8
_0-0_LAYER001
  6
CONTINUOUS
 62
    2
 10
2005.3114
 20
1102.2186999999999
 40
1.6999999999999997
  0
LINE
  8
_0-0_LAYER001
  6
CONTINUOUS
 62
    2
 10
2007.8114
 20
1102.2186999999999
 11
1955.3114
 21
1102.2186999999999
  0
LINE
  8
_0-0_LAYER001
  6
CONTINUOUS
 62
    2
 10
2007.8114
 20
1195.4623999999999
 11
1955.3114
 21
1195.4623999999999
  0
LINE
  8
_0-2_LAYER004
  6
CONTINUOUS
 62
    2
 10
843.47090000000003
 20
1004.0612000000001
 11
1725.2049000000002
 21
1004.0612000000001
  0
LINE
  8
_0-2_LAYER004
  6
CONTINUOUS
 62
    2
 10
843.47090000000003
 20
989.0612000000001
 11
1725.2049000000002
 21
989.0612000000001
  0
LINE
  8
_0-2_LAYER004
  6
CONTINUOUS
 62
    2
 10
1725.2049000000002
 20
1004.0612000000001
 11
1725.2049000000002
 21
989.0612000000001
  0
LINE
  8
_0-2_LAYER004
  6
CONTINUOUS
 62
    2
 10
1730.4798999999998
 20
987.09069999999997
 11
1730.4798999999998
 21
1004.0612000000001
  0
LINE
  8
_0-2_LAYER004
  6
CONTINUOUS
 62
    2
 10
1730.4798999999998
 20
1004.0612000000001
 11
1751.0239000000001
 21
1004.0612000000001
  0
LINE
  8
_0-2_LAYER004
  6
CONTINUOUS
 62
    2
 10
1872.3908999999999
 20
982.2186999999999
 11
843.47090000000003
 21
982.2186999999999
  0
LINE
  8
_0-2_LAYER004
  6
CONTINUOUS
 62
    2
 10
1730.4798999999998
 20
987.09069999999997
 11
1866.3989000000001
 21
987.09069999999997
  0
LINE
  8
_0-2_LAYER004
  6
DASHED3
 62
    2
 10
1870.0679
 20
984.71569999999997
 11
843.47090000000003
 21
984.71569999999997
  0
LINE
  8
_0-2_LAYER004
  6
CONTINUOUS
 62
    2
 10
1846.9358999999999
 20
1195.4623999999999
 11
1846.9358999999999
 21
1295.4623999999999
  0
LINE
  8
_0-2_LAYER004
  6
DASHED3
 62
    2
 10
1870.0679
 20
984.71569999999997
 11
1870.0679
 21
1232.2186999999999
  0
LINE
  8
_0-4_LAYER007
  6
CONTINUOUS
 62
    2
 10
1847.3908999999999
 20
1333.6927000000001
 11
1990.7689
 21
1477.0706999999998
  0
LINE
  8
_0-4_LAYER007
  6
CONTINUOUS
 62
    2
 10
1847.3908999999999
 20
1322.3786999999998
 11
1990.7689
 21
1465.7566999999999
  0
LINE
  8
_0-4_LAYER007
  6
CONTINUOUS
 62
    2
 10
1847.3908999999999
 20
1311.0657000000001
 11
1990.7689
 21
1454.4436999999998
  0
LINE
  8
_0-2_LAYER004
  6
CONTINUOUS
 62
    2
 10
1866.3989000000001
 20
1102.2186999999999
 11
1866.3989000000001
 21
987.09069999999997
  0
LINE
  8
_0-2_LAYER004
  6
CONTINUOUS
 62
    2
 10
1872.3908999999999
 20
1315.4623999999999
 11
1872.3908999999999
 21
942.2186999999999
  0
LINE
  8
_0-4_LAYER007
  6
CONTINUOUS
 62
    2
 10
843.47090000000003
 20
812.2186999999999
 11
1872.3908999999999
 21
812.2186999999999
  0
LINE
  8
_0-4_LAYER007
  6
CONTINUOUS
 62
    2
 10
1048.8489
 20
942.2186999999999
 11
918.84889999999996
 21
812.2186999999999
  0
LINE
  8
_0-4_LAYER007
  6
CONTINUOUS
 62
    2
 10
1026.2209
 20
942.2186999999999
 11
896.22090000000003
 21
812.2186999999999
  0
LINE
  8
_0-4_LAYER007
  6
CONTINUOUS
 62
    2
 10
1037.5349000000001
 20
942.2186999999999
 11
907.53490000000011
 21
812.2186999999999
  0
LINE
  8
_0-4_LAYER007
  6
CONTINUOUS
 62
    2
 10
1458.4789000000001
 20
942.2186999999999
 11
1328.4789000000001
 21
812.2186999999999
  0
LINE
  8
_0-4_LAYER007
  6
CONTINUOUS
 62
    2
 10
1469.7928999999999
 20
942.2186999999999
 11
1339.7928999999999
 21
812.2186999999999
  0
LINE
  8
_0-4_LAYER007
  6
CONTINUOUS
 62
    2
 10
1481.1059
 20
942.2186999999999
 11
1351.1059
 21
812.2186999999999
  0
CIRCLE
  8
_0-3_LAYER005
  6
CONTINUOUS
 62
    2
 10
1795.6808999999998
 20
1113.6796999999999
 40
1.1619999999999999
  0
CIRCLE
  8
_0-3_LAYER005
  6
CONTINUOUS
 62
    2
 10
1803.8989000000001
 20
1113.6796999999999
 40
1.1619999999999999
  0
CIRCLE
  8
_0-3_LAYER005
  6
CONTINUOUS
 62
    2
 10
1800.6118999999999
 20
1095.6007
 40
1.1619999999999999
  0
CIRCLE
  8
_0-3_LAYER005
  6
CONTINUOUS
 62
    2
 10
1805.0749000000001
 20
1141.415
 40
1.1619999999999999
  0
CIRCLE
  8
_0-3_LAYER005
  6
CONTINUOUS
 62
    2
 10
1830.3507
 20
1140.9029
 40
1.1619999999999999
  0
CIRCLE
  8
_0-3_LAYER005
  6
CONTINUOUS
 62
    2
 10
1797.6788999999999
 20
1140.5940000000001
 40
1.1619999999999999
  0
CIRCLE
  8
_0-3_LAYER005
  6
CONTINUOUS
 62
    2
 10
1814.5819000000001
 20
1084.9177
 40
1.1619999999999999
  0
CIRCLE
  8
_0-3_LAYER005
  6
CONTINUOUS
 62
    2
 10
1817.8688999999999
 20
1092.3136999999999
 40
1.1619999999999999
  0
CIRCLE
  8
_0-3_LAYER005
  6
CONTINUOUS
 62
    2
 10
1826.9079000000002
 20
1097.2447
 40
1.1619999999999999
  0
CIRCLE
  8
_0-3_LAYER005
  6
CONTINUOUS
 62
    2
 10
1815.4038999999998
 20
1104.6406999999999
 40
1.1619999999999999
  0
CIRCLE
  8
_0-3_LAYER005
  6
CONTINUOUS
 62
    2
 10
1818.6909000000001
 20
1112.8587
 40
1.1619999999999999
  0
CIRCLE
  8
_0-3_LAYER005
  6
CONTINUOUS
 62
    2
 10
1830.1949
 20
1121.0757000000001
 40
1.1619999999999999
  0
CIRCLE
  8
_0-3_LAYER005
  6
CONTINUOUS
 62
    2
 10
1828.5518999999999
 20
1123.5417
 40
1.1619999999999999
  0
CIRCLE
  8
_0-3_LAYER005
  6
CONTINUOUS
 62
    2
 10
1835.9479000000001
 20
1127.6496999999999
 40
1.1619999999999999
  0
CIRCLE
  8
_0-3_LAYER005
  6
CONTINUOUS
 62
    2
 10
1838.4128999999998
 20
1135.8677
 40
1.1619999999999999
  0
CIRCLE
  8
_0-3_LAYER005
  6
CONTINUOUS
 62
    2
 10
1752.9488999999999
 20
1149.8377
 40
1.1619999999999999
  0
CIRCLE
  8
_0-3_LAYER005
  6
CONTINUOUS
 62
    2
 10
1831.0169000000001
 20
1152.3027
 40
1.1619999999999999
  0
CIRCLE
  8
_0-3_LAYER005
  6
CONTINUOUS
 62
    2
 10
1836.1291000000001
 20
1099.3362
 40
1.1619999999999999
  0
CIRCLE
  8
_0-3_LAYER005
  6
CONTINUOUS
 62
    2
 10
1836.9443000000001
 20
1113.3414
 40
1.1619999999999999
  0
CIRCLE
  8
_0-3_LAYER005
  6
CONTINUOUS
 62
    2
 10
1794.0378999999998
 20
1106.2837
 40
1.1619999999999999
  0
CIRCLE
  8
_0-3_LAYER005
  6
CONTINUOUS
 62
    2
 10
1808.0079000000001
 20
1098.0667000000001
 40
1.1619999999999999
  0
CIRCLE
  8
_0-3_LAYER005
  6
CONTINUOUS
 62
    2
 10
1828.5119
 20
1105.8814
 40
1.1619999999999999
  0
CIRCLE
  8
_0-3_LAYER005
  6
CONTINUOUS
 62
    2
 10
1812.1563000000001
 20
1140.9889000000001
 40
1.1619999999999999
  0
CIRCLE
  8
_0-3_LAYER005
  6
CONTINUOUS
 62
    2
 10
1808.3618999999999
 20
1143.8810000000001
 40
1.1619999999999999
  0
CIRCLE
  8
_0-3_LAYER005
  6
CONTINUOUS
 62
    2
 10
1808.8289
 20
1092.3136999999999
 40
1.1619999999999999
  0
CIRCLE
  8
_0-3_LAYER005
  6
CONTINUOUS
 62
    2
 10
1817.0468999999998
 20
1096.4227000000001
 40
1.1619999999999999
  0
CIRCLE
  8
_0-3_LAYER005
  6
CONTINUOUS
 62
    2
 10
1826.0859
 20
1102.1757
 40
1.1619999999999999
  0
CIRCLE
  8
_0-3_LAYER005
  6
CONTINUOUS
 62
    2
 10
1826.0859
 20
1109.5717
 40
1.1619999999999999
  0
CIRCLE
  8
_0-3_LAYER005
  6
CONTINUOUS
 62
    2
 10
1826.0859
 20
1115.3236999999999
 40
1.1619999999999999
  0
CIRCLE
  8
_0-3_LAYER005
  6
CONTINUOUS
 62
    2
 10
1826.0859
 20
1121.0757000000001
 40
1.1619999999999999
  0
CIRCLE
  8
_0-3_LAYER005
  6
CONTINUOUS
 62
    2
 10
1832.6495
 20
1145.4502
 40
1.1619999999999999
  0
CIRCLE
  8
_0-3_LAYER005
  6
CONTINUOUS
 62
    2
 10
1831.0055000000002
 20
1147.0932
 40
1.1619999999999999
  0
CIRCLE
  8
_0-3_LAYER005
  6
CONTINUOUS
 62
    2
 10
1826.0754999999999
 20
1147.0932
 40
1.1619999999999999
  0
CIRCLE
  8
_0-3_LAYER005
  6
CONTINUOUS
 62
    2
 10
1834.4861000000001
 20
1099.3362
 40
1.1619999999999999
  0
CIRCLE
  8
_0-3_LAYER005
  6
CONTINUOUS
 62
    2
 10
1818.7651000000001
 20
1143.4612999999999
 40
1.1619999999999999
  0
CIRCLE
  8
_0-3_LAYER005
  6
CONTINUOUS
 62
    2
 10
1797.3249000000001
 20
1104.6406999999999
 40
1.1619999999999999
  0
CIRCLE
  8
_0-3_LAYER005
  6
CONTINUOUS
 62
    2
 10
1798.1459
 20
1102.1757
 40
1.1619999999999999
  0
CIRCLE
  8
_0-3_LAYER005
  6
CONTINUOUS
 62
    2
 10
1808.8289
 20
1108.7497000000001
 40
1.1619999999999999
  0
CIRCLE
  8
_0-3_LAYER005
  6
CONTINUOUS
 62
    2
 10
1830.9778999999999
 20
1106.7034000000001
 40
1.1619999999999999
  0
LINE
  8
_0-0_LAYER001
  6
CONTINUOUS
 62
    2
 10
1866.3989000000001
 20
1102.2186999999999
 11
1856.8335000000002
 21
1089.8965000000001
  0
LINE
  8
_0-0_LAYER001
  6
CONTINUOUS
 62
    2
 10
1849.1271999999999
 20
1306.702
 11
1851.0682999999999
 21
1299.4576000000002
  0
LINE
  8
_0-0_LAYER001
  6
CONTINUOUS
 62
    2
 10
1851.0682999999999
 20
1299.4576000000002
 11
1845.7649999999999
 21
1304.7609
  0
LINE
  8
_0-0_LAYER001
  6
CONTINUOUS
 62
    2
 10
1851.0682999999999
 20
1299.4576000000002
 11
1792.6700999999998
 21
1400.6061999999999
  0
LINE
  8
_0-0_LAYER001
  6
CONTINUOUS
 62
    2
 10
1792.6700999999998
 20
1400.6061999999999
 11
1711.6700999999998
 21
1400.6061999999999
  0
LINE
  8
_0-0_LAYER001
  6
CONTINUOUS
 62
    2
 10
1858.0432000000001
 20
1158.3685
 11
1859.9843000000001
 21
1151.124
  0
LINE
  8
_0-0_LAYER001
  6
CONTINUOUS
 62
    2
 10
1859.9843000000001
 20
1151.124
 11
1854.681
 21
1156.4273000000001
  0
LINE
  8
_0-0_LAYER001
  6
CONTINUOUS
 62
    2
 10
1859.9843000000001
 20
1151.124
 11
1750.8476000000001
 21
1340.1543999999999
  0
LINE
  8
_0-0_LAYER001
  6
CONTINUOUS
 62
    2
 10
1750.8476000000001
 20
1340.1543999999999
 11
1616.7547
 21
1340.1543999999999
  0
LINE
  8
_0-1_LAYER003
  6
CONTINUOUS
 62
    2
 10
1805.9580000000001
 20
1195.7155
 11
1807.8991000000001
 21
1188.471
  0
LINE
  8
_0-1_LAYER003
  6
CONTINUOUS
 62
    2
 10
1807.8991000000001
 20
1188.471
 11
1802.5958000000001
 21
1193.7743
  0
LINE
  8
_0-1_LAYER003
  6
CONTINUOUS
 62
    2
 10
1807.8991000000001
 20
1188.471
 11
1736.9749000000002
 21
1311.3152
  0
LINE
  8
_0-1_LAYER003
  6
CONTINUOUS
 62
    2
 10
1736.9749000000002
 20
1311.3152
 11
1502.9749000000002
 21
1311.3152
  0
LINE
  8
_0-1_LAYER003
  6
CONTINUOUS
 62
    2
 10
1788.2118
 20
1182.4290000000001
 11
1790.1529
 21
1175.1845000000001
  0
LINE
  8
_0-1_LAYER003
  6
CONTINUOUS
 62
    2
 10
1790.1529
 20
1175.1845000000001
 11
1784.8496
 21
1180.4878000000001
  0
LINE
  8
_0-1_LAYER003
  6
CONTINUOUS
 62
    2
 10
1790.1529
 20
1175.1845000000001
 11
1733.2204000000002
 21
1273.7945999999999
  0
LINE
  8
_0-1_LAYER003
  6
CONTINUOUS
 62
    2
 10
1733.2204000000002
 20
1273.7945999999999
 11
1602.7204000000002
 21
1273.7945999999999
  0
LINE
  8
_0-1_LAYER003
  6
CONTINUOUS
 62
    2
 10
1846.9358999999999
 20
1276.8457000000001
 11
1846.9358999999999
 21
1249.3457000000001
  0
CIRCLE
  8
_0-1_LAYER003
  6
CONTINUOUS
 62
    2
 10
1846.9358999999999
 20
1274.3457000000001
 40
1.6999999999999997
  0
LINE
  8
_0-1_LAYER003
  6
CONTINUOUS
 62
    2
 10
1846.9358999999999
 20
1274.3457000000001
 11
1756.9358999999999
 21
1274.3457000000001
  0
CIRCLE
  8
_0-1_LAYER003
  6
CONTINUOUS
 62
    2
 10
1756.9358999999999
 20
1274.3457000000001
 40
1.6999999999999997
  0
LINE
  8
_0-1_LAYER003
  6
CONTINUOUS
 62
    2
 10
1756.9358999999999
 20
1276.8457000000001
 11
1756.9358999999999
 21
1249.3457000000001
  0
LINE
  8
_0-0_LAYER001
  6
CONTINUOUS
 62
    2
 10
929.08269999999993
 20
733.97620000000006
 11
929.08269999999993
 21
786.47620000000006
  0
CIRCLE
  8
_0-0_LAYER001
  6
CONTINUOUS
 62
    2
 10
929.08269999999993
 20
736.47620000000006
 40
1.6999999999999997
  0
LINE
  8
_0-0_LAYER001
  6
CONTINUOUS
 62
    2
 10
929.08269999999993
 20
736.47620000000006
 11
1194.0826999999999
 21
736.47620000000006
  0
CIRCLE
  8
_0-0_LAYER001
  6
CONTINUOUS
 62
    2
 10
1194.0826999999999
 20
736.47620000000006
 40
1.6999999999999997
  0
LINE
  8
_0-0_LAYER001
  6
CONTINUOUS
 62
    2
 10
1194.0826999999999
 20
733.97620000000006
 11
1194.0826999999999
 21
786.47620000000006
  0
CIRCLE
  8
_0-0_LAYER001
  6
CONTINUOUS
 62
    2
 10
1194.0826999999999
 20
736.47620000000006
 40
1.6999999999999997
  0
LINE
  8
_0-0_LAYER001
  6
CONTINUOUS
 62
    2
 10
1194.0826999999999
 20
736.47620000000006
 11
1459.0826999999999
 21
736.47620000000006
  0
CIRCLE
  8
_0-0_LAYER001
  6
CONTINUOUS
 62
    2
 10
1459.0826999999999
 20
736.47620000000006
 40
1.6999999999999997
  0
LINE
  8
_0-0_LAYER001
  6
CONTINUOUS
 62
    2
 10
1459.0826999999999
 20
733.97620000000006
 11
1459.0826999999999
 21
786.47620000000006
  0
CIRCLE
  8
_0-0_LAYER001
  6
CONTINUOUS
 62
    2
 10
1459.0826999999999
 20
736.47620000000006
 40
1.6999999999999997
  0
LINE
  8
_0-0_LAYER001
  6
CONTINUOUS
 62
    2
 10
1459.0826999999999
 20
736.47620000000006
 11
1764.0826999999999
 21
736.47620000000006
  0
CIRCLE
  8
_0-0_LAYER001
  6
CONTINUOUS
 62
    2
 10
1764.0826999999999
 20
736.47620000000006
 40
1.6999999999999997
  0
LINE
  8
_0-0_LAYER001
  6
CONTINUOUS
 62
    2
 10
1764.0826999999999
 20
733.97620000000006
 11
1764.0826999999999
 21
786.47620000000006
  0
LINE
  8
_0-0_LAYER001
  6
CONTINUOUS
 62
    4
 10
1724.3670000000002
 20
1044.3885
 11
1724.3670000000002
 21
1061.5859
  0
LINE
  8
_0-0_LAYER001
  6
CONTINUOUS
 62
    4
 10
1584.6404000000002
 20
1000.5491999999999
 11
1576.1048999999998
 21
1015.0825
  0
LINE
  8
_0-0_LAYER001
  6
CONTINUOUS
 62
    4
 10
1592.8083000000001
 20
999.89889999999991
 11
1601.1145000000001
 21
1009.9644000000001
  0
ARC
  8
_0-0_LAYER001
  6
CONTINUOUS
 62
    4
 10
1588.9517999999998
 20
1003.0813000000001
 40
5
 50
210.42578
 51
320.47001
  0
LINE
  8
_0-0_LAYER001
  6
CONTINUOUS
 62
    4
 10
1668.7539000000002
 20
999.42900000000009
 11
1661.4285
 21
1010.7351000000001
  0
LINE
  8
_0-0_LAYER001
  6
CONTINUOUS
 62
    4
 10
1677.2633999999998
 20
999.61889999999994
 11
1686.2019
 21
1014.8646000000001
  0
ARC
  8
_0-0_LAYER001
  6
CONTINUOUS
 62
    4
 10
1672.9501
 20
1002.1478
 40
5
 50
212.93986000000001
 51
329.61716000000001
  0
LINE
  8
_0-0_LAYER001
  6
CONTINUOUS
 62
    4
 10
1716.5455000000002
 20
1039.1766
 11
1718.9735999999998
 21
1039.5804000000001
  0
LINE
  8
_0-0_LAYER001
  6
CONTINUOUS
 62
    4
 10
1712.3564000000001
 20
1038.4802999999999
 11
1716.5455000000002
 21
1039.1766
  0
LINE
  8
_0-0_LAYER001
  6
CONTINUOUS
 62
    4
 10
1708.1626000000001
 20
1037.7846999999999
 11
1712.3564000000001
 21
1038.4802999999999
  0
LINE
  8
_0-0_LAYER001
  6
CONTINUOUS
 62
    4
 10
1703.9638
 20
1037.0907999999999
 11
1708.1626000000001
 21
1037.7846999999999
  0
LINE
  8
_0-0_LAYER001
  6
CONTINUOUS
 62
    4
 10
1699.7597999999998
 20
1036.3993
 11
1703.9638
 21
1037.0907999999999
  0
LINE
  8
_0-0_LAYER001
  6
CONTINUOUS
 62
    4
 10
1695.5529999999999
 20
1035.7116000000001
 11
1699.7597999999998
 21
1036.3993
  0
LINE
  8
_0-0_LAYER001
  6
CONTINUOUS
 62
    4
 10
1693.1007
 20
1035.3131000000001
 11
1695.5529999999999
 21
1035.7116000000001
  0
LINE
  8
_0-0_LAYER001
  6
CONTINUOUS
 62
    4
 10
1688.3679000000002
 20
1034.5507
 11
1693.1007
 21
1035.3131000000001
  0
LINE
  8
_0-0_LAYER001
  6
CONTINUOUS
 62
    4
 10
1680.1635000000001
 20
1033.2668000000001
 11
1688.3679000000002
 21
1034.5507
  0
LINE
  8
_0-0_LAYER001
  6
CONTINUOUS
 62
    4
 10
1671.8560000000002
 20
1032.047
 11
1680.1635000000001
 21
1033.2668000000001
  0
LINE
  8
_0-0_LAYER001
  6
CONTINUOUS
 62
    4
 10
1663.4477000000002
 20
1030.9305999999999
 11
1671.8560000000002
 21
1032.047
  0
LINE
  8
_0-0_LAYER001
  6
CONTINUOUS
 62
    4
 10
1654.9351000000001
 20
1029.9572000000001
 11
1663.4477000000002
 21
1030.9305999999999
  0
LINE
  8
_0-0_LAYER001
  6
CONTINUOUS
 62
    4
 10
1646.3760000000002
 20
1029.1732
 11
1654.9351000000001
 21
1029.9572000000001
  0
LINE
  8
_0-0_LAYER001
  6
CONTINUOUS
 62
    4
 10
1641.3145
 20
1028.8152
 11
1646.3760000000002
 21
1029.1732
  0
LINE
  8
_0-0_LAYER001
  6
CONTINUOUS
 62
    4
 10
1638.5119
 20
1028.6536000000001
 11
1641.3145
 21
1028.8152
  0
LINE
  8
_0-0_LAYER001
  6
CONTINUOUS
 62
    4
 10
1633.7909
 20
1028.4496999999999
 11
1638.5119
 21
1028.6536000000001
  0
LINE
  8
_0-0_LAYER001
  6
CONTINUOUS
 62
    4
 10
1628.9616000000001
 20
1028.3442
 11
1633.7909
 21
1028.4496999999999
  0
LINE
  8
_0-0_LAYER001
  6
CONTINUOUS
 62
    4
 10
1624.0599999999999
 20
1028.3596
 11
1628.9616000000001
 21
1028.3442
  0
LINE
  8
_0-0_LAYER001
  6
CONTINUOUS
 62
    4
 10
1619.0889999999999
 20
1028.5174999999999
 11
1624.0599999999999
 21
1028.3596
  0
LINE
  8
_0-0_LAYER001
  6
CONTINUOUS
 62
    4
 10
1614.1316000000002
 20
1028.8352
 11
1619.0889999999999
 21
1028.5174999999999
  0
LINE
  8
_0-0_LAYER001
  6
CONTINUOUS
 62
    4
 10
1611.0799000000002
 20
1029.1166000000001
 11
1614.1316000000002
 21
1028.8352
  0
LINE
  8
_0-0_LAYER001
  6
CONTINUOUS
 62
    4
 10
1607.1511
 20
1029.5789
 11
1611.0799000000002
 21
1029.1166000000001
  0
LINE
  8
_0-0_LAYER001
  6
CONTINUOUS
 62
    4
 10
1600.6370999999999
 20
1030.6014
 11
1607.1511
 21
1029.5789
  0
LINE
  8
_0-0_LAYER001
  6
CONTINUOUS
 62
    4
 10
1594.0904999999998
 20
1031.9536000000001
 11
1600.6370999999999
 21
1030.6014
  0
LINE
  8
_0-0_LAYER001
  6
CONTINUOUS
 62
    4
 10
1587.6275999999998
 20
1033.6094000000001
 11
1594.0904999999998
 21
1031.9536000000001
  0
LINE
  8
_0-0_LAYER001
  6
CONTINUOUS
 62
    4
 10
1581.2615999999998
 20
1035.5600999999999
 11
1587.6275999999998
 21
1033.6094000000001
  0
LINE
  8
_0-0_LAYER001
  6
CONTINUOUS
 62
    4
 10
1575.0969
 20
1037.7651000000001
 11
1581.2615999999998
 21
1035.5600999999999
  0
LINE
  8
_0-0_LAYER001
  6
CONTINUOUS
 62
    4
 10
1571.4101999999998
 20
1039.2369000000001
 11
1575.0969
 21
1037.7651000000001
  0
LINE
  8
_0-0_LAYER001
  6
CONTINUOUS
 62
    4
 10
1567.0459000000001
 20
1041.1294
 11
1571.4101999999998
 21
1039.2369000000001
  0
LINE
  8
_0-0_LAYER001
  6
CONTINUOUS
 62
    4
 10
1559.9769000000001
 20
1044.5444
 11
1567.0459000000001
 21
1041.1294
  0
LINE
  8
_0-0_LAYER001
  6
CONTINUOUS
 62
    4
 10
1553.0839999999998
 20
1048.2739999999999
 11
1559.9769000000001
 21
1044.5444
  0
LINE
  8
_0-0_LAYER001
  6
CONTINUOUS
 62
    4
 10
1546.4470000000001
 20
1052.2076
 11
1553.0839999999998
 21
1048.2739999999999
  0
LINE
  8
_0-0_LAYER001
  6
CONTINUOUS
 62
    4
 10
1540.0376999999999
 20
1056.2900999999999
 11
1546.4470000000001
 21
1052.2076
  0
LINE
  8
_0-0_LAYER001
  6
CONTINUOUS
 62
    4
 10
1533.8535000000002
 20
1060.4521999999999
 11
1540.0376999999999
 21
1056.2900999999999
  0
LINE
  8
_0-0_LAYER001
  6
CONTINUOUS
 62
    4
 10
1530.3110999999999
 20
1062.9159
 11
1533.8535000000002
 21
1060.4521999999999
  0
LINE
  8
_0-0_LAYER001
  6
CONTINUOUS
 62
    4
 10
1528.0790999999999
 20
1064.4893999999999
 11
1530.3110999999999
 21
1062.9159
  0
LINE
  8
_0-0_LAYER001
  6
CONTINUOUS
 62
    4
 10
1524.4555
 20
1067.0286000000001
 11
1528.0790999999999
 21
1064.4893999999999
  0
LINE
  8
_0-0_LAYER001
  6
CONTINUOUS
 62
    4
 10
1521.0859
 20
1069.2941000000001
 11
1524.4555
 21
1067.0286000000001
  0
LINE
  8
_0-0_LAYER001
  6
CONTINUOUS
 62
    4
 10
1517.9708999999998
 20
1071.2212
 11
1521.0859
 21
1069.2941000000001
  0
LINE
  8
_0-0_LAYER001
  6
CONTINUOUS
 62
    4
 10
1515.1037000000001
 20
1072.7769000000001
 11
1517.9708999999998
 21
1071.2212
  0
LINE
  8
_0-0_LAYER001
  6
CONTINUOUS
 62
    4
 10
1512.2725999999998
 20
1074.0454
 11
1515.1037000000001
 21
1072.7769000000001
  0
LINE
  8
_0-0_LAYER001
  6
CONTINUOUS
 62
    4
 10
1510.8094000000001
 20
1074.5775000000001
 11
1512.2725999999998
 21
1074.0454
  0
LINE
  8
_0-0_LAYER001
  6
CONTINUOUS
 62
    4
 10
1510.6282999999999
 20
1074.6353999999999
 11
1510.8094000000001
 21
1074.5775000000001
  0
LINE
  8
_0-0_LAYER001
  6
CONTINUOUS
 62
    4
 10
1509.8400000000001
 20
1074.8634
 11
1510.6282999999999
 21
1074.6353999999999
  0
LINE
  8
_0-0_LAYER001
  6
CONTINUOUS
 62
    4
 10
1509.1828
 20
1075.0261
 11
1509.8400000000001
 21
1074.8634
  0
LINE
  8
_0-0_LAYER001
  6
CONTINUOUS
 62
    4
 10
1508.6010000000001
 20
1075.1441
 11
1509.1828
 21
1075.0261
  0
LINE
  8
_0-0_LAYER001
  6
CONTINUOUS
 62
    4
 10
1508.5610000000001
 20
1075.1503
 11
1508.6010000000001
 21
1075.1441
  0
LINE
  8
_0-0_LAYER001
  6
CONTINUOUS
 62
    4
 10
1712.5347999999999
 20
1019.9891
 11
1714.1489999999999
 21
1020.2575999999999
  0
LINE
  8
_0-0_LAYER001
  6
CONTINUOUS
 62
    4
 10
1708.3463000000002
 20
1019.2928999999999
 11
1712.5347999999999
 21
1019.9891
  0
LINE
  8
_0-0_LAYER001
  6
CONTINUOUS
 62
    4
 10
1704.1534000000001
 20
1018.5975000000001
 11
1708.3463000000002
 21
1019.2928999999999
  0
LINE
  8
_0-0_LAYER001
  6
CONTINUOUS
 62
    4
 10
1699.9558999999999
 20
1017.9037000000001
 11
1704.1534000000001
 21
1018.5975000000001
  0
LINE
  8
_0-0_LAYER001
  6
CONTINUOUS
 62
    4
 10
1695.7536
 20
1017.2125000000001
 11
1699.9558999999999
 21
1017.9037000000001
  0
LINE
  8
_0-0_LAYER001
  6
CONTINUOUS
 62
    4
 10
1691.5486999999998
 20
1016.5252
 11
1695.7536
 21
1017.2125000000001
  0
LINE
  8
_0-0_LAYER001
  6
CONTINUOUS
 62
    4
 10
1689.0985999999998
 20
1016.1270999999999
 11
1691.5486999999998
 21
1016.5252
  0
LINE
  8
_0-0_LAYER001
  6
CONTINUOUS
 62
    4
 10
1684.3717000000001
 20
1015.3655000000001
 11
1689.0985999999998
 21
1016.1270999999999
  0
LINE
  8
_0-0_LAYER001
  6
CONTINUOUS
 62
    4
 10
1676.181
 20
1014.0838000000001
 11
1684.3717000000001
 21
1015.3655000000001
  0
LINE
  8
_0-0_LAYER001
  6
CONTINUOUS
 62
    4
 10
1667.8964999999998
 20
1012.8674000000001
 11
1676.181
 21
1014.0838000000001
  0
LINE
  8
_0-0_LAYER001
  6
CONTINUOUS
 62
    4
 10
1659.5198999999998
 20
1011.7552000000001
 11
1667.8964999999998
 21
1012.8674000000001
  0
LINE
  8
_0-0_LAYER001
  6
CONTINUOUS
 62
    4
 10
1651.0477000000001
 20
1010.7864
 11
1659.5198999999998
 21
1011.7552000000001
  0
LINE
  8
_0-0_LAYER001
  6
CONTINUOUS
 62
    4
 10
1642.5315999999998
 20
1010.0064
 11
1651.0477000000001
 21
1010.7864
  0
LINE
  8
_0-0_LAYER001
  6
CONTINUOUS
 62
    4
 10
1637.5038
 20
1009.6507999999999
 11
1642.5315999999998
 21
1010.0064
  0
LINE
  8
_0-0_LAYER001
  6
CONTINUOUS
 62
    4
 10
1634.7285999999999
 20
1009.4907000000001
 11
1637.5038
 21
1009.6507999999999
  0
LINE
  8
_0-0_LAYER001
  6
CONTINUOUS
 62
    4
 10
1630.0432999999998
 20
1009.2882999999999
 11
1634.7285999999999
 21
1009.4907000000001
  0
LINE
  8
_0-0_LAYER001
  6
CONTINUOUS
 62
    4
 10
1625.2602999999999
 20
1009.1839
 11
1630.0432999999998
 21
1009.2882999999999
  0
LINE
  8
_0-0_LAYER001
  6
CONTINUOUS
 62
    4
 10
1620.4123
 20
1009.1991
 11
1625.2602999999999
 21
1009.1839
  0
LINE
  8
_0-0_LAYER001
  6
CONTINUOUS
 62
    4
 10
1615.5021000000002
 20
1009.355
 11
1620.4123
 21
1009.1991
  0
LINE
  8
_0-0_LAYER001
  6
CONTINUOUS
 62
    4
 10
1610.6048000000001
 20
1009.6688999999999
 11
1615.5021000000002
 21
1009.355
  0
LINE
  8
_0-0_LAYER001
  6
CONTINUOUS
 62
    4
 10
1607.6061
 20
1009.9455
 11
1610.6048000000001
 21
1009.6688999999999
  0
LINE
  8
_0-0_LAYER001
  6
CONTINUOUS
 62
    4
 10
1603.7404999999999
 20
1010.4003
 11
1607.6061
 21
1009.9455
  0
LINE
  8
_0-0_LAYER001
  6
CONTINUOUS
 62
    4
 10
1597.3121000000001
 20
1011.4094
 11
1603.7404999999999
 21
1010.4003
  0
LINE
  8
_0-0_LAYER001
  6
CONTINUOUS
 62
    4
 10
1590.8586
 20
1012.7422999999999
 11
1597.3121000000001
 21
1011.4094
  0
LINE
  8
_0-0_LAYER001
  6
CONTINUOUS
 62
    4
 10
1584.4865
 20
1014.3749
 11
1590.8586
 21
1012.7422999999999
  0
LINE
  8
_0-0_LAYER001
  6
CONTINUOUS
 62
    4
 10
1578.2091
 20
1016.2985000000001
 11
1584.4865
 21
1014.3749
  0
LINE
  8
_0-0_LAYER001
  6
CONTINUOUS
 62
    4
 10
1572.1221
 20
1018.4756
 11
1578.2091
 21
1016.2985000000001
  0
LINE
  8
_0-0_LAYER001
  6
CONTINUOUS
 62
    4
 10
1568.4964
 20
1019.923
 11
1572.1221
 21
1018.4756
  0
LINE
  8
_0-0_LAYER001
  6
CONTINUOUS
 62
    4
 10
1564.1965
 20
1021.7876000000001
 11
1568.4964
 21
1019.923
  0
LINE
  8
_0-0_LAYER001
  6
CONTINUOUS
 62
    4
 10
1557.2057
 20
1025.1648
 11
1564.1965
 21
1021.7876000000001
  0
LINE
  8
_0-0_LAYER001
  6
CONTINUOUS
 62
    4
 10
1550.3874999999998
 20
1028.854
 11
1557.2057
 21
1025.1648
  0
LINE
  8
_0-0_LAYER001
  6
CONTINUOUS
 62
    4
 10
1543.8117999999999
 20
1032.7514000000001
 11
1550.3874999999998
 21
1028.854
  0
LINE
  8
_0-0_LAYER001
  6
CONTINUOUS
 62
    4
 10
1537.4508000000001
 20
1036.8030000000001
 11
1543.8117999999999
 21
1032.7514000000001
  0
LINE
  8
_0-0_LAYER001
  6
CONTINUOUS
 62
    4
 10
1531.3002999999999
 20
1040.9425000000001
 11
1537.4508000000001
 21
1036.8030000000001
  0
LINE
  8
_0-0_LAYER001
  6
CONTINUOUS
 62
    4
 10
1527.7757000000001
 20
1043.3938000000001
 11
1531.3002999999999
 21
1040.9425000000001
  0
LINE
  8
_0-0_LAYER001
  6
CONTINUOUS
 62
    4
 10
1525.5466000000001
 20
1044.9653000000001
 11
1527.7757000000001
 21
1043.3938000000001
  0
LINE
  8
_0-0_LAYER001
  6
CONTINUOUS
 62
    4
 10
1521.9049
 20
1047.5172
 11
1525.5466000000001
 21
1044.9653000000001
  0
LINE
  8
_0-0_LAYER001
  6
CONTINUOUS
 62
    4
 10
1518.4877999999999
 20
1049.8145999999999
 11
1521.9049
 21
1047.5172
  0
LINE
  8
_0-0_LAYER001
  6
CONTINUOUS
 62
    4
 10
1515.2921000000001
 20
1051.7915
 11
1518.4877999999999
 21
1049.8145999999999
  0
LINE
  8
_0-0_LAYER001
  6
CONTINUOUS
 62
    4
 10
1512.3081999999999
 20
1053.4105999999999
 11
1515.2921000000001
 21
1051.7915
  0
LINE
  8
_0-0_LAYER001
  6
CONTINUOUS
 62
    4
 10
1509.3416000000002
 20
1054.7398000000001
 11
1512.3081999999999
 21
1053.4105999999999
  0
LINE
  8
_0-0_LAYER001
  6
CONTINUOUS
 62
    4
 10
1508.5916999999999
 20
1055.0125
 11
1509.3416000000002
 21
1054.7398000000001
  0
LINE
  8
_0-0_LAYER001
  6
CONTINUOUS
 62
    4
 10
1508.9247
 20
1075.0555999999999
 11
1508.7487000000001
 21
1054.8822
  0
LINE
  8
_0-0_LAYER001
  6
CONTINUOUS
 62
    4
 10
1709.2503999999999
 20
1009.5678
 11
1707.0048999999999
 21
1018.1413
  0
ARC
  8
_0-0_LAYER001
  6
CONTINUOUS
 62
    4
 10
1712.1525000000001
 20
1010.3279
 40
3
 50
194.67639000000003
 51
270.00000000000006
  0
LINE
  8
_0-0_LAYER001
  6
CONTINUOUS
 62
    4
 10
1715.5949999999998
 20
1007.3235999999999
 11
1712.1770999999999
 21
1007.3235999999999
  0
LINE
  8
_0-0_LAYER001
  6
CONTINUOUS
 62
    4
 10
1718.5540999999998
 20
1009.8304000000001
 11
1720.4881999999998
 21
1021.4346
  0
ARC
  8
_0-0_LAYER001
  6
CONTINUOUS
 62
    4
 10
1715.5949999999998
 20
1010.3235999999999
 40
3
 50
270
 51
350.53766999999999
  0
LINE
  8
_0-0_LAYER001
  6
CONTINUOUS
 62
    4
 10
1461.8285999999998
 20
1084.4458
 11
1462.6424999999999
 21
1084.7525000000001
  0
LINE
  8
_0-0_LAYER001
  6
CONTINUOUS
 62
    4
 10
1462.6424999999999
 20
1084.7525000000001
 11
1466.1916999999999
 21
1086.0921000000001
  0
LINE
  8
_0-0_LAYER001
  6
CONTINUOUS
 62
    4
 10
1466.1916999999999
 20
1086.0921000000001
 11
1469.7483999999999
 21
1087.4409000000001
  0
LINE
  8
_0-0_LAYER001
  6
CONTINUOUS
 62
    4
 10
1469.7483999999999
 20
1087.4409000000001
 11
1473.317
 21
1088.8050000000001
  0
LINE
  8
_0-0_LAYER001
  6
CONTINUOUS
 62
    4
 10
1473.317
 20
1088.8050000000001
 11
1476.9023999999999
 21
1090.1900000000001
  0
LINE
  8
_0-0_LAYER001
  6
CONTINUOUS
 62
    4
 10
1476.9023999999999
 20
1090.1900000000001
 11
1480.5091000000002
 21
1091.6020000000001
  0
LINE
  8
_0-0_LAYER001
  6
CONTINUOUS
 62
    4
 10
1480.5091000000002
 20
1091.6020000000001
 11
1482.6125999999999
 21
1092.4356
  0
LINE
  8
_0-0_LAYER001
  6
CONTINUOUS
 62
    4
 10
1482.6125999999999
 20
1092.4356
 11
1484.692
 21
1093.2645
  0
LINE
  8
_0-0_LAYER001
  6
CONTINUOUS
 62
    4
 10
1484.692
 20
1093.2645
 11
1488.2984999999999
 21
1094.6659
  0
LINE
  8
_0-0_LAYER001
  6
CONTINUOUS
 62
    4
 10
1488.2984999999999
 20
1094.6659
 11
1491.9312
 21
1095.9486999999999
  0
LINE
  8
_0-0_LAYER001
  6
CONTINUOUS
 62
    4
 10
1491.9312
 20
1095.9486999999999
 11
1495.5891999999999
 21
1097.0153
  0
LINE
  8
_0-0_LAYER001
  6
CONTINUOUS
 62
    4
 10
1495.5891999999999
 20
1097.0153
 11
1499.2712999999999
 21
1097.7684999999999
  0
LINE
  8
_0-0_LAYER001
  6
CONTINUOUS
 62
    4
 10
1499.2712999999999
 20
1097.7684999999999
 11
1502.9766
 21
1098.1110000000001
  0
LINE
  8
_0-0_LAYER001
  6
CONTINUOUS
 62
    4
 10
1502.9766
 20
1098.1110000000001
 11
1505.1358
 21
1098.0831000000001
  0
LINE
  8
_0-0_LAYER001
  6
CONTINUOUS
 62
    4
 10
1505.1358
 20
1098.0831000000001
 11
1505.9850000000001
 21
1098.0218
  0
LINE
  8
_0-0_LAYER001
  6
CONTINUOUS
 62
    4
 10
1505.9850000000001
 20
1098.0218
 11
1507.4493000000002
 21
1097.8512000000001
  0
LINE
  8
_0-0_LAYER001
  6
CONTINUOUS
 62
    4
 10
1507.4493000000002
 20
1097.8512000000001
 11
1508.9104000000002
 21
1097.6044999999999
  0
LINE
  8
_0-0_LAYER001
  6
CONTINUOUS
 62
    4
 10
1508.9104000000002
 20
1097.6044999999999
 11
1510.3640999999998
 21
1097.2883999999999
  0
LINE
  8
_0-0_LAYER001
  6
CONTINUOUS
 62
    4
 10
1510.3640999999998
 20
1097.2883999999999
 11
1511.8063000000002
 21
1096.9099000000001
  0
LINE
  8
_0-0_LAYER001
  6
CONTINUOUS
 62
    4
 10
1511.8063000000002
 20
1096.9099000000001
 11
1513.2327
 21
1096.4757999999999
  0
LINE
  8
_0-0_LAYER001
  6
CONTINUOUS
 62
    4
 10
1513.2327
 20
1096.4757999999999
 11
1514.0511999999999
 21
1096.2012
  0
LINE
  8
_0-0_LAYER001
  6
CONTINUOUS
 62
    4
 10
1514.0511999999999
 20
1096.2012
 11
1516.5493999999999
 21
1095.2529999999999
  0
LINE
  8
_0-0_LAYER001
  6
CONTINUOUS
 62
    4
 10
1516.5493999999999
 20
1095.2529999999999
 11
1520.7082999999998
 21
1093.3194000000001
  0
LINE
  8
_0-0_LAYER001
  6
CONTINUOUS
 62
    4
 10
1520.7082999999998
 20
1093.3194000000001
 11
1524.7121000000002
 21
1091.0740000000001
  0
LINE
  8
_0-0_LAYER001
  6
CONTINUOUS
 62
    4
 10
1524.7121000000002
 20
1091.0740000000001
 11
1528.5990000000002
 21
1088.5938000000001
  0
LINE
  8
_0-0_LAYER001
  6
CONTINUOUS
 62
    4
 10
1528.5990000000002
 20
1088.5938000000001
 11
1532.4070000000002
 21
1085.9556
  0
LINE
  8
_0-0_LAYER001
  6
CONTINUOUS
 62
    4
 10
1532.4070000000002
 20
1085.9556
 11
1536.1743000000001
 21
1083.2365
  0
LINE
  8
_0-0_LAYER001
  6
CONTINUOUS
 62
    4
 10
1536.1743000000001
 20
1083.2365
 11
1538.3555999999999
 21
1081.6527000000001
  0
LINE
  8
_0-0_LAYER001
  6
CONTINUOUS
 62
    4
 10
1538.3555999999999
 20
1081.6527000000001
 11
1541.6871999999998
 21
1079.2659000000001
  0
LINE
  8
_0-0_LAYER001
  6
CONTINUOUS
 62
    4
 10
1541.6871999999998
 20
1079.2659000000001
 11
1547.4794000000002
 21
1075.249
  0
LINE
  8
_0-0_LAYER001
  6
CONTINUOUS
 62
    4
 10
1547.4794000000002
 20
1075.249
 11
1553.3516
 21
1071.3923
  0
LINE
  8
_0-0_LAYER001
  6
CONTINUOUS
 62
    4
 10
1553.3516
 20
1071.3923
 11
1559.3256999999999
 21
1067.7379000000001
  0
LINE
  8
_0-0_LAYER001
  6
CONTINUOUS
 62
    4
 10
1559.3256999999999
 20
1067.7379000000001
 11
1565.4238999999998
 21
1064.3272999999999
  0
LINE
  8
_0-0_LAYER001
  6
CONTINUOUS
 62
    4
 10
1565.4238999999998
 20
1064.3272999999999
 11
1571.6682000000001
 21
1061.2025000000001
  0
LINE
  8
_0-0_LAYER001
  6
CONTINUOUS
 62
    4
 10
1571.6682000000001
 20
1061.2025000000001
 11
1575.3654999999999
 21
1059.5374999999999
  0
LINE
  8
_0-0_LAYER001
  6
CONTINUOUS
 62
    4
 10
1575.3654999999999
 20
1059.5374999999999
 11
1578.4247
 21
1058.2664
  0
LINE
  8
_0-0_LAYER001
  6
CONTINUOUS
 62
    4
 10
1578.4247
 20
1058.2664
 11
1583.7853
 21
1056.2643
  0
LINE
  8
_0-0_LAYER001
  6
CONTINUOUS
 62
    4
 10
1583.7853
 20
1056.2643
 11
1589.241
 21
1054.5088000000001
  0
LINE
  8
_0-0_LAYER001
  6
CONTINUOUS
 62
    4
 10
1589.241
 20
1054.5088000000001
 11
1594.7759000000001
 21
1053.008
  0
LINE
  8
_0-0_LAYER001
  6
CONTINUOUS
 62
    4
 10
1594.7759000000001
 20
1053.008
 11
1600.3742000000002
 21
1051.77
  0
LINE
  8
_0-0_LAYER001
  6
CONTINUOUS
 62
    4
 10
1600.3742000000002
 20
1051.77
 11
1606.02
 21
1050.8027999999999
  0
LINE
  8
_0-0_LAYER001
  6
CONTINUOUS
 62
    4
 10
1606.02
 20
1050.8027999999999
 11
1609.3099000000002
 21
1050.3690999999999
  0
LINE
  8
_0-0_LAYER001
  6
CONTINUOUS
 62
    4
 10
1609.3099000000002
 20
1050.3690999999999
 11
1611.8292000000001
 21
1050.1012000000001
  0
LINE
  8
_0-0_LAYER001
  6
CONTINUOUS
 62
    4
 10
1611.8292000000001
 20
1050.1012000000001
 11
1616.1813000000002
 21
1049.7611999999999
  0
LINE
  8
_0-0_LAYER001
  6
CONTINUOUS
 62
    4
 10
1616.1813000000002
 20
1049.7611999999999
 11
1620.5414999999998
 21
1049.5617
  0
LINE
  8
_0-0_LAYER001
  6
CONTINUOUS
 62
    4
 10
1620.5414999999998
 20
1049.5617
 11
1624.9067
 21
1049.4871000000001
  0
LINE
  8
_0-0_LAYER001
  6
CONTINUOUS
 62
    4
 10
1624.9067
 20
1049.4871000000001
 11
1629.2737999999999
 21
1049.5215000000001
  0
LINE
  8
_0-0_LAYER001
  6
CONTINUOUS
 62
    4
 10
1629.2737999999999
 20
1049.5215000000001
 11
1633.6397000000002
 21
1049.6489999999999
  0
LINE
  8
_0-0_LAYER001
  6
CONTINUOUS
 62
    4
 10
1633.6397000000002
 20
1049.6489999999999
 11
1636.1702
 21
1049.7594999999999
  0
LINE
  8
_0-0_LAYER001
  6
CONTINUOUS
 62
    4
 10
1636.1702
 20
1049.7594999999999
 11
1640.8993
 21
1050.0277000000001
  0
LINE
  8
_0-0_LAYER001
  6
CONTINUOUS
 62
    4
 10
1640.8993
 20
1050.0277000000001
 11
1649.0374999999999
 21
1050.6587
  0
LINE
  8
_0-0_LAYER001
  6
CONTINUOUS
 62
    4
 10
1649.0374999999999
 20
1050.6587
 11
1657.1581999999999
 21
1051.4726000000001
  0
LINE
  8
_0-0_LAYER001
  6
CONTINUOUS
 62
    4
 10
1657.1581999999999
 20
1051.4726000000001
 11
1665.2640999999999
 21
1052.4339
  0
LINE
  8
_0-0_LAYER001
  6
CONTINUOUS
 62
    4
 10
1665.2640999999999
 20
1052.4339
 11
1673.3575000000001
 21
1053.5070000000001
  0
LINE
  8
_0-0_LAYER001
  6
CONTINUOUS
 62
    4
 10
1673.3575000000001
 20
1053.5070000000001
 11
1681.4411
 21
1054.6566
  0
LINE
  8
_0-0_LAYER001
  6
CONTINUOUS
 62
    4
 10
1681.4411
 20
1054.6566
 11
1686.1260000000002
 21
1055.3444
  0
LINE
  8
_0-0_LAYER001
  6
CONTINUOUS
 62
    4
 10
1686.1260000000002
 20
1055.3444
 11
1688.5608999999999
 21
1055.7052000000001
  0
LINE
  8
_0-0_LAYER001
  6
CONTINUOUS
 62
    4
 10
1688.5608999999999
 20
1055.7052000000001
 11
1692.7577999999999
 21
1056.3312000000001
  0
LINE
  8
_0-0_LAYER001
  6
CONTINUOUS
 62
    4
 10
1692.7577999999999
 20
1056.3312000000001
 11
1696.9535999999998
 21
1056.9612999999999
  0
LINE
  8
_0-0_LAYER001
  6
CONTINUOUS
 62
    4
 10
1696.9535999999998
 20
1056.9612999999999
 11
1701.1484999999998
 21
1057.5945999999999
  0
LINE
  8
_0-0_LAYER001
  6
CONTINUOUS
 62
    4
 10
1701.1484999999998
 20
1057.5945999999999
 11
1705.3425999999999
 21
1058.2302
  0
LINE
  8
_0-0_LAYER001
  6
CONTINUOUS
 62
    4
 10
1705.3425999999999
 20
1058.2302
 11
1709.5364
 21
1058.8671999999999
  0
LINE
  8
_0-0_LAYER001
  6
CONTINUOUS
 62
    4
 10
1709.5364
 20
1058.8671999999999
 11
1711.9686999999999
 21
1059.2370000000001
  0
LINE
  8
_0-0_LAYER001
  6
CONTINUOUS
 62
    4
 10
1466.9317999999998
 20
1067.1333
 11
1468.9937
 21
1067.9102
  0
LINE
  8
_0-0_LAYER001
  6
CONTINUOUS
 62
    4
 10
1468.9937
 20
1067.9102
 11
1472.5612999999998
 21
1069.2566999999999
  0
LINE
  8
_0-0_LAYER001
  6
CONTINUOUS
 62
    4
 10
1472.5612999999998
 20
1069.2566999999999
 11
1476.1532000000002
 21
1070.6189999999999
  0
LINE
  8
_0-0_LAYER001
  6
CONTINUOUS
 62
    4
 10
1476.1532000000002
 20
1070.6189999999999
 11
1479.7736
 21
1072.0028
  0
LINE
  8
_0-0_LAYER001
  6
CONTINUOUS
 62
    4
 10
1479.7736
 20
1072.0028
 11
1483.4265
 21
1073.414
  0
LINE
  8
_0-0_LAYER001
  6
CONTINUOUS
 62
    4
 10
1483.4265
 20
1073.414
 11
1487.1057000000001
 21
1074.8543
  0
LINE
  8
_0-0_LAYER001
  6
CONTINUOUS
 62
    4
 10
1487.1057000000001
 20
1074.8543
 11
1489.2609000000002
 21
1075.7084
  0
LINE
  8
_0-0_LAYER001
  6
CONTINUOUS
 62
    4
 10
1489.2609000000002
 20
1075.7084
 11
1491.2845000000002
 21
1076.5150000000001
  0
LINE
  8
_0-0_LAYER001
  6
CONTINUOUS
 62
    4
 10
1491.2845000000002
 20
1076.5150000000001
 11
1494.5563999999999
 21
1077.7864
  0
LINE
  8
_0-0_LAYER001
  6
CONTINUOUS
 62
    4
 10
1494.5563999999999
 20
1077.7864
 11
1497.4515000000001
 21
1078.8087
  0
LINE
  8
_0-0_LAYER001
  6
CONTINUOUS
 62
    4
 10
1497.4515000000001
 20
1078.8087
 11
1499.9196000000002
 21
1079.5283999999999
  0
LINE
  8
_0-0_LAYER001
  6
CONTINUOUS
 62
    4
 10
1499.9196000000002
 20
1079.5283999999999
 11
1501.9114
 21
1079.9358
  0
LINE
  8
_0-0_LAYER001
  6
CONTINUOUS
 62
    4
 10
1501.9114
 20
1079.9358
 11
1503.6907000000001
 21
1080.1003000000001
  0
LINE
  8
_0-0_LAYER001
  6
CONTINUOUS
 62
    4
 10
1503.6907000000001
 20
1080.1003000000001
 11
1504.3701999999998
 21
1080.0915
  0
LINE
  8
_0-0_LAYER001
  6
CONTINUOUS
 62
    4
 10
1504.3701999999998
 20
1080.0915
 11
1504.2941000000001
 21
1080.097
  0
LINE
  8
_0-0_LAYER001
  6
CONTINUOUS
 62
    4
 10
1504.2941000000001
 20
1080.097
 11
1504.9077000000002
 21
1080.0255
  0
LINE
  8
_0-0_LAYER001
  6
CONTINUOUS
 62
    4
 10
1504.9077000000002
 20
1080.0255
 11
1505.4980999999998
 21
1079.9259
  0
LINE
  8
_0-0_LAYER001
  6
CONTINUOUS
 62
    4
 10
1505.4980999999998
 20
1079.9259
 11
1506.1655999999998
 21
1079.7808
  0
LINE
  8
_0-0_LAYER001
  6
CONTINUOUS
 62
    4
 10
1506.1655999999998
 20
1079.7808
 11
1506.8991000000001
 21
1079.5881999999999
  0
LINE
  8
_0-0_LAYER001
  6
CONTINUOUS
 62
    4
 10
1506.8991000000001
 20
1079.5881999999999
 11
1507.7483000000002
 21
1079.3298
  0
LINE
  8
_0-0_LAYER001
  6
CONTINUOUS
 62
    4
 10
1507.7483000000002
 20
1079.3298
 11
1507.9924000000001
 21
1079.2479000000001
  0
LINE
  8
_0-0_LAYER001
  6
CONTINUOUS
 62
    4
 10
1507.9924000000001
 20
1079.2479000000001
 11
1509.5522999999998
 21
1078.6558
  0
LINE
  8
_0-0_LAYER001
  6
CONTINUOUS
 62
    4
 10
1509.5522999999998
 20
1078.6558
 11
1512.5
 21
1077.2854
  0
LINE
  8
_0-0_LAYER001
  6
CONTINUOUS
 62
    4
 10
1512.5
 20
1077.2854
 11
1515.4611
 21
1075.6248000000001
  0
LINE
  8
_0-0_LAYER001
  6
CONTINUOUS
 62
    4
 10
1515.4611
 20
1075.6248000000001
 11
1518.6288
 21
1073.6034
  0
LINE
  8
_0-0_LAYER001
  6
CONTINUOUS
 62
    4
 10
1518.6288
 20
1073.6034
 11
1522.0135
 21
1071.2584999999999
  0
LINE
  8
_0-0_LAYER001
  6
CONTINUOUS
 62
    4
 10
1522.0135
 20
1071.2584999999999
 11
1525.6192000000001
 21
1068.6559999999999
  0
LINE
  8
_0-0_LAYER001
  6
CONTINUOUS
 62
    4
 10
1525.6192000000001
 20
1068.6559999999999
 11
1527.8262
 21
1067.0536
  0
LINE
  8
_0-0_LAYER001
  6
CONTINUOUS
 62
    4
 10
1527.8262
 20
1067.0536
 11
1531.3162000000002
 21
1064.5533
  0
LINE
  8
_0-0_LAYER001
  6
CONTINUOUS
 62
    4
 10
1531.3162000000002
 20
1064.5533
 11
1537.4083000000001
 21
1060.3282999999999
  0
LINE
  8
_0-0_LAYER001
  6
CONTINUOUS
 62
    4
 10
1537.4083000000001
 20
1060.3282999999999
 11
1543.7121000000002
 21
1056.1883
  0
LINE
  8
_0-0_LAYER001
  6
CONTINUOUS
 62
    4
 10
1543.7121000000002
 20
1056.1883
 11
1550.2328000000002
 21
1052.1994999999999
  0
LINE
  8
_0-0_LAYER001
  6
CONTINUOUS
 62
    4
 10
1550.2328000000002
 20
1052.1994999999999
 11
1556.9987000000001
 21
1048.4155000000001
  0
LINE
  8
_0-0_LAYER001
  6
CONTINUOUS
 62
    4
 10
1556.9987000000001
 20
1048.4155000000001
 11
1563.9418000000001
 21
1044.941
  0
LINE
  8
_0-0_LAYER001
  6
CONTINUOUS
 62
    4
 10
1563.9418000000001
 20
1044.941
 11
1568.2152000000001
 21
1043.0165999999999
  0
LINE
  8
_0-0_LAYER001
  6
CONTINUOUS
 62
    4
 10
1568.2152000000001
 20
1043.0165999999999
 11
1571.8202999999999
 21
1041.5186000000001
  0
LINE
  8
_0-0_LAYER001
  6
CONTINUOUS
 62
    4
 10
1571.8202999999999
 20
1041.5186000000001
 11
1577.8764000000001
 21
1039.2566999999999
  0
LINE
  8
_0-0_LAYER001
  6
CONTINUOUS
 62
    4
 10
1577.8764000000001
 20
1039.2566999999999
 11
1584.1262000000002
 21
1037.2456999999999
  0
LINE
  8
_0-0_LAYER001
  6
CONTINUOUS
 62
    4
 10
1584.1262000000002
 20
1037.2456999999999
 11
1590.4749999999999
 21
1035.5243
  0
LINE
  8
_0-0_LAYER001
  6
CONTINUOUS
 62
    4
 10
1590.4749999999999
 20
1035.5243
 11
1596.9092000000001
 21
1034.1014
  0
LINE
  8
_0-0_LAYER001
  6
CONTINUOUS
 62
    4
 10
1596.9092000000001
 20
1034.1014
 11
1603.3229000000001
 21
1033.0026
  0
LINE
  8
_0-0_LAYER001
  6
CONTINUOUS
 62
    4
 10
1603.3229000000001
 20
1033.0026
 11
1607.1817000000001
 21
1032.4938999999999
  0
LINE
  8
_0-0_LAYER001
  6
CONTINUOUS
 62
    4
 10
1607.1817000000001
 20
1032.4938999999999
 11
1610.1763000000001
 21
1032.1755000000001
  0
LINE
  8
_0-0_LAYER001
  6
CONTINUOUS
 62
    4
 10
1610.1763000000001
 20
1032.1755000000001
 11
1615.0688
 21
1031.7933
  0
LINE
  8
_0-0_LAYER001
  6
CONTINUOUS
 62
    4
 10
1615.0688
 20
1031.7933
 11
1619.9762999999998
 21
1031.5688
  0
LINE
  8
_0-0_LAYER001
  6
CONTINUOUS
 62
    4
 10
1619.9762999999998
 20
1031.5688
 11
1624.8236999999999
 21
1031.4858999999999
  0
LINE
  8
_0-0_LAYER001
  6
CONTINUOUS
 62
    4
 10
1624.8236999999999
 20
1031.4858999999999
 11
1629.6075999999998
 21
1031.5235
  0
LINE
  8
_0-0_LAYER001
  6
CONTINUOUS
 62
    4
 10
1629.6075999999998
 20
1031.5235
 11
1634.2952
 21
1031.6605
  0
LINE
  8
_0-0_LAYER001
  6
CONTINUOUS
 62
    4
 10
1634.2952
 20
1031.6605
 11
1637.0724
 21
1031.7818
  0
LINE
  8
_0-0_LAYER001
  6
CONTINUOUS
 62
    4
 10
1637.0724
 20
1031.7818
 11
1642.1046999999999
 21
1032.0672
  0
LINE
  8
_0-0_LAYER001
  6
CONTINUOUS
 62
    4
 10
1642.1046999999999
 20
1032.0672
 11
1650.6309000000001
 21
1032.7282
  0
LINE
  8
_0-0_LAYER001
  6
CONTINUOUS
 62
    4
 10
1650.6309000000001
 20
1032.7282
 11
1659.1158
 21
1033.5786000000001
  0
LINE
  8
_0-0_LAYER001
  6
CONTINUOUS
 62
    4
 10
1659.1158
 20
1033.5786000000001
 11
1667.5070999999998
 21
1034.5736999999999
  0
LINE
  8
_0-0_LAYER001
  6
CONTINUOUS
 62
    4
 10
1667.5070999999998
 20
1034.5736999999999
 11
1675.8078
 21
1035.6744000000001
  0
LINE
  8
_0-0_LAYER001
  6
CONTINUOUS
 62
    4
 10
1675.8078
 20
1035.6744000000001
 11
1684.0155
 21
1036.8416
  0
LINE
  8
_0-0_LAYER001
  6
CONTINUOUS
 62
    4
 10
1684.0155
 20
1036.8416
 11
1688.7527
 21
1037.5371
  0
LINE
  8
_0-0_LAYER001
  6
CONTINUOUS
 62
    4
 10
1688.7527
 20
1037.5371
 11
1691.2080000000001
 21
1037.9010000000001
  0
LINE
  8
_0-0_LAYER001
  6
CONTINUOUS
 62
    4
 10
1691.2080000000001
 20
1037.9010000000001
 11
1695.4220999999998
 21
1038.5295000000001
  0
LINE
  8
_0-0_LAYER001
  6
CONTINUOUS
 62
    4
 10
1695.4220999999998
 20
1038.5295000000001
 11
1699.6336999999999
 21
1039.162
  0
LINE
  8
_0-0_LAYER001
  6
CONTINUOUS
 62
    4
 10
1699.6336999999999
 20
1039.162
 11
1703.8404
 21
1039.7971
  0
LINE
  8
_0-0_LAYER001
  6
CONTINUOUS
 62
    4
 10
1703.8404
 20
1039.7971
 11
1708.0426000000002
 21
1040.4339
  0
LINE
  8
_0-0_LAYER001
  6
CONTINUOUS
 62
    4
 10
1708.0426000000002
 20
1040.4339
 11
1712.2404999999999
 21
1041.0715
  0
LINE
  8
_0-0_LAYER001
  6
CONTINUOUS
 62
    4
 10
1712.2404999999999
 20
1041.0715
 11
1713.8582000000001
 21
1041.3173999999999
  0
LINE
  8
_0-0_LAYER001
  6
CONTINUOUS
 62
    4
 10
1461.4029
 20
1084.2835
 11
1461.8289
 21
1084.4466
  0
ARC
  8
_0-0_LAYER001
  6
CONTINUOUS
 62
    4
 10
1462.4756000000002
 20
1081.4818
 40
3
 50
110.94902000000002
 51
178.70000000000002
  0
LINE
  8
_0-0_LAYER001
  6
CONTINUOUS
 62
    4
 10
1459.3670000000002
 20
1065.7107000000001
 11
1459.3670000000002
 21
1081.4331999999999
  0
LINE
  8
_0-0_LAYER001
  6
CONTINUOUS
 62
    4
 10
1460.721
 20
1064.7755
 11
1466.8957999999998
 21
1067.1126999999999
  0
ARC
  8
_0-0_LAYER001
  6
CONTINUOUS
 62
    4
 10
1460.3670000000002
 20
1065.7107000000001
 40
1
 50
180
 51
290.73165999999998
  0
LINE
  8
_0-0_LAYER001
  6
CONTINUOUS
 62
    4
 10
1712.0936000000002
 20
1059.2723000000001
 11
1756.5479
 21
1068.9202
  0
LINE
  8
_0-0_LAYER001
  6
CONTINUOUS
 62
    4
 10
1718.8388
 20
1039.4386
 11
1757.5106000000001
 21
1048.4885999999999
  0
LINE
  8
_0-0_LAYER001
  6
CONTINUOUS
 62
    4
 10
1757.5106000000001
 20
1049.4450999999999
 11
1757.5106000000001
 21
1048.4885999999999
  0
ARC
  8
_0-0_LAYER001
  6
CONTINUOUS
 62
    4
 10
1758.5106000000001
 20
1049.4450999999999
 40
1
 50
102.72435
 51
180
  0
LINE
  8
_0-0_LAYER001
  6
CONTINUOUS
 62
    4
 10
1763.3276000000001
 20
1051.558
 11
1758.2903000000001
 21
1050.4204999999999
  0
ARC
  8
_0-0_LAYER001
  6
CONTINUOUS
 62
    4
 10
1763.5479
 20
1050.5825
 40
1
 50
0
 51
102.72435
  0
LINE
  8
_0-0_LAYER001
  6
CONTINUOUS
 62
    4
 10
1763.7599
 20
1052.0663999999999
 11
1713.6260000000002
 21
1041.1858999999999
  0
ARC
  8
_0-0_LAYER001
  6
CONTINUOUS
 62
    4
 10
1763.5479
 20
1053.0436999999999
 40
1
 50
282.24497000000002
 51
0
  0
LINE
  8
_0-0_LAYER001
  6
CONTINUOUS
 62
    4
 10
1763.7656999999999
 20
1031.3257000000001
 11
1714.1817000000001
 21
1020.2578000000001
  0
LINE
  8
_0-0_LAYER001
  6
CONTINUOUS
 62
    4
 10
1764.5479
 20
1032.3017
 11
1764.5479
 21
1050.5825
  0
ARC
  8
_0-0_LAYER001
  6
CONTINUOUS
 62
    4
 10
1763.5479
 20
1032.3017
 40
1
 50
282.58296000000001
 51
0.0000000000000254
  0
LINE
  8
_0-0_LAYER001
  6
CONTINUOUS
 62
    4
 10
1756.5479
 20
1070.3773000000001
 11
1756.5479
 21
1068.9202
  0
ARC
  8
_0-0_LAYER001
  6
CONTINUOUS
 62
    4
 10
1757.5479
 20
1070.3773000000001
 40
1
 50
101.73308
 51
180
  0
LINE
  8
_0-0_LAYER001
  6
CONTINUOUS
 62
    4
 10
1763.3445000000002
 20
1072.6025
 11
1757.3445000000002
 21
1071.3563999999999
  0
LINE
  8
_0-0_LAYER001
  6
CONTINUOUS
 62
    4
 10
1764.5479
 20
1071.6233999999999
 11
1764.5479
 21
1053.0436999999999
  0
ARC
  8
_0-0_LAYER001
  6
CONTINUOUS
 62
    4
 10
1763.5479
 20
1071.6233999999999
 40
1
 50
0
 51
101.73308
  0
LINE
  8
_0-0_LAYER001
  6
CONTINUOUS
 62
    4
 10
1319.8172
 20
1000.7335
 11
1311.2817999999997
 21
1015.2669000000001
  0
LINE
  8
_0-0_LAYER001
  6
CONTINUOUS
 62
    4
 10
1327.9851000000003
 20
1000.0832
 11
1336.2913000000001
 21
1010.1487
  0
ARC
  8
_0-0_LAYER001
  6
CONTINUOUS
 62
    4
 10
1324.1287
 20
1003.2655999999999
 40
5
 50
210.42578
 51
320.47001
  0
LINE
  8
_0-0_LAYER001
  6
CONTINUOUS
 62
    4
 10
1403.9306999999999
 20
999.61339999999996
 11
1396.6053999999999
 21
1010.9194
  0
LINE
  8
_0-0_LAYER001
  6
CONTINUOUS
 62
    4
 10
1412.4403000000002
 20
999.80330000000004
 11
1421.3787
 21
1015.0489
  0
ARC
  8
_0-0_LAYER001
  6
CONTINUOUS
 62
    4
 10
1408.1269
 20
1002.3321000000001
 40
5
 50
212.93986000000001
 51
329.61716000000001
  0
LINE
  8
_0-0_LAYER001
  6
CONTINUOUS
 62
    4
 10
1451.7222999999999
 20
1039.3608999999999
 11
1454.1504
 21
1039.7647999999999
  0
LINE
  8
_0-0_LAYER001
  6
CONTINUOUS
 62
    4
 10
1447.5333000000001
 20
1038.6647
 11
1451.7222999999999
 21
1039.3608999999999
  0
LINE
  8
_0-0_LAYER001
  6
CONTINUOUS
 62
    4
 10
1443.3395
 20
1037.9691
 11
1447.5333000000001
 21
1038.6647
  0
LINE
  8
_0-0_LAYER001
  6
CONTINUOUS
 62
    4
 10
1439.1406999999999
 20
1037.2751000000001
 11
1443.3395
 21
1037.9691
  0
LINE
  8
_0-0_LAYER001
  6
CONTINUOUS
 62
    4
 10
1434.9367000000002
 20
1036.5835999999999
 11
1439.1406999999999
 21
1037.2751000000001
  0
LINE
  8
_0-0_LAYER001
  6
CONTINUOUS
 62
    4
 10
1430.7298000000001
 20
1035.896
 11
1434.9367000000002
 21
1036.5835999999999
  0
LINE
  8
_0-0_LAYER001
  6
CONTINUOUS
 62
    4
 10
1428.2774999999997
 20
1035.4974999999999
 11
1430.7298000000001
 21
1035.896
  0
LINE
  8
_0-0_LAYER001
  6
CONTINUOUS
 62
    4
 10
1423.5447999999999
 20
1034.7349999999999
 11
1428.2774999999997
 21
1035.4974999999999
  0
LINE
  8
_0-0_LAYER001
  6
CONTINUOUS
 62
    4
 10
1415.3403000000001
 20
1033.4511
 11
1423.5447999999999
 21
1034.7349999999999
  0
LINE
  8
_0-0_LAYER001
  6
CONTINUOUS
 62
    4
 10
1407.0328
 20
1032.2312999999999
 11
1415.3403000000001
 21
1033.4511
  0
LINE
  8
_0-0_LAYER001
  6
CONTINUOUS
 62
    4
 10
1398.6246000000001
 20
1031.1149
 11
1407.0328
 21
1032.2312999999999
  0
LINE
  8
_0-0_LAYER001
  6
CONTINUOUS
 62
    4
 10
1390.1120000000001
 20
1030.1415999999999
 11
1398.6246000000001
 21
1031.1149
  0
LINE
  8
_0-0_LAYER001
  6
CONTINUOUS
 62
    4
 10
1381.5527999999999
 20
1029.3576
 11
1390.1120000000001
 21
1030.1415999999999
  0
LINE
  8
_0-0_LAYER001
  6
CONTINUOUS
 62
    4
 10
1376.4912999999999
 20
1028.9996000000001
 11
1381.5527999999999
 21
1029.3576
  0
LINE
  8
_0-0_LAYER001
  6
CONTINUOUS
 62
    4
 10
1373.6886999999999
 20
1028.838
 11
1376.4912999999999
 21
1028.9996000000001
  0
LINE
  8
_0-0_LAYER001
  6
CONTINUOUS
 62
    4
 10
1368.9677000000001
 20
1028.634
 11
1373.6886999999999
 21
1028.838
  0
LINE
  8
_0-0_LAYER001
  6
CONTINUOUS
 62
    4
 10
1364.1385
 20
1028.5286000000001
 11
1368.9677000000001
 21
1028.634
  0
LINE
  8
_0-0_LAYER001
  6
CONTINUOUS
 62
    4
 10
1359.2369000000003
 20
1028.5438999999999
 11
1364.1385
 21
1028.5286000000001
  0
LINE
  8
_0-0_LAYER001
  6
CONTINUOUS
 62
    4
 10
1354.2658000000001
 20
1028.7018
 11
1359.2369000000003
 21
1028.5438999999999
  0
LINE
  8
_0-0_LAYER001
  6
CONTINUOUS
 62
    4
 10
1349.3083999999999
 20
1029.0195000000001
 11
1354.2658000000001
 21
1028.7018
  0
LINE
  8
_0-0_LAYER001
  6
CONTINUOUS
 62
    4
 10
1346.2568000000001
 20
1029.3009999999999
 11
1349.3083999999999
 21
1029.0195000000001
  0
LINE
  8
_0-0_LAYER001
  6
CONTINUOUS
 62
    4
 10
1342.3279
 20
1029.7632000000001
 11
1346.2568000000001
 21
1029.3009999999999
  0
LINE
  8
_0-0_LAYER001
  6
CONTINUOUS
 62
    4
 10
1335.8140000000001
 20
1030.7858000000001
 11
1342.3279
 21
1029.7632000000001
  0
LINE
  8
_0-0_LAYER001
  6
CONTINUOUS
 62
    4
 10
1329.2674
 20
1032.1378999999999
 11
1335.8140000000001
 21
1030.7858000000001
  0
LINE
  8
_0-0_LAYER001
  6
CONTINUOUS
 62
    4
 10
1322.8044
 20
1033.7937999999999
 11
1329.2674
 21
1032.1378999999999
  0
LINE
  8
_0-0_LAYER001
  6
CONTINUOUS
 62
    4
 10
1316.4384999999997
 20
1035.7445
 11
1322.8044
 21
1033.7937999999999
  0
LINE
  8
_0-0_LAYER001
  6
CONTINUOUS
 62
    4
 10
1310.2737
 20
1037.9494
 11
1316.4384999999997
 21
1035.7445
  0
LINE
  8
_0-0_LAYER001
  6
CONTINUOUS
 62
    4
 10
1306.5870999999997
 20
1039.4212
 11
1310.2737
 21
1037.9494
  0
LINE
  8
_0-0_LAYER001
  6
CONTINUOUS
 62
    4
 10
1302.2228
 20
1041.3136999999999
 11
1306.5870999999997
 21
1039.4212
  0
LINE
  8
_0-0_LAYER001
  6
CONTINUOUS
 62
    4
 10
1295.1537000000003
 20
1044.7286999999999
 11
1302.2228
 21
1041.3136999999999
  0
LINE
  8
_0-0_LAYER001
  6
CONTINUOUS
 62
    4
 10
1288.2609
 20
1048.4583
 11
1295.1537000000003
 21
1044.7286999999999
  0
LINE
  8
_0-0_LAYER001
  6
CONTINUOUS
 62
    4
 10
1281.6239
 20
1052.3920000000001
 11
1288.2609
 21
1048.4583
  0
LINE
  8
_0-0_LAYER001
  6
CONTINUOUS
 62
    4
 10
1275.2145
 20
1056.4744000000001
 11
1281.6239
 21
1052.3920000000001
  0
LINE
  8
_0-0_LAYER001
  6
CONTINUOUS
 62
    4
 10
1269.0302999999999
 20
1060.6366
 11
1275.2145
 21
1056.4744000000001
  0
LINE
  8
_0-0_LAYER001
  6
CONTINUOUS
 62
    4
 10
1265.4880000000001
 20
1063.1003000000001
 11
1269.0302999999999
 21
1060.6366
  0
LINE
  8
_0-0_LAYER001
  6
CONTINUOUS
 62
    4
 10
1263.2560000000001
 20
1064.6737000000001
 11
1265.4880000000001
 21
1063.1003000000001
  0
LINE
  8
_0-0_LAYER001
  6
CONTINUOUS
 62
    4
 10
1259.6324
 20
1067.2129
 11
1263.2560000000001
 21
1064.6737000000001
  0
LINE
  8
_0-0_LAYER001
  6
CONTINUOUS
 62
    4
 10
1256.2628
 20
1069.4784
 11
1259.6324
 21
1067.2129
  0
LINE
  8
_0-0_LAYER001
  6
CONTINUOUS
 62
    4
 10
1253.1478
 20
1071.4055000000001
 11
1256.2628
 21
1069.4784
  0
LINE
  8
_0-0_LAYER001
  6
CONTINUOUS
 62
    4
 10
1250.2805000000001
 20
1072.9612
 11
1253.1478
 21
1071.4055000000001
  0
LINE
  8
_0-0_LAYER001
  6
CONTINUOUS
 62
    4
 10
1247.4494
 20
1074.2297000000001
 11
1250.2805000000001
 21
1072.9612
  0
LINE
  8
_0-0_LAYER001
  6
CONTINUOUS
 62
    4
 10
1245.9862000000001
 20
1074.7618
 11
1247.4494
 21
1074.2297000000001
  0
LINE
  8
_0-0_LAYER001
  6
CONTINUOUS
 62
    4
 10
1245.8051
 20
1074.8198
 11
1245.9862000000001
 21
1074.7618
  0
LINE
  8
_0-0_LAYER001
  6
CONTINUOUS
 62
    4
 10
1245.0168000000001
 20
1075.0477000000001
 11
1245.8051
 21
1074.8198
  0
LINE
  8
_0-0_LAYER001
  6
CONTINUOUS
 62
    4
 10
1244.3597
 20
1075.2103999999999
 11
1245.0168000000001
 21
1075.0477000000001
  0
LINE
  8
_0-0_LAYER001
  6
CONTINUOUS
 62
    4
 10
1243.7779
 20
1075.3284000000001
 11
1244.3597
 21
1075.2103999999999
  0
LINE
  8
_0-0_LAYER001
  6
CONTINUOUS
 62
    4
 10
1243.7378000000001
 20
1075.3345999999999
 11
1243.7779
 21
1075.3284000000001
  0
LINE
  8
_0-0_LAYER001
  6
CONTINUOUS
 62
    4
 10
1447.7116999999998
 20
1020.1733999999999
 11
1449.3258000000001
 21
1020.4419
  0
LINE
  8
_0-0_LAYER001
  6
CONTINUOUS
 62
    4
 10
1443.5230999999999
 20
1019.4772
 11
1447.7116999999998
 21
1020.1733999999999
  0
LINE
  8
_0-0_LAYER001
  6
CONTINUOUS
 62
    4
 10
1439.3301999999999
 20
1018.7818
 11
1443.5230999999999
 21
1019.4772
  0
LINE
  8
_0-0_LAYER001
  6
CONTINUOUS
 62
    4
 10
1435.1327000000001
 20
1018.0880999999999
 11
1439.3301999999999
 21
1018.7818
  0
LINE
  8
_0-0_LAYER001
  6
CONTINUOUS
 62
    4
 10
1430.9304000000002
 20
1017.3969
 11
1435.1327000000001
 21
1018.0880999999999
  0
LINE
  8
_0-0_LAYER001
  6
CONTINUOUS
 62
    4
 10
1426.7255
 20
1016.7094999999999
 11
1430.9304000000002
 21
1017.3969
  0
LINE
  8
_0-0_LAYER001
  6
CONTINUOUS
 62
    4
 10
1424.2755
 20
1016.3114
 11
1426.7255
 21
1016.7094999999999
  0
LINE
  8
_0-0_LAYER001
  6
CONTINUOUS
 62
    4
 10
1419.5485000000003
 20
1015.5499
 11
1424.2755
 21
1016.3114
  0
LINE
  8
_0-0_LAYER001
  6
CONTINUOUS
 62
    4
 10
1411.3579
 20
1014.2682
 11
1419.5485000000003
 21
1015.5499
  0
LINE
  8
_0-0_LAYER001
  6
CONTINUOUS
 62
    4
 10
1403.0734000000002
 20
1013.0517
 11
1411.3579
 21
1014.2682
  0
LINE
  8
_0-0_LAYER001
  6
CONTINUOUS
 62
    4
 10
1394.6967
 20
1011.9395
 11
1403.0734000000002
 21
1013.0517
  0
LINE
  8
_0-0_LAYER001
  6
CONTINUOUS
 62
    4
 10
1386.2246
 20
1010.9708000000001
 11
1394.6967
 21
1011.9395
  0
LINE
  8
_0-0_LAYER001
  6
CONTINUOUS
 62
    4
 10
1377.7085
 20
1010.1907000000001
 11
1386.2246
 21
1010.9708000000001
  0
LINE
  8
_0-0_LAYER001
  6
CONTINUOUS
 62
    4
 10
1372.6805999999999
 20
1009.8351
 11
1377.7085
 21
1010.1907000000001
  0
LINE
  8
_0-0_LAYER001
  6
CONTINUOUS
 62
    4
 10
1369.9054000000001
 20
1009.6750999999999
 11
1372.6805999999999
 21
1009.8351
  0
LINE
  8
_0-0_LAYER001
  6
CONTINUOUS
 62
    4
 10
1365.2201
 20
1009.4727
 11
1369.9054000000001
 21
1009.6750999999999
  0
LINE
  8
_0-0_LAYER001
  6
CONTINUOUS
 62
    4
 10
1360.4372000000001
 20
1009.3681999999999
 11
1365.2201
 21
1009.4727
  0
LINE
  8
_0-0_LAYER001
  6
CONTINUOUS
 62
    4
 10
1355.5891999999999
 20
1009.3833999999999
 11
1360.4372000000001
 21
1009.3681999999999
  0
LINE
  8
_0-0_LAYER001
  6
CONTINUOUS
 62
    4
 10
1350.6790000000001
 20
1009.5393999999999
 11
1355.5891999999999
 21
1009.3833999999999
  0
LINE
  8
_0-0_LAYER001
  6
CONTINUOUS
 62
    4
 10
1345.7817
 20
1009.8533
 11
1350.6790000000001
 21
1009.5393999999999
  0
LINE
  8
_0-0_LAYER001
  6
CONTINUOUS
 62
    4
 10
1342.7828999999999
 20
1010.1297999999999
 11
1345.7817
 21
1009.8533
  0
LINE
  8
_0-0_LAYER001
  6
CONTINUOUS
 62
    4
 10
1338.9174
 20
1010.5845999999999
 11
1342.7828999999999
 21
1010.1297999999999
  0
LINE
  8
_0-0_LAYER001
  6
CONTINUOUS
 62
    4
 10
1332.489
 20
1011.5936999999999
 11
1338.9174
 21
1010.5845999999999
  0
LINE
  8
_0-0_LAYER001
  6
CONTINUOUS
 62
    4
 10
1326.0355
 20
1012.9266
 11
1332.489
 21
1011.5936999999999
  0
LINE
  8
_0-0_LAYER001
  6
CONTINUOUS
 62
    4
 10
1319.6632999999999
 20
1014.5591999999999
 11
1326.0355
 21
1012.9266
  0
LINE
  8
_0-0_LAYER001
  6
CONTINUOUS
 62
    4
 10
1313.386
 20
1016.4828
 11
1319.6632999999999
 21
1014.5591999999999
  0
LINE
  8
_0-0_LAYER001
  6
CONTINUOUS
 62
    4
 10
1307.2989000000002
 20
1018.6600000000001
 11
1313.386
 21
1016.4828
  0
LINE
  8
_0-0_LAYER001
  6
CONTINUOUS
 62
    4
 10
1303.6732999999999
 20
1020.1074000000001
 11
1307.2989000000002
 21
1018.6600000000001
  0
LINE
  8
_0-0_LAYER001
  6
CONTINUOUS
 62
    4
 10
1299.3733999999999
 20
1021.972
 11
1303.6732999999999
 21
1020.1074000000001
  0
LINE
  8
_0-0_LAYER001
  6
CONTINUOUS
 62
    4
 10
1292.3824999999999
 20
1025.3492000000001
 11
1299.3733999999999
 21
1021.972
  0
LINE
  8
_0-0_LAYER001
  6
CONTINUOUS
 62
    4
 10
1285.5644000000002
 20
1029.0382999999999
 11
1292.3824999999999
 21
1025.3492000000001
  0
LINE
  8
_0-0_LAYER001
  6
CONTINUOUS
 62
    4
 10
1278.9885999999999
 20
1032.9357
 11
1285.5644000000002
 21
1029.0382999999999
  0
LINE
  8
_0-0_LAYER001
  6
CONTINUOUS
 62
    4
 10
1272.6277
 20
1036.9873
 11
1278.9885999999999
 21
1032.9357
  0
LINE
  8
_0-0_LAYER001
  6
CONTINUOUS
 62
    4
 10
1266.4771000000001
 20
1041.1268
 11
1272.6277
 21
1036.9873
  0
LINE
  8
_0-0_LAYER001
  6
CONTINUOUS
 62
    4
 10
1262.9526000000001
 20
1043.5781999999999
 11
1266.4771000000001
 21
1041.1268
  0
LINE
  8
_0-0_LAYER001
  6
CONTINUOUS
 62
    4
 10
1260.7234000000001
 20
1045.1496
 11
1262.9526000000001
 21
1043.5781999999999
  0
LINE
  8
_0-0_LAYER001
  6
CONTINUOUS
 62
    4
 10
1257.0817
 20
1047.7014999999999
 11
1260.7234000000001
 21
1045.1496
  0
LINE
  8
_0-0_LAYER001
  6
CONTINUOUS
 62
    4
 10
1253.6646000000001
 20
1049.9989
 11
1257.0817
 21
1047.7014999999999
  0
LINE
  8
_0-0_LAYER001
  6
CONTINUOUS
 62
    4
 10
1250.4690000000001
 20
1051.9758999999999
 11
1253.6646000000001
 21
1049.9989
  0
LINE
  8
_0-0_LAYER001
  6
CONTINUOUS
 62
    4
 10
1247.4849999999999
 20
1053.595
 11
1250.4690000000001
 21
1051.9758999999999
  0
LINE
  8
_0-0_LAYER001
  6
CONTINUOUS
 62
    4
 10
1244.5184999999999
 20
1054.9241
 11
1247.4849999999999
 21
1053.595
  0
LINE
  8
_0-0_LAYER001
  6
CONTINUOUS
 62
    4
 10
1243.7684999999999
 20
1055.1968999999999
 11
1244.5184999999999
 21
1054.9241
  0
LINE
  8
_0-0_LAYER001
  6
CONTINUOUS
 62
    4
 10
1244.1016
 20
1075.24
 11
1243.9255000000001
 21
1055.0664999999999
  0
LINE
  8
_0-0_LAYER001
  6
CONTINUOUS
 62
    4
 10
1444.4272000000001
 20
1009.7521999999999
 11
1442.1817999999998
 21
1018.3255999999999
  0
ARC
  8
_0-0_LAYER001
  6
CONTINUOUS
 62
    4
 10
1447.3292999999999
 20
1010.5123000000001
 40
3
 50
194.67639000000003
 51
270.00000000000006
  0
LINE
  8
_0-0_LAYER001
  6
CONTINUOUS
 62
    4
 10
1450.7718
 20
1007.508
 11
1447.3539999999998
 21
1007.508
  0
LINE
  8
_0-0_LAYER001
  6
CONTINUOUS
 62
    4
 10
1453.7310000000002
 20
1010.0147999999999
 11
1455.665
 21
1021.6188999999999
  0
ARC
  8
_0-0_LAYER001
  6
CONTINUOUS
 62
    4
 10
1450.7718
 20
1010.508
 40
3
 50
270
 51
350.53766999999999
  0
LINE
  8
_0-0_LAYER001
  6
CONTINUOUS
 62
    4
 10
1197.0054
 20
1084.6302000000001
 11
1197.8193000000001
 21
1084.9367999999999
  0
LINE
  8
_0-0_LAYER001
  6
CONTINUOUS
 62
    4
 10
1197.8193000000001
 20
1084.9367999999999
 11
1201.3686
 21
1086.2764
  0
LINE
  8
_0-0_LAYER001
  6
CONTINUOUS
 62
    4
 10
1201.3686
 20
1086.2764
 11
1204.9251999999999
 21
1087.6252999999999
  0
LINE
  8
_0-0_LAYER001
  6
CONTINUOUS
 62
    4
 10
1204.9251999999999
 20
1087.6252999999999
 11
1208.4938999999999
 21
1088.9893
  0
LINE
  8
_0-0_LAYER001
  6
CONTINUOUS
 62
    4
 10
1208.4938999999999
 20
1088.9893
 11
1212.0791999999999
 21
1090.3743999999999
  0
LINE
  8
_0-0_LAYER001
  6
CONTINUOUS
 62
    4
 10
1212.0791999999999
 20
1090.3743999999999
 11
1215.6858999999999
 21
1091.7864
  0
LINE
  8
_0-0_LAYER001
  6
CONTINUOUS
 62
    4
 10
1215.6858999999999
 20
1091.7864
 11
1217.7895000000001
 21
1092.6199999999999
  0
LINE
  8
_0-0_LAYER001
  6
CONTINUOUS
 62
    4
 10
1217.7895000000001
 20
1092.6199999999999
 11
1219.8688
 21
1093.4487999999999
  0
LINE
  8
_0-0_LAYER001
  6
CONTINUOUS
 62
    4
 10
1219.8688
 20
1093.4487999999999
 11
1223.4753000000001
 21
1094.8503000000001
  0
LINE
  8
_0-0_LAYER001
  6
CONTINUOUS
 62
    4
 10
1223.4753000000001
 20
1094.8503000000001
 11
1227.1080999999999
 21
1096.133
  0
LINE
  8
_0-0_LAYER001
  6
CONTINUOUS
 62
    4
 10
1227.1080999999999
 20
1096.133
 11
1230.7660000000001
 21
1097.1995999999999
  0
LINE
  8
_0-0_LAYER001
  6
CONTINUOUS
 62
    4
 10
1230.7660000000001
 20
1097.1995999999999
 11
1234.4481000000001
 21
1097.9529
  0
LINE
  8
_0-0_LAYER001
  6
CONTINUOUS
 62
    4
 10
1234.4481000000001
 20
1097.9529
 11
1238.1533999999999
 21
1098.2954
  0
LINE
  8
_0-0_LAYER001
  6
CONTINUOUS
 62
    4
 10
1238.1533999999999
 20
1098.2954
 11
1240.3126999999999
 21
1098.2674999999999
  0
LINE
  8
_0-0_LAYER001
  6
CONTINUOUS
 62
    4
 10
1240.3126999999999
 20
1098.2674999999999
 11
1241.1619000000001
 21
1098.2061000000001
  0
LINE
  8
_0-0_LAYER001
  6
CONTINUOUS
 62
    4
 10
1241.1619000000001
 20
1098.2061000000001
 11
1242.6261999999999
 21
1098.0355
  0
LINE
  8
_0-0_LAYER001
  6
CONTINUOUS
 62
    4
 10
1242.6261999999999
 20
1098.0355
 11
1244.0872999999999
 21
1097.7888
  0
LINE
  8
_0-0_LAYER001
  6
CONTINUOUS
 62
    4
 10
1244.0872999999999
 20
1097.7888
 11
1245.5409999999999
 21
1097.4728
  0
LINE
  8
_0-0_LAYER001
  6
CONTINUOUS
 62
    4
 10
1245.5409999999999
 20
1097.4728
 11
1246.9830999999999
 21
1097.0943
  0
LINE
  8
_0-0_LAYER001
  6
CONTINUOUS
 62
    4
 10
1246.9830999999999
 20
1097.0943
 11
1248.4095
 21
1096.6601000000001
  0
LINE
  8
_0-0_LAYER001
  6
CONTINUOUS
 62
    4
 10
1248.4095
 20
1096.6601000000001
 11
1249.2280000000001
 21
1096.3855000000001
  0
LINE
  8
_0-0_LAYER001
  6
CONTINUOUS
 62
    4
 10
1249.2280000000001
 20
1096.3855000000001
 11
1251.7263
 21
1095.4373000000001
  0
LINE
  8
_0-0_LAYER001
  6
CONTINUOUS
 62
    4
 10
1251.7263
 20
1095.4373000000001
 11
1255.8851999999999
 21
1093.5038
  0
LINE
  8
_0-0_LAYER001
  6
CONTINUOUS
 62
    4
 10
1255.8851999999999
 20
1093.5038
 11
1259.8889999999999
 21
1091.2583999999999
  0
LINE
  8
_0-0_LAYER001
  6
CONTINUOUS
 62
    4
 10
1259.8889999999999
 20
1091.2583999999999
 11
1263.7759000000001
 21
1088.7781
  0
LINE
  8
_0-0_LAYER001
  6
CONTINUOUS
 62
    4
 10
1263.7759000000001
 20
1088.7781
 11
1267.5839000000001
 21
1086.1400000000001
  0
LINE
  8
_0-0_LAYER001
  6
CONTINUOUS
 62
    4
 10
1267.5839000000001
 20
1086.1400000000001
 11
1271.3511000000001
 21
1083.4209000000001
  0
LINE
  8
_0-0_LAYER001
  6
CONTINUOUS
 62
    4
 10
1271.3511000000001
 20
1083.4209000000001
 11
1273.5325
 21
1081.8371
  0
LINE
  8
_0-0_LAYER001
  6
CONTINUOUS
 62
    4
 10
1273.5325
 20
1081.8371
 11
1276.864
 21
1079.4502
  0
LINE
  8
_0-0_LAYER001
  6
CONTINUOUS
 62
    4
 10
1276.864
 20
1079.4502
 11
1282.6563000000001
 21
1075.4332999999999
  0
LINE
  8
_0-0_LAYER001
  6
CONTINUOUS
 62
    4
 10
1282.6563000000001
 20
1075.4332999999999
 11
1288.5283999999999
 21
1071.5767000000001
  0
LINE
  8
_0-0_LAYER001
  6
CONTINUOUS
 62
    4
 10
1288.5283999999999
 20
1071.5767000000001
 11
1294.5026000000003
 21
1067.9222
  0
LINE
  8
_0-0_LAYER001
  6
CONTINUOUS
 62
    4
 10
1294.5026000000003
 20
1067.9222
 11
1300.6007999999999
 21
1064.5117
  0
LINE
  8
_0-0_LAYER001
  6
CONTINUOUS
 62
    4
 10
1300.6007999999999
 20
1064.5117
 11
1306.8451
 21
1061.3869
  0
LINE
  8
_0-0_LAYER001
  6
CONTINUOUS
 62
    4
 10
1306.8451
 20
1061.3869
 11
1310.5423999999998
 21
1059.7219
  0
LINE
  8
_0-0_LAYER001
  6
CONTINUOUS
 62
    4
 10
1310.5423999999998
 20
1059.7219
 11
1313.6016
 21
1058.4508000000001
  0
LINE
  8
_0-0_LAYER001
  6
CONTINUOUS
 62
    4
 10
1313.6016
 20
1058.4508000000001
 11
1318.9621
 21
1056.4485999999999
  0
LINE
  8
_0-0_LAYER001
  6
CONTINUOUS
 62
    4
 10
1318.9621
 20
1056.4485999999999
 11
1324.4177999999999
 21
1054.6931
  0
LINE
  8
_0-0_LAYER001
  6
CONTINUOUS
 62
    4
 10
1324.4177999999999
 20
1054.6931
 11
1329.9528
 21
1053.1923999999999
  0
LINE
  8
_0-0_LAYER001
  6
CONTINUOUS
 62
    4
 10
1329.9528
 20
1053.1923999999999
 11
1335.5510999999999
 21
1051.9544000000001
  0
LINE
  8
_0-0_LAYER001
  6
CONTINUOUS
 62
    4
 10
1335.5510999999999
 20
1051.9544000000001
 11
1341.1967999999999
 21
1050.9871000000001
  0
LINE
  8
_0-0_LAYER001
  6
CONTINUOUS
 62
    4
 10
1341.1967999999999
 20
1050.9871000000001
 11
1344.4867999999999
 21
1050.5534
  0
LINE
  8
_0-0_LAYER001
  6
CONTINUOUS
 62
    4
 10
1344.4867999999999
 20
1050.5534
 11
1347.0061000000001
 21
1050.2855999999999
  0
LINE
  8
_0-0_LAYER001
  6
CONTINUOUS
 62
    4
 10
1347.0061000000001
 20
1050.2855999999999
 11
1351.3581999999999
 21
1049.9455
  0
LINE
  8
_0-0_LAYER001
  6
CONTINUOUS
 62
    4
 10
1351.3581999999999
 20
1049.9455
 11
1355.7184000000002
 21
1049.7461000000001
  0
LINE
  8
_0-0_LAYER001
  6
CONTINUOUS
 62
    4
 10
1355.7184000000002
 20
1049.7461000000001
 11
1360.0835999999999
 21
1049.6713999999999
  0
LINE
  8
_0-0_LAYER001
  6
CONTINUOUS
 62
    4
 10
1360.0835999999999
 20
1049.6713999999999
 11
1364.4507000000001
 21
1049.7058
  0
LINE
  8
_0-0_LAYER001
  6
CONTINUOUS
 62
    4
 10
1364.4507000000001
 20
1049.7058
 11
1368.8166000000001
 21
1049.8334
  0
LINE
  8
_0-0_LAYER001
  6
CONTINUOUS
 62
    4
 10
1368.8166000000001
 20
1049.8334
 11
1371.3471
 21
1049.9439
  0
LINE
  8
_0-0_LAYER001
  6
CONTINUOUS
 62
    4
 10
1371.3471
 20
1049.9439
 11
1376.0761
 21
1050.2121
  0
LINE
  8
_0-0_LAYER001
  6
CONTINUOUS
 62
    4
 10
1376.0761
 20
1050.2121
 11
1384.2143000000001
 21
1050.8430000000001
  0
LINE
  8
_0-0_LAYER001
  6
CONTINUOUS
 62
    4
 10
1384.2143000000001
 20
1050.8430000000001
 11
1392.3351
 21
1051.6569
  0
LINE
  8
_0-0_LAYER001
  6
CONTINUOUS
 62
    4
 10
1392.3351
 20
1051.6569
 11
1400.4409000000001
 21
1052.6181999999999
  0
LINE
  8
_0-0_LAYER001
  6
CONTINUOUS
 62
    4
 10
1400.4409000000001
 20
1052.6181999999999
 11
1408.5344
 21
1053.6913999999999
  0
LINE
  8
_0-0_LAYER001
  6
CONTINUOUS
 62
    4
 10
1408.5344
 20
1053.6913999999999
 11
1416.6179
 21
1054.8409999999999
  0
LINE
  8
_0-0_LAYER001
  6
CONTINUOUS
 62
    4
 10
1416.6179
 20
1054.8409999999999
 11
1421.3027999999999
 21
1055.5287000000001
  0
LINE
  8
_0-0_LAYER001
  6
CONTINUOUS
 62
    4
 10
1421.3027999999999
 20
1055.5287000000001
 11
1423.7376999999997
 21
1055.8896
  0
LINE
  8
_0-0_LAYER001
  6
CONTINUOUS
 62
    4
 10
1423.7376999999997
 20
1055.8896
 11
1427.9347000000002
 21
1056.5155999999999
  0
LINE
  8
_0-0_LAYER001
  6
CONTINUOUS
 62
    4
 10
1427.9347000000002
 20
1056.5155999999999
 11
1432.1305000000002
 21
1057.1457
  0
LINE
  8
_0-0_LAYER001
  6
CONTINUOUS
 62
    4
 10
1432.1305000000002
 20
1057.1457
 11
1436.3253
 21
1057.779
  0
LINE
  8
_0-0_LAYER001
  6
CONTINUOUS
 62
    4
 10
1436.3253
 20
1057.779
 11
1440.5194999999999
 21
1058.4146000000001
  0
LINE
  8
_0-0_LAYER001
  6
CONTINUOUS
 62
    4
 10
1440.5194999999999
 20
1058.4146000000001
 11
1444.7132000000001
 21
1059.0515
  0
LINE
  8
_0-0_LAYER001
  6
CONTINUOUS
 62
    4
 10
1444.7132000000001
 20
1059.0515
 11
1447.1455000000001
 21
1059.4213
  0
LINE
  8
_0-0_LAYER001
  6
CONTINUOUS
 62
    4
 10
1202.1087
 20
1067.3177000000001
 11
1204.1705999999999
 21
1068.0944999999999
  0
LINE
  8
_0-0_LAYER001
  6
CONTINUOUS
 62
    4
 10
1204.1705999999999
 20
1068.0944999999999
 11
1207.7381
 21
1069.4411
  0
LINE
  8
_0-0_LAYER001
  6
CONTINUOUS
 62
    4
 10
1207.7381
 20
1069.4411
 11
1211.3299999999999
 21
1070.8033
  0
LINE
  8
_0-0_LAYER001
  6
CONTINUOUS
 62
    4
 10
1211.3299999999999
 20
1070.8033
 11
1214.9503999999999
 21
1072.1871000000001
  0
LINE
  8
_0-0_LAYER001
  6
CONTINUOUS
 62
    4
 10
1214.9503999999999
 20
1072.1871000000001
 11
1218.6034
 21
1073.5983000000001
  0
LINE
  8
_0-0_LAYER001
  6
CONTINUOUS
 62
    4
 10
1218.6034
 20
1073.5983000000001
 11
1222.2826
 21
1075.0387000000001
  0
LINE
  8
_0-0_LAYER001
  6
CONTINUOUS
 62
    4
 10
1222.2826
 20
1075.0387000000001
 11
1224.4377999999999
 21
1075.8927000000001
  0
LINE
  8
_0-0_LAYER001
  6
CONTINUOUS
 62
    4
 10
1224.4377999999999
 20
1075.8927000000001
 11
1226.4613999999999
 21
1076.6994
  0
LINE
  8
_0-0_LAYER001
  6
CONTINUOUS
 62
    4
 10
1226.4613999999999
 20
1076.6994
 11
1229.7331999999999
 21
1077.9708000000001
  0
LINE
  8
_0-0_LAYER001
  6
CONTINUOUS
 62
    4
 10
1229.7331999999999
 20
1077.9708000000001
 11
1232.6284000000001
 21
1078.9929999999999
  0
LINE
  8
_0-0_LAYER001
  6
CONTINUOUS
 62
    4
 10
1232.6284000000001
 20
1078.9929999999999
 11
1235.0965000000001
 21
1079.7127
  0
LINE
  8
_0-0_LAYER001
  6
CONTINUOUS
 62
    4
 10
1235.0965000000001
 20
1079.7127
 11
1237.0881999999999
 21
1080.1202000000001
  0
LINE
  8
_0-0_LAYER001
  6
CONTINUOUS
 62
    4
 10
1237.0881999999999
 20
1080.1202000000001
 11
1238.8675000000001
 21
1080.2846999999999
  0
LINE
  8
_0-0_LAYER001
  6
CONTINUOUS
 62
    4
 10
1238.8675000000001
 20
1080.2846999999999
 11
1239.5471
 21
1080.2759000000001
  0
LINE
  8
_0-0_LAYER001
  6
CONTINUOUS
 62
    4
 10
1239.5471
 20
1080.2759000000001
 11
1239.471
 21
1080.2814000000001
  0
LINE
  8
_0-0_LAYER001
  6
CONTINUOUS
 62
    4
 10
1239.471
 20
1080.2814000000001
 11
1240.0845999999999
 21
1080.2099000000001
  0
LINE
  8
_0-0_LAYER001
  6
CONTINUOUS
 62
    4
 10
1240.0845999999999
 20
1080.2099000000001
 11
1240.675
 21
1080.1102000000001
  0
LINE
  8
_0-0_LAYER001
  6
CONTINUOUS
 62
    4
 10
1240.675
 20
1080.1102000000001
 11
1241.3424
 21
1079.9650999999999
  0
LINE
  8
_0-0_LAYER001
  6
CONTINUOUS
 62
    4
 10
1241.3424
 20
1079.9650999999999
 11
1242.076
 21
1079.7726
  0
LINE
  8
_0-0_LAYER001
  6
CONTINUOUS
 62
    4
 10
1242.076
 20
1079.7726
 11
1242.9251999999999
 21
1079.5141000000001
  0
LINE
  8
_0-0_LAYER001
  6
CONTINUOUS
 62
    4
 10
1242.9251999999999
 20
1079.5141000000001
 11
1243.1693
 21
1079.4322
  0
LINE
  8
_0-0_LAYER001
  6
CONTINUOUS
 62
    4
 10
1243.1693
 20
1079.4322
 11
1244.7292
 21
1078.8400999999999
  0
LINE
  8
_0-0_LAYER001
  6
CONTINUOUS
 62
    4
 10
1244.7292
 20
1078.8400999999999
 11
1247.6768999999999
 21
1077.4697000000001
  0
LINE
  8
_0-0_LAYER001
  6
CONTINUOUS
 62
    4
 10
1247.6768999999999
 20
1077.4697000000001
 11
1250.6378999999999
 21
1075.8090999999999
  0
LINE
  8
_0-0_LAYER001
  6
CONTINUOUS
 62
    4
 10
1250.6378999999999
 20
1075.8090999999999
 11
1253.8055999999999
 21
1073.7878000000001
  0
LINE
  8
_0-0_LAYER001
  6
CONTINUOUS
 62
    4
 10
1253.8055999999999
 20
1073.7878000000001
 11
1257.1903
 21
1071.4428
  0
LINE
  8
_0-0_LAYER001
  6
CONTINUOUS
 62
    4
 10
1257.1903
 20
1071.4428
 11
1260.7961
 21
1068.8404
  0
LINE
  8
_0-0_LAYER001
  6
CONTINUOUS
 62
    4
 10
1260.7961
 20
1068.8404
 11
1263.0029999999999
 21
1067.2379000000001
  0
LINE
  8
_0-0_LAYER001
  6
CONTINUOUS
 62
    4
 10
1263.0029999999999
 20
1067.2379000000001
 11
1266.4929999999999
 21
1064.7375999999999
  0
LINE
  8
_0-0_LAYER001
  6
CONTINUOUS
 62
    4
 10
1266.4929999999999
 20
1064.7375999999999
 11
1272.5852
 21
1060.5127
  0
LINE
  8
_0-0_LAYER001
  6
CONTINUOUS
 62
    4
 10
1272.5852
 20
1060.5127
 11
1278.8888999999999
 21
1056.3725999999999
  0
LINE
  8
_0-0_LAYER001
  6
CONTINUOUS
 62
    4
 10
1278.8888999999999
 20
1056.3725999999999
 11
1285.4096
 21
1052.3838000000001
  0
LINE
  8
_0-0_LAYER001
  6
CONTINUOUS
 62
    4
 10
1285.4096
 20
1052.3838000000001
 11
1292.1756
 21
1048.5998
  0
LINE
  8
_0-0_LAYER001
  6
CONTINUOUS
 62
    4
 10
1292.1756
 20
1048.5998
 11
1299.1185999999998
 21
1045.1252999999999
  0
LINE
  8
_0-0_LAYER001
  6
CONTINUOUS
 62
    4
 10
1299.1185999999998
 20
1045.1252999999999
 11
1303.3920000000001
 21
1043.2009
  0
LINE
  8
_0-0_LAYER001
  6
CONTINUOUS
 62
    4
 10
1303.3920000000001
 20
1043.2009
 11
1306.9971
 21
1041.703
  0
LINE
  8
_0-0_LAYER001
  6
CONTINUOUS
 62
    4
 10
1306.9971
 20
1041.703
 11
1313.0531999999998
 21
1039.441
  0
LINE
  8
_0-0_LAYER001
  6
CONTINUOUS
 62
    4
 10
1313.0531999999998
 20
1039.441
 11
1319.3031000000001
 21
1037.4300000000001
  0
LINE
  8
_0-0_LAYER001
  6
CONTINUOUS
 62
    4
 10
1319.3031000000001
 20
1037.4300000000001
 11
1325.6518000000001
 21
1035.7085999999999
  0
LINE
  8
_0-0_LAYER001
  6
CONTINUOUS
 62
    4
 10
1325.6518000000001
 20
1035.7085999999999
 11
1332.0861
 21
1034.2856999999999
  0
LINE
  8
_0-0_LAYER001
  6
CONTINUOUS
 62
    4
 10
1332.0861
 20
1034.2856999999999
 11
1338.4998000000001
 21
1033.1869999999999
  0
LINE
  8
_0-0_LAYER001
  6
CONTINUOUS
 62
    4
 10
1338.4998000000001
 20
1033.1869999999999
 11
1342.3586
 21
1032.6782000000001
  0
LINE
  8
_0-0_LAYER001
  6
CONTINUOUS
 62
    4
 10
1342.3586
 20
1032.6782000000001
 11
1345.3532
 21
1032.3598
  0
LINE
  8
_0-0_LAYER001
  6
CONTINUOUS
 62
    4
 10
1345.3532
 20
1032.3598
 11
1350.2456000000002
 21
1031.9775999999999
  0
LINE
  8
_0-0_LAYER001
  6
CONTINUOUS
 62
    4
 10
1350.2456000000002
 20
1031.9775999999999
 11
1355.1532
 21
1031.7530999999999
  0
LINE
  8
_0-0_LAYER001
  6
CONTINUOUS
 62
    4
 10
1355.1532
 20
1031.7530999999999
 11
1360.0005000000001
 21
1031.6702
  0
LINE
  8
_0-0_LAYER001
  6
CONTINUOUS
 62
    4
 10
1360.0005000000001
 20
1031.6702
 11
1364.7844
 21
1031.7079000000001
  0
LINE
  8
_0-0_LAYER001
  6
CONTINUOUS
 62
    4
 10
1364.7844
 20
1031.7079000000001
 11
1369.4721
 21
1031.8449000000001
  0
LINE
  8
_0-0_LAYER001
  6
CONTINUOUS
 62
    4
 10
1369.4721
 20
1031.8449000000001
 11
1372.2492999999999
 21
1031.9661000000001
  0
LINE
  8
_0-0_LAYER001
  6
CONTINUOUS
 62
    4
 10
1372.2492999999999
 20
1031.9661000000001
 11
1377.2816
 21
1032.2515000000001
  0
LINE
  8
_0-0_LAYER001
  6
CONTINUOUS
 62
    4
 10
1377.2816
 20
1032.2515000000001
 11
1385.8077000000001
 21
1032.9126000000001
  0
LINE
  8
_0-0_LAYER001
  6
CONTINUOUS
 62
    4
 10
1385.8077000000001
 20
1032.9126000000001
 11
1394.2926
 21
1033.7628999999999
  0
LINE
  8
_0-0_LAYER001
  6
CONTINUOUS
 62
    4
 10
1394.2926
 20
1033.7628999999999
 11
1402.6839
 21
1034.7581
  0
LINE
  8
_0-0_LAYER001
  6
CONTINUOUS
 62
    4
 10
1402.6839
 20
1034.7581
 11
1410.9845999999998
 21
1035.8587
  0
LINE
  8
_0-0_LAYER001
  6
CONTINUOUS
 62
    4
 10
1410.9845999999998
 20
1035.8587
 11
1419.1923999999999
 21
1037.0260000000001
  0
LINE
  8
_0-0_LAYER001
  6
CONTINUOUS
 62
    4
 10
1419.1923999999999
 20
1037.0260000000001
 11
1423.9294999999997
 21
1037.7213999999999
  0
LINE
  8
_0-0_LAYER001
  6
CONTINUOUS
 62
    4
 10
1423.9294999999997
 20
1037.7213999999999
 11
1426.3849
 21
1038.0853
  0
LINE
  8
_0-0_LAYER001
  6
CONTINUOUS
 62
    4
 10
1426.3849
 20
1038.0853
 11
1430.5990000000002
 21
1038.7139
  0
LINE
  8
_0-0_LAYER001
  6
CONTINUOUS
 62
    4
 10
1430.5990000000002
 20
1038.7139
 11
1434.8105
 21
1039.3462999999999
  0
LINE
  8
_0-0_LAYER001
  6
CONTINUOUS
 62
    4
 10
1434.8105
 20
1039.3462999999999
 11
1439.0173
 21
1039.9813999999999
  0
LINE
  8
_0-0_LAYER001
  6
CONTINUOUS
 62
    4
 10
1439.0173
 20
1039.9813999999999
 11
1443.2195000000002
 21
1040.6181999999999
  0
LINE
  8
_0-0_LAYER001
  6
CONTINUOUS
 62
    4
 10
1443.2195000000002
 20
1040.6181999999999
 11
1447.4173999999998
 21
1041.2557999999999
  0
LINE
  8
_0-0_LAYER001
  6
CONTINUOUS
 62
    4
 10
1447.4173999999998
 20
1041.2557999999999
 11
1449.0351000000001
 21
1041.5017
  0
LINE
  8
_0-0_LAYER001
  6
CONTINUOUS
 62
    4
 10
1196.5798
 20
1084.4677999999999
 11
1197.0057999999999
 21
1084.6309000000001
  0
ARC
  8
_0-0_LAYER001
  6
CONTINUOUS
 62
    4
 10
1197.6523999999999
 20
1081.6660999999999
 40
3
 50
110.94902000000002
 51
178.70000000000002
  0
LINE
  8
_0-0_LAYER001
  6
CONTINUOUS
 62
    4
 10
1194.5438999999999
 20
1065.8951
 11
1194.5438999999999
 21
1081.6176
  0
LINE
  8
_0-0_LAYER001
  6
CONTINUOUS
 62
    4
 10
1195.8978999999999
 20
1064.9598000000001
 11
1202.0726999999999
 21
1067.297
  0
ARC
  8
_0-0_LAYER001
  6
CONTINUOUS
 62
    4
 10
1195.5438999999999
 20
1065.8951
 40
1
 50
180
 51
290.73165999999998
  0
LINE
  8
_0-0_LAYER001
  6
CONTINUOUS
 62
    4
 10
1459.5439000000001
 20
1044.5728999999999
 11
1459.5439000000001
 21
1061.7701999999999
  0
LINE
  8
_0-0_LAYER001
  6
CONTINUOUS
 62
    4
 10
1447.2703999999999
 20
1059.4567
 11
1491.7247000000002
 21
1069.1045999999999
  0
LINE
  8
_0-0_LAYER001
  6
CONTINUOUS
 62
    4
 10
1454.0156000000002
 20
1039.623
 11
1492.6873999999998
 21
1048.6729
  0
LINE
  8
_0-0_LAYER001
  6
CONTINUOUS
 62
    4
 10
1492.6873999999998
 20
1049.6294
 11
1492.6873999999998
 21
1048.6729
  0
ARC
  8
_0-0_LAYER001
  6
CONTINUOUS
 62
    4
 10
1493.6873999999998
 20
1049.6294
 40
1
 50
102.72435
 51
180
  0
LINE
  8
_0-0_LAYER001
  6
CONTINUOUS
 62
    4
 10
1498.5045
 20
1051.7422999999999
 11
1493.4672
 21
1050.6049
  0
ARC
  8
_0-0_LAYER001
  6
CONTINUOUS
 62
    4
 10
1498.7247000000002
 20
1050.7669000000001
 40
1
 50
0
 51
102.72435
  0
LINE
  8
_0-0_LAYER001
  6
CONTINUOUS
 62
    4
 10
1498.9367999999999
 20
1052.2508
 11
1448.8027999999999
 21
1041.3702000000001
  0
ARC
  8
_0-0_LAYER001
  6
CONTINUOUS
 62
    4
 10
1498.7247000000002
 20
1053.2280000000001
 40
1
 50
282.24497000000002
 51
0
  0
LINE
  8
_0-0_LAYER001
  6
CONTINUOUS
 62
    4
 10
1498.9425999999999
 20
1031.51
 11
1449.3586
 21
1020.4422
  0
LINE
  8
_0-0_LAYER001
  6
CONTINUOUS
 62
    4
 10
1499.7247000000002
 20
1032.4860000000001
 11
1499.7247000000002
 21
1050.7669000000001
  0
ARC
  8
_0-0_LAYER001
  6
CONTINUOUS
 62
    4
 10
1498.7247000000002
 20
1032.4860000000001
 40
1
 50
282.58296000000001
 51
0.0000000000000254
  0
LINE
  8
_0-0_LAYER001
  6
CONTINUOUS
 62
    4
 10
1491.7247000000002
 20
1070.5616
 11
1491.7247000000002
 21
1069.1045999999999
  0
ARC
  8
_0-0_LAYER001
  6
CONTINUOUS
 62
    4
 10
1492.7247000000002
 20
1070.5616
 40
1
 50
101.73308
 51
180
  0
LINE
  8
_0-0_LAYER001
  6
CONTINUOUS
 62
    4
 10
1498.5214000000001
 20
1072.7869000000001
 11
1492.5214000000001
 21
1071.5407
  0
LINE
  8
_0-0_LAYER001
  6
CONTINUOUS
 62
    4
 10
1499.7247000000002
 20
1071.8078
 11
1499.7247000000002
 21
1053.2280000000001
  0
ARC
  8
_0-0_LAYER001
  6
CONTINUOUS
 62
    4
 10
1498.7247000000002
 20
1071.8078
 40
1
 50
0
 51
101.73308
  0
LINE
  8
_0-0_LAYER001
  6
DASHED1
 62
    2
 10
1298.9356
 20
1044.326
 11
1314.9356
 21
1044.326
  0
LINE
  8
_0-0_LAYER001
  6
DASHED1
 62
    2
 10
1314.9356
 20
1044.326
 11
1314.9356
 21
1041.326
  0
LINE
  8
_0-0_LAYER001
  6
DASHED1
 62
    2
 10
1298.9356
 20
1044.326
 11
1298.9356
 21
1041.326
  0
LINE
  8
_0-0_LAYER001
  6
DASHED1
 62
    2
 10
1298.9356
 20
1041.326
 11
1314.9356
 21
1041.326
  0
LINE
  8
_0-0_LAYER001
  6
DASHED1
 62
    2
 10
1309.9356
 20
986.42990000000009
 11
1306.8853999999999
 21
971.92100000000005
  0
LINE
  8
_0-0_LAYER001
  6
DASHED1
 62
    2
 10
1309.9356
 20
1041.326
 11
1309.9356
 21
986.42990000000009
  0
LINE
  8
_0-0_LAYER001
  6
DASHED1
 62
    2
 10
1306.8853999999999
 20
971.92100000000005
 11
1303.9356
 21
986.17849999999999
  0
LINE
  8
_0-0_LAYER001
  6
DASHED1
 62
    2
 10
1303.9356
 20
1041.326
 11
1303.9356
 21
986.17849999999999
  0
LINE
  8
_0-0_LAYER001
  6
DASHED1
 62
    2
 10
1563.9418000000001
 20
1041.5947000000001
 11
1579.9418000000001
 21
1041.5947000000001
  0
LINE
  8
_0-0_LAYER001
  6
DASHED1
 62
    2
 10
1579.9418000000001
 20
1041.5947000000001
 11
1579.9418000000001
 21
1038.5947000000001
  0
LINE
  8
_0-0_LAYER001
  6
DASHED1
 62
    2
 10
1563.9418000000001
 20
1041.5947000000001
 11
1563.9418000000001
 21
1038.5947000000001
  0
LINE
  8
_0-0_LAYER001
  6
DASHED1
 62
    2
 10
1563.9418000000001
 20
1038.5947000000001
 11
1579.9418000000001
 21
1038.5947000000001
  0
LINE
  8
_0-0_LAYER001
  6
DASHED1
 62
    2
 10
1574.9418000000001
 20
983.69859999999994
 11
1571.8915999999999
 21
969.1896999999999
  0
LINE
  8
_0-0_LAYER001
  6
DASHED1
 62
    2
 10
1574.9418000000001
 20
1038.5947000000001
 11
1574.9418000000001
 21
983.69859999999994
  0
LINE
  8
_0-0_LAYER001
  6
DASHED1
 62
    2
 10
1571.8915999999999
 20
969.1896999999999
 11
1568.9418000000001
 21
983.44720000000007
  0
LINE
  8
_0-0_LAYER001
  6
DASHED1
 62
    2
 10
1568.9418000000001
 20
1038.5947000000001
 11
1568.9418000000001
 21
983.44720000000007
  0
LINE
  8
_0-0_LAYER001
  6
CONTINUOUS
 62
    4
 10
1194.367
 20
1041.7058
 11
1194.367
 21
1058.9032
  0
LINE
  8
_0-0_LAYER001
  6
CONTINUOUS
 62
    4
 10
1054.6404
 20
997.86640000000011
 11
1046.1049
 21
1012.3997999999999
  0
LINE
  8
_0-0_LAYER001
  6
CONTINUOUS
 62
    4
 10
1062.8082999999999
 20
997.2161000000001
 11
1071.1144999999999
 21
1007.2816
  0
ARC
  8
_0-0_LAYER001
  6
CONTINUOUS
 62
    4
 10
1058.9518
 20
1000.3985
 40
5
 50
210.42578
 51
320.47001
  0
LINE
  8
_0-0_LAYER001
  6
CONTINUOUS
 62
    4
 10
1138.7538999999999
 20
996.74630000000002
 11
1131.4285
 21
1008.0523000000001
  0
LINE
  8
_0-0_LAYER001
  6
CONTINUOUS
 62
    4
 10
1147.2634
 20
996.9362000000001
 11
1156.2019
 21
1012.1819
  0
ARC
  8
_0-0_LAYER001
  6
CONTINUOUS
 62
    4
 10
1142.9501
 20
999.46509999999989
 40
5
 50
212.93986000000001
 51
329.61716000000001
  0
LINE
  8
_0-0_LAYER001
  6
CONTINUOUS
 62
    4
 10
1186.5454999999999
 20
1036.4938
 11
1188.9736
 21
1036.8977
  0
LINE
  8
_0-0_LAYER001
  6
CONTINUOUS
 62
    4
 10
1182.3563999999999
 20
1035.7976000000001
 11
1186.5454999999999
 21
1036.4938
  0
LINE
  8
_0-0_LAYER001
  6
CONTINUOUS
 62
    4
 10
1178.1626000000001
 20
1035.1020000000001
 11
1182.3563999999999
 21
1035.7976000000001
  0
LINE
  8
_0-0_LAYER001
  6
CONTINUOUS
 62
    4
 10
1173.9638
 20
1034.4079999999999
 11
1178.1626000000001
 21
1035.1020000000001
  0
LINE
  8
_0-0_LAYER001
  6
CONTINUOUS
 62
    4
 10
1169.7598
 20
1033.7166
 11
1173.9638
 21
1034.4079999999999
  0
LINE
  8
_0-0_LAYER001
  6
CONTINUOUS
 62
    4
 10
1165.5530000000001
 20
1033.0289
 11
1169.7598
 21
1033.7166
  0
LINE
  8
_0-0_LAYER001
  6
CONTINUOUS
 62
    4
 10
1163.1007
 20
1032.6304
 11
1165.5530000000001
 21
1033.0289
  0
LINE
  8
_0-0_LAYER001
  6
CONTINUOUS
 62
    4
 10
1158.3679
 20
1031.8679
 11
1163.1007
 21
1032.6304
  0
LINE
  8
_0-0_LAYER001
  6
CONTINUOUS
 62
    4
 10
1150.1635000000001
 20
1030.5841
 11
1158.3679
 21
1031.8679
  0
LINE
  8
_0-0_LAYER001
  6
CONTINUOUS
 62
    4
 10
1141.856
 20
1029.3642
 11
1150.1635000000001
 21
1030.5841
  0
LINE
  8
_0-0_LAYER001
  6
CONTINUOUS
 62
    4
 10
1133.4476999999999
 20
1028.2479000000001
 11
1141.856
 21
1029.3642
  0
LINE
  8
_0-0_LAYER001
  6
CONTINUOUS
 62
    4
 10
1124.9350999999999
 20
1027.2745
 11
1133.4476999999999
 21
1028.2479000000001
  0
LINE
  8
_0-0_LAYER001
  6
CONTINUOUS
 62
    4
 10
1116.376
 20
1026.4905000000001
 11
1124.9350999999999
 21
1027.2745
  0
LINE
  8
_0-0_LAYER001
  6
CONTINUOUS
 62
    4
 10
1111.3145
 20
1026.1324999999999
 11
1116.376
 21
1026.4905000000001
  0
LINE
  8
_0-0_LAYER001
  6
CONTINUOUS
 62
    4
 10
1108.5119
 20
1025.9709
 11
1111.3145
 21
1026.1324999999999
  0
LINE
  8
_0-0_LAYER001
  6
CONTINUOUS
 62
    4
 10
1103.7909
 20
1025.7669000000001
 11
1108.5119
 21
1025.9709
  0
LINE
  8
_0-0_LAYER001
  6
CONTINUOUS
 62
    4
 10
1098.9616000000001
 20
1025.6614999999999
 11
1103.7909
 21
1025.7669000000001
  0
LINE
  8
_0-0_LAYER001
  6
CONTINUOUS
 62
    4
 10
1094.0599999999999
 20
1025.6768
 11
1098.9616000000001
 21
1025.6614999999999
  0
LINE
  8
_0-0_LAYER001
  6
CONTINUOUS
 62
    4
 10
1089.0889999999999
 20
1025.8347000000001
 11
1094.0599999999999
 21
1025.6768
  0
LINE
  8
_0-0_LAYER001
  6
CONTINUOUS
 62
    4
 10
1084.1315999999999
 20
1026.1524999999999
 11
1089.0889999999999
 21
1025.8347000000001
  0
LINE
  8
_0-0_LAYER001
  6
CONTINUOUS
 62
    4
 10
1081.0799
 20
1026.4339
 11
1084.1315999999999
 21
1026.1524999999999
  0
LINE
  8
_0-0_LAYER001
  6
CONTINUOUS
 62
    4
 10
1077.1511
 20
1026.8960999999999
 11
1081.0799
 21
1026.4339
  0
LINE
  8
_0-0_LAYER001
  6
CONTINUOUS
 62
    4
 10
1070.6370999999999
 20
1027.9186999999999
 11
1077.1511
 21
1026.8960999999999
  0
LINE
  8
_0-0_LAYER001
  6
CONTINUOUS
 62
    4
 10
1064.0905
 20
1029.2708
 11
1070.6370999999999
 21
1027.9186999999999
  0
LINE
  8
_0-0_LAYER001
  6
CONTINUOUS
 62
    4
 10
1057.6276
 20
1030.9267
 11
1064.0905
 21
1029.2708
  0
LINE
  8
_0-0_LAYER001
  6
CONTINUOUS
 62
    4
 10
1051.2616
 20
1032.8774000000001
 11
1057.6276
 21
1030.9267
  0
LINE
  8
_0-0_LAYER001
  6
CONTINUOUS
 62
    4
 10
1045.0969
 20
1035.0824
 11
1051.2616
 21
1032.8774000000001
  0
LINE
  8
_0-0_LAYER001
  6
CONTINUOUS
 62
    4
 10
1041.4102
 20
1036.5541000000001
 11
1045.0969
 21
1035.0824
  0
LINE
  8
_0-0_LAYER001
  6
CONTINUOUS
 62
    4
 10
1037.0459000000001
 20
1038.4466
 11
1041.4102
 21
1036.5541000000001
  0
LINE
  8
_0-0_LAYER001
  6
CONTINUOUS
 62
    4
 10
1029.9768999999999
 20
1041.8616
 11
1037.0459000000001
 21
1038.4466
  0
LINE
  8
_0-0_LAYER001
  6
CONTINUOUS
 62
    4
 10
1023.0840000000001
 20
1045.5912000000001
 11
1029.9768999999999
 21
1041.8616
  0
LINE
  8
_0-0_LAYER001
  6
CONTINUOUS
 62
    4
 10
1016.4469999999999
 20
1049.5248999999999
 11
1023.0840000000001
 21
1045.5912000000001
  0
LINE
  8
_0-0_LAYER001
  6
CONTINUOUS
 62
    4
 10
1010.0377000000001
 20
1053.6074000000001
 11
1016.4469999999999
 21
1049.5248999999999
  0
LINE
  8
_0-0_LAYER001
  6
CONTINUOUS
 62
    4
 10
1003.8534999999999
 20
1057.7695000000001
 11
1010.0377000000001
 21
1053.6074000000001
  0
LINE
  8
_0-0_LAYER001
  6
CONTINUOUS
 62
    4
 10
1000.3110999999999
 20
1060.2331999999999
 11
1003.8534999999999
 21
1057.7695000000001
  0
LINE
  8
_0-0_LAYER001
  6
CONTINUOUS
 62
    4
 10
998.07909999999993
 20
1061.8067000000001
 11
1000.3110999999999
 21
1060.2331999999999
  0
LINE
  8
_0-0_LAYER001
  6
CONTINUOUS
 62
    4
 10
994.45550000000003
 20
1064.3459
 11
998.07909999999993
 21
1061.8067000000001
  0
LINE
  8
_0-0_LAYER001
  6
CONTINUOUS
 62
    4
 10
991.08590000000004
 20
1066.6114
 11
994.45550000000003
 21
1064.3459
  0
LINE
  8
_0-0_LAYER001
  6
CONTINUOUS
 62
    4
 10
987.97090000000003
 20
1068.5383999999999
 11
991.08590000000004
 21
1066.6114
  0
LINE
  8
_0-0_LAYER001
  6
CONTINUOUS
 62
    4
 10
985.10369999999989
 20
1070.0942
 11
987.97090000000003
 21
1068.5383999999999
  0
LINE
  8
_0-0_LAYER001
  6
CONTINUOUS
 62
    4
 10
982.27260000000001
 20
1071.3625999999999
 11
985.10369999999989
 21
1070.0942
  0
LINE
  8
_0-0_LAYER001
  6
CONTINUOUS
 62
    4
 10
980.8094000000001
 20
1071.8947000000001
 11
982.27260000000001
 21
1071.3625999999999
  0
LINE
  8
_0-0_LAYER001
  6
CONTINUOUS
 62
    4
 10
980.62830000000008
 20
1071.9527
 11
980.8094000000001
 21
1071.8947000000001
  0
LINE
  8
_0-0_LAYER001
  6
CONTINUOUS
 62
    4
 10
979.83999999999992
 20
1072.1806999999999
 11
980.62830000000008
 21
1071.9527
  0
LINE
  8
_0-0_LAYER001
  6
CONTINUOUS
 62
    4
 10
979.18280000000004
 20
1072.3434
 11
979.83999999999992
 21
1072.1806999999999
  0
LINE
  8
_0-0_LAYER001
  6
CONTINUOUS
 62
    4
 10
978.60100000000011
 20
1072.4612999999999
 11
979.18280000000004
 21
1072.3434
  0
LINE
  8
_0-0_LAYER001
  6
CONTINUOUS
 62
    4
 10
978.56099999999992
 20
1072.4675
 11
978.60100000000011
 21
1072.4612999999999
  0
LINE
  8
_0-0_LAYER001
  6
CONTINUOUS
 62
    4
 10
1182.5347999999999
 20
1017.3063
 11
1184.1489999999999
 21
1017.5748000000001
  0
LINE
  8
_0-0_LAYER001
  6
CONTINUOUS
 62
    4
 10
1178.3462999999999
 20
1016.6102000000001
 11
1182.5347999999999
 21
1017.3063
  0
LINE
  8
_0-0_LAYER001
  6
CONTINUOUS
 62
    4
 10
1174.1533999999999
 20
1015.9147
 11
1178.3462999999999
 21
1016.6102000000001
  0
LINE
  8
_0-0_LAYER001
  6
CONTINUOUS
 62
    4
 10
1169.9558999999999
 20
1015.221
 11
1174.1533999999999
 21
1015.9147
  0
LINE
  8
_0-0_LAYER001
  6
CONTINUOUS
 62
    4
 10
1165.7536
 20
1014.5298
 11
1169.9558999999999
 21
1015.221
  0
LINE
  8
_0-0_LAYER001
  6
CONTINUOUS
 62
    4
 10
1161.5487000000001
 20
1013.8425
 11
1165.7536
 21
1014.5298
  0
LINE
  8
_0-0_LAYER001
  6
CONTINUOUS
 62
    4
 10
1159.0986
 20
1013.4443000000001
 11
1161.5487000000001
 21
1013.8425
  0
LINE
  8
_0-0_LAYER001
  6
CONTINUOUS
 62
    4
 10
1154.3716999999999
 20
1012.6828
 11
1159.0986
 21
1013.4443000000001
  0
LINE
  8
_0-0_LAYER001
  6
CONTINUOUS
 62
    4
 10
1146.181
 20
1011.4011
 11
1154.3716999999999
 21
1012.6828
  0
LINE
  8
_0-0_LAYER001
  6
CONTINUOUS
 62
    4
 10
1137.8965000000001
 20
1010.1846
 11
1146.181
 21
1011.4011
  0
LINE
  8
_0-0_LAYER001
  6
CONTINUOUS
 62
    4
 10
1129.5199
 20
1009.0724
 11
1137.8965000000001
 21
1010.1846
  0
LINE
  8
_0-0_LAYER001
  6
CONTINUOUS
 62
    4
 10
1121.0477000000001
 20
1008.1036999999999
 11
1129.5199
 21
1009.0724
  0
LINE
  8
_0-0_LAYER001
  6
CONTINUOUS
 62
    4
 10
1112.5316
 20
1007.3235999999999
 11
1121.0477000000001
 21
1008.1036999999999
  0
LINE
  8
_0-0_LAYER001
  6
CONTINUOUS
 62
    4
 10
1107.5038
 20
1006.9680000000001
 11
1112.5316
 21
1007.3235999999999
  0
LINE
  8
_0-0_LAYER001
  6
CONTINUOUS
 62
    4
 10
1104.7285999999999
 20
1006.808
 11
1107.5038
 21
1006.9680000000001
  0
LINE
  8
_0-0_LAYER001
  6
CONTINUOUS
 62
    4
 10
1100.0433
 20
1006.6056000000001
 11
1104.7285999999999
 21
1006.808
  0
LINE
  8
_0-0_LAYER001
  6
CONTINUOUS
 62
    4
 10
1095.2602999999999
 20
1006.5011
 11
1100.0433
 21
1006.6056000000001
  0
LINE
  8
_0-0_LAYER001
  6
CONTINUOUS
 62
    4
 10
1090.4123
 20
1006.5163
 11
1095.2602999999999
 21
1006.5011
  0
LINE
  8
_0-0_LAYER001
  6
CONTINUOUS
 62
    4
 10
1085.5020999999999
 20
1006.6723
 11
1090.4123
 21
1006.5163
  0
LINE
  8
_0-0_LAYER001
  6
CONTINUOUS
 62
    4
 10
1080.6048000000001
 20
1006.9862000000001
 11
1085.5020999999999
 21
1006.6723
  0
LINE
  8
_0-0_LAYER001
  6
CONTINUOUS
 62
    4
 10
1077.6061
 20
1007.2627
 11
1080.6048000000001
 21
1006.9862000000001
  0
LINE
  8
_0-0_LAYER001
  6
CONTINUOUS
 62
    4
 10
1073.7405000000001
 20
1007.7175
 11
1077.6061
 21
1007.2627
  0
LINE
  8
_0-0_LAYER001
  6
CONTINUOUS
 62
    4
 10
1067.3121000000001
 20
1008.7266999999999
 11
1073.7405000000001
 21
1007.7175
  0
LINE
  8
_0-0_LAYER001
  6
CONTINUOUS
 62
    4
 10
1060.8586
 20
1010.0595000000001
 11
1067.3121000000001
 21
1008.7266999999999
  0
LINE
  8
_0-0_LAYER001
  6
CONTINUOUS
 62
    4
 10
1054.4865
 20
1011.6922
 11
1060.8586
 21
1010.0595000000001
  0
LINE
  8
_0-0_LAYER001
  6
CONTINUOUS
 62
    4
 10
1048.2091
 20
1013.6157000000001
 11
1054.4865
 21
1011.6922
  0
LINE
  8
_0-0_LAYER001
  6
CONTINUOUS
 62
    4
 10
1042.1221
 20
1015.7928999999999
 11
1048.2091
 21
1013.6157000000001
  0
LINE
  8
_0-0_LAYER001
  6
CONTINUOUS
 62
    4
 10
1038.4964
 20
1017.2402999999999
 11
1042.1221
 21
1015.7928999999999
  0
LINE
  8
_0-0_LAYER001
  6
CONTINUOUS
 62
    4
 10
1034.1965
 20
1019.1049
 11
1038.4964
 21
1017.2402999999999
  0
LINE
  8
_0-0_LAYER001
  6
CONTINUOUS
 62
    4
 10
1027.2057
 20
1022.4820999999999
 11
1034.1965
 21
1019.1049
  0
LINE
  8
_0-0_LAYER001
  6
CONTINUOUS
 62
    4
 10
1020.3875
 20
1026.1713
 11
1027.2057
 21
1022.4820999999999
  0
LINE
  8
_0-0_LAYER001
  6
CONTINUOUS
 62
    4
 10
1013.8117999999999
 20
1030.0686000000001
 11
1020.3875
 21
1026.1713
  0
LINE
  8
_0-0_LAYER001
  6
CONTINUOUS
 62
    4
 10
1007.4508000000001
 20
1034.1203
 11
1013.8117999999999
 21
1030.0686000000001
  0
LINE
  8
_0-0_LAYER001
  6
CONTINUOUS
 62
    4
 10
1001.3003000000001
 20
1038.2597000000001
 11
1007.4508000000001
 21
1034.1203
  0
LINE
  8
_0-0_LAYER001
  6
CONTINUOUS
 62
    4
 10
997.77569999999992
 20
1040.7111
 11
1001.3003000000001
 21
1038.2597000000001
  0
LINE
  8
_0-0_LAYER001
  6
CONTINUOUS
 62
    4
 10
995.5465999999999
 20
1042.2825
 11
997.77569999999992
 21
1040.7111
  0
LINE
  8
_0-0_LAYER001
  6
CONTINUOUS
 62
    4
 10
991.9049
 20
1044.8344
 11
995.5465999999999
 21
1042.2825
  0
LINE
  8
_0-0_LAYER001
  6
CONTINUOUS
 62
    4
 10
988.48780000000011
 20
1047.1319000000001
 11
991.9049
 21
1044.8344
  0
LINE
  8
_0-0_LAYER001
  6
CONTINUOUS
 62
    4
 10
985.29209999999989
 20
1049.1088
 11
988.48780000000011
 21
1047.1319000000001
  0
LINE
  8
_0-0_LAYER001
  6
CONTINUOUS
 62
    4
 10
982.30819999999994
 20
1050.7279000000001
 11
985.29209999999989
 21
1049.1088
  0
LINE
  8
_0-0_LAYER001
  6
CONTINUOUS
 62
    4
 10
979.34159999999997
 20
1052.057
 11
982.30819999999994
 21
1050.7279000000001
  0
LINE
  8
_0-0_LAYER001
  6
CONTINUOUS
 62
    4
 10
978.59169999999995
 20
1052.3298
 11
979.34159999999997
 21
1052.057
  0
LINE
  8
_0-0_LAYER001
  6
CONTINUOUS
 62
    4
 10
978.92470000000003
 20
1072.3729000000001
 11
978.7487000000001
 21
1052.1994999999999
  0
LINE
  8
_0-0_LAYER001
  6
CONTINUOUS
 62
    4
 10
1179.2503999999999
 20
1006.8851
 11
1177.0048999999999
 21
1015.4585
  0
ARC
  8
_0-0_LAYER001
  6
CONTINUOUS
 62
    4
 10
1182.1524999999999
 20
1007.6451999999999
 40
3
 50
194.67639000000003
 51
270.00000000000006
  0
LINE
  8
_0-0_LAYER001
  6
CONTINUOUS
 62
    4
 10
1185.595
 20
1004.6409000000001
 11
1182.1771000000001
 21
1004.6409000000001
  0
LINE
  8
_0-0_LAYER001
  6
CONTINUOUS
 62
    4
 10
1188.5541000000001
 20
1007.1477
 11
1190.4882
 21
1018.7518
  0
ARC
  8
_0-0_LAYER001
  6
CONTINUOUS
 62
    4
 10
1185.595
 20
1007.6409000000001
 40
3
 50
270
 51
350.53766999999999
  0
LINE
  8
_0-0_LAYER001
  6
CONTINUOUS
 62
    4
 10
931.82860000000005
 20
1081.7630999999999
 11
932.64249999999993
 21
1082.0697
  0
LINE
  8
_0-0_LAYER001
  6
CONTINUOUS
 62
    4
 10
932.64249999999993
 20
1082.0697
 11
936.19170000000008
 21
1083.4093
  0
LINE
  8
_0-0_LAYER001
  6
CONTINUOUS
 62
    4
 10
936.19170000000008
 20
1083.4093
 11
939.74839999999995
 21
1084.7582
  0
LINE
  8
_0-0_LAYER001
  6
CONTINUOUS
 62
    4
 10
939.74839999999995
 20
1084.7582
 11
943.31700000000001
 21
1086.1222
  0
LINE
  8
_0-0_LAYER001
  6
CONTINUOUS
 62
    4
 10
943.31700000000001
 20
1086.1222
 11
946.90239999999994
 21
1087.5073
  0
LINE
  8
_0-0_LAYER001
  6
CONTINUOUS
 62
    4
 10
946.90239999999994
 20
1087.5073
 11
950.50909999999999
 21
1088.9193
  0
LINE
  8
_0-0_LAYER001
  6
CONTINUOUS
 62
    4
 10
950.50909999999999
 20
1088.9193
 11
952.61259999999993
 21
1089.7529
  0
LINE
  8
_0-0_LAYER001
  6
CONTINUOUS
 62
    4
 10
952.61259999999993
 20
1089.7529
 11
954.69200000000001
 21
1090.5817999999999
  0
LINE
  8
_0-0_LAYER001
  6
CONTINUOUS
 62
    4
 10
954.69200000000001
 20
1090.5817999999999
 11
958.2985000000001
 21
1091.9831999999999
  0
LINE
  8
_0-0_LAYER001
  6
CONTINUOUS
 62
    4
 10
958.2985000000001
 20
1091.9831999999999
 11
961.93119999999999
 21
1093.2659000000001
  0
LINE
  8
_0-0_LAYER001
  6
CONTINUOUS
 62
    4
 10
961.93119999999999
 20
1093.2659000000001
 11
965.58919999999989
 21
1094.3326
  0
LINE
  8
_0-0_LAYER001
  6
CONTINUOUS
 62
    4
 10
965.58919999999989
 20
1094.3326
 11
969.27130000000011
 21
1095.0858000000001
  0
LINE
  8
_0-0_LAYER001
  6
CONTINUOUS
 62
    4
 10
969.27130000000011
 20
1095.0858000000001
 11
972.97659999999996
 21
1095.4283
  0
LINE
  8
_0-0_LAYER001
  6
CONTINUOUS
 62
    4
 10
972.97659999999996
 20
1095.4283
 11
975.13580000000002
 21
1095.4004
  0
LINE
  8
_0-0_LAYER001
  6
CONTINUOUS
 62
    4
 10
975.13580000000002
 20
1095.4004
 11
975.9849999999999
 21
1095.3389999999999
  0
LINE
  8
_0-0_LAYER001
  6
CONTINUOUS
 62
    4
 10
975.9849999999999
 20
1095.3389999999999
 11
977.44929999999999
 21
1095.1685
  0
LINE
  8
_0-0_LAYER001
  6
CONTINUOUS
 62
    4
 10
977.44929999999999
 20
1095.1685
 11
978.91039999999998
 21
1094.9217000000001
  0
LINE
  8
_0-0_LAYER001
  6
CONTINUOUS
 62
    4
 10
978.91039999999998
 20
1094.9217000000001
 11
980.36410000000001
 21
1094.6057000000001
  0
LINE
  8
_0-0_LAYER001
  6
CONTINUOUS
 62
    4
 10
980.36410000000001
 20
1094.6057000000001
 11
981.80629999999996
 21
1094.2272
  0
LINE
  8
_0-0_LAYER001
  6
CONTINUOUS
 62
    4
 10
981.80629999999996
 20
1094.2272
 11
983.23270000000002
 21
1093.7931000000001
  0
LINE
  8
_0-0_LAYER001
  6
CONTINUOUS
 62
    4
 10
983.23270000000002
 20
1093.7931000000001
 11
984.05120000000011
 21
1093.5184999999999
  0
LINE
  8
_0-0_LAYER001
  6
CONTINUOUS
 62
    4
 10
984.05120000000011
 20
1093.5184999999999
 11
986.54940000000011
 21
1092.5702000000001
  0
LINE
  8
_0-0_LAYER001
  6
CONTINUOUS
 62
    4
 10
986.54940000000011
 20
1092.5702000000001
 11
990.70830000000001
 21
1090.6367
  0
LINE
  8
_0-0_LAYER001
  6
CONTINUOUS
 62
    4
 10
990.70830000000001
 20
1090.6367
 11
994.71209999999996
 21
1088.3913
  0
LINE
  8
_0-0_LAYER001
  6
CONTINUOUS
 62
    4
 10
994.71209999999996
 20
1088.3913
 11
998.59899999999993
 21
1085.9110000000001
  0
LINE
  8
_0-0_LAYER001
  6
CONTINUOUS
 62
    4
 10
998.59899999999993
 20
1085.9110000000001
 11
1002.4069999999999
 21
1083.2728999999999
  0
LINE
  8
_0-0_LAYER001
  6
CONTINUOUS
 62
    4
 10
1002.4069999999999
 20
1083.2728999999999
 11
1006.1742999999999
 21
1080.5537999999999
  0
LINE
  8
_0-0_LAYER001
  6
CONTINUOUS
 62
    4
 10
1006.1742999999999
 20
1080.5537999999999
 11
1008.3556000000001
 21
1078.97
  0
LINE
  8
_0-0_LAYER001
  6
CONTINUOUS
 62
    4
 10
1008.3556000000001
 20
1078.97
 11
1011.6872000000001
 21
1076.5832
  0
LINE
  8
_0-0_LAYER001
  6
CONTINUOUS
 62
    4
 10
1011.6872000000001
 20
1076.5832
 11
1017.4793999999999
 21
1072.5662
  0
LINE
  8
_0-0_LAYER001
  6
CONTINUOUS
 62
    4
 10
1017.4793999999999
 20
1072.5662
 11
1023.3516
 21
1068.7095999999999
  0
LINE
  8
_0-0_LAYER001
  6
CONTINUOUS
 62
    4
 10
1023.3516
 20
1068.7095999999999
 11
1029.3257000000001
 21
1065.0551
  0
LINE
  8
_0-0_LAYER001
  6
CONTINUOUS
 62
    4
 10
1029.3257000000001
 20
1065.0551
 11
1035.4239
 21
1061.6446000000001
  0
LINE
  8
_0-0_LAYER001
  6
CONTINUOUS
 62
    4
 10
1035.4239
 20
1061.6446000000001
 11
1041.6682000000001
 21
1058.5198
  0
LINE
  8
_0-0_LAYER001
  6
CONTINUOUS
 62
    4
 10
1041.6682000000001
 20
1058.5198
 11
1045.3655000000001
 21
1056.8548000000001
  0
LINE
  8
_0-0_LAYER001
  6
CONTINUOUS
 62
    4
 10
1045.3655000000001
 20
1056.8548000000001
 11
1048.4247
 21
1055.5836999999999
  0
LINE
  8
_0-0_LAYER001
  6
CONTINUOUS
 62
    4
 10
1048.4247
 20
1055.5836999999999
 11
1053.7853
 21
1053.5815
  0
LINE
  8
_0-0_LAYER001
  6
CONTINUOUS
 62
    4
 10
1053.7853
 20
1053.5815
 11
1059.241
 21
1051.8261
  0
LINE
  8
_0-0_LAYER001
  6
CONTINUOUS
 62
    4
 10
1059.241
 20
1051.8261
 11
1064.7759000000001
 21
1050.3253
  0
LINE
  8
_0-0_LAYER001
  6
CONTINUOUS
 62
    4
 10
1064.7759000000001
 20
1050.3253
 11
1070.3742
 21
1049.0872999999999
  0
LINE
  8
_0-0_LAYER001
  6
CONTINUOUS
 62
    4
 10
1070.3742
 20
1049.0872999999999
 11
1076.02
 21
1048.1201000000001
  0
LINE
  8
_0-0_LAYER001
  6
CONTINUOUS
 62
    4
 10
1076.02
 20
1048.1201000000001
 11
1079.3099
 21
1047.6863000000001
  0
LINE
  8
_0-0_LAYER001
  6
CONTINUOUS
 62
    4
 10
1079.3099
 20
1047.6863000000001
 11
1081.8291999999999
 21
1047.4185
  0
LINE
  8
_0-0_LAYER001
  6
CONTINUOUS
 62
    4
 10
1081.8291999999999
 20
1047.4185
 11
1086.1813
 21
1047.0784000000001
  0
LINE
  8
_0-0_LAYER001
  6
CONTINUOUS
 62
    4
 10
1086.1813
 20
1047.0784000000001
 11
1090.5415
 21
1046.8789999999999
  0
LINE
  8
_0-0_LAYER001
  6
CONTINUOUS
 62
    4
 10
1090.5415
 20
1046.8789999999999
 11
1094.9067
 21
1046.8044
  0
LINE
  8
_0-0_LAYER001
  6
CONTINUOUS
 62
    4
 10
1094.9067
 20
1046.8044
 11
1099.2737999999999
 21
1046.8387
  0
LINE
  8
_0-0_LAYER001
  6
CONTINUOUS
 62
    4
 10
1099.2737999999999
 20
1046.8387
 11
1103.6396999999999
 21
1046.9663
  0
LINE
  8
_0-0_LAYER001
  6
CONTINUOUS
 62
    4
 10
1103.6396999999999
 20
1046.9663
 11
1106.1702
 21
1047.0768
  0
LINE
  8
_0-0_LAYER001
  6
CONTINUOUS
 62
    4
 10
1106.1702
 20
1047.0768
 11
1110.8993
 21
1047.345
  0
LINE
  8
_0-0_LAYER001
  6
CONTINUOUS
 62
    4
 10
1110.8993
 20
1047.345
 11
1119.0374999999999
 21
1047.9760000000001
  0
LINE
  8
_0-0_LAYER001
  6
CONTINUOUS
 62
    4
 10
1119.0374999999999
 20
1047.9760000000001
 11
1127.1582000000001
 21
1048.7898
  0
LINE
  8
_0-0_LAYER001
  6
CONTINUOUS
 62
    4
 10
1127.1582000000001
 20
1048.7898
 11
1135.2641000000001
 21
1049.7511
  0
LINE
  8
_0-0_LAYER001
  6
CONTINUOUS
 62
    4
 10
1135.2641000000001
 20
1049.7511
 11
1143.3575000000001
 21
1050.8243
  0
LINE
  8
_0-0_LAYER001
  6
CONTINUOUS
 62
    4
 10
1143.3575000000001
 20
1050.8243
 11
1151.4411
 21
1051.9739
  0
LINE
  8
_0-0_LAYER001
  6
CONTINUOUS
 62
    4
 10
1151.4411
 20
1051.9739
 11
1156.126
 21
1052.6617000000001
  0
LINE
  8
_0-0_LAYER001
  6
CONTINUOUS
 62
    4
 10
1156.126
 20
1052.6617000000001
 11
1158.5608999999999
 21
1053.0225
  0
LINE
  8
_0-0_LAYER001
  6
CONTINUOUS
 62
    4
 10
1158.5608999999999
 20
1053.0225
 11
1162.7578000000001
 21
1053.6485
  0
LINE
  8
_0-0_LAYER001
  6
CONTINUOUS
 62
    4
 10
1162.7578000000001
 20
1053.6485
 11
1166.9536000000001
 21
1054.2786000000001
  0
LINE
  8
_0-0_LAYER001
  6
CONTINUOUS
 62
    4
 10
1166.9536000000001
 20
1054.2786000000001
 11
1171.1485
 21
1054.9119000000001
  0
LINE
  8
_0-0_LAYER001
  6
CONTINUOUS
 62
    4
 10
1171.1485
 20
1054.9119000000001
 11
1175.3425999999999
 21
1055.5474999999999
  0
LINE
  8
_0-0_LAYER001
  6
CONTINUOUS
 62
    4
 10
1175.3425999999999
 20
1055.5474999999999
 11
1179.5364
 21
1056.1845000000001
  0
LINE
  8
_0-0_LAYER001
  6
CONTINUOUS
 62
    4
 10
1179.5364
 20
1056.1845000000001
 11
1181.9686999999999
 21
1056.5542
  0
LINE
  8
_0-0_LAYER001
  6
CONTINUOUS
 62
    4
 10
936.93180000000007
 20
1064.4505999999999
 11
938.99369999999999
 21
1065.2275
  0
LINE
  8
_0-0_LAYER001
  6
CONTINUOUS
 62
    4
 10
938.99369999999999
 20
1065.2275
 11
942.56130000000007
 21
1066.5740000000001
  0
LINE
  8
_0-0_LAYER001
  6
CONTINUOUS
 62
    4
 10
942.56130000000007
 20
1066.5740000000001
 11
946.15319999999997
 21
1067.9362000000001
  0
LINE
  8
_0-0_LAYER001
  6
CONTINUOUS
 62
    4
 10
946.15319999999997
 20
1067.9362000000001
 11
949.77359999999999
 21
1069.3199999999999
  0
LINE
  8
_0-0_LAYER001
  6
CONTINUOUS
 62
    4
 10
949.77359999999999
 20
1069.3199999999999
 11
953.42650000000003
 21
1070.7311999999999
  0
LINE
  8
_0-0_LAYER001
  6
CONTINUOUS
 62
    4
 10
953.42650000000003
 20
1070.7311999999999
 11
957.10570000000007
 21
1072.1715999999999
  0
LINE
  8
_0-0_LAYER001
  6
CONTINUOUS
 62
    4
 10
957.10570000000007
 20
1072.1715999999999
 11
959.26089999999999
 21
1073.0255999999999
  0
LINE
  8
_0-0_LAYER001
  6
CONTINUOUS
 62
    4
 10
959.26089999999999
 20
1073.0255999999999
 11
961.28449999999998
 21
1073.8323
  0
LINE
  8
_0-0_LAYER001
  6
CONTINUOUS
 62
    4
 10
961.28449999999998
 20
1073.8323
 11
964.55639999999994
 21
1075.1036999999999
  0
LINE
  8
_0-0_LAYER001
  6
CONTINUOUS
 62
    4
 10
964.55639999999994
 20
1075.1036999999999
 11
967.4514999999999
 21
1076.126
  0
LINE
  8
_0-0_LAYER001
  6
CONTINUOUS
 62
    4
 10
967.4514999999999
 20
1076.126
 11
969.91959999999995
 21
1076.8457000000001
  0
LINE
  8
_0-0_LAYER001
  6
CONTINUOUS
 62
    4
 10
969.91959999999995
 20
1076.8457000000001
 11
971.91139999999996
 21
1077.2530999999999
  0
LINE
  8
_0-0_LAYER001
  6
CONTINUOUS
 62
    4
 10
971.91139999999996
 20
1077.2530999999999
 11
973.69070000000011
 21
1077.4176
  0
LINE
  8
_0-0_LAYER001
  6
CONTINUOUS
 62
    4
 10
973.69070000000011
 20
1077.4176
 11
974.37020000000007
 21
1077.4087999999999
  0
LINE
  8
_0-0_LAYER001
  6
CONTINUOUS
 62
    4
 10
974.37020000000007
 20
1077.4087999999999
 11
974.29410000000007
 21
1077.4142999999999
  0
LINE
  8
_0-0_LAYER001
  6
CONTINUOUS
 62
    4
 10
974.29410000000007
 20
1077.4142999999999
 11
974.90769999999998
 21
1077.3427999999999
  0
LINE
  8
_0-0_LAYER001
  6
CONTINUOUS
 62
    4
 10
974.90769999999998
 20
1077.3427999999999
 11
975.49810000000002
 21
1077.2430999999999
  0
LINE
  8
_0-0_LAYER001
  6
CONTINUOUS
 62
    4
 10
975.49810000000002
 20
1077.2430999999999
 11
976.16560000000004
 21
1077.098
  0
LINE
  8
_0-0_LAYER001
  6
CONTINUOUS
 62
    4
 10
976.16560000000004
 20
1077.098
 11
976.89910000000009
 21
1076.9055000000001
  0
LINE
  8
_0-0_LAYER001
  6
CONTINUOUS
 62
    4
 10
976.89910000000009
 20
1076.9055000000001
 11
977.74829999999997
 21
1076.6469999999999
  0
LINE
  8
_0-0_LAYER001
  6
CONTINUOUS
 62
    4
 10
977.74829999999997
 20
1076.6469999999999
 11
977.99240000000009
 21
1076.5651
  0
LINE
  8
_0-0_LAYER001
  6
CONTINUOUS
 62
    4
 10
977.99240000000009
 20
1076.5651
 11
979.55230000000006
 21
1075.9730999999999
  0
LINE
  8
_0-0_LAYER001
  6
CONTINUOUS
 62
    4
 10
979.55230000000006
 20
1075.9730999999999
 11
982.5
 21
1074.6025999999999
  0
LINE
  8
_0-0_LAYER001
  6
CONTINUOUS
 62
    4
 10
982.5
 20
1074.6025999999999
 11
985.46109999999999
 21
1072.942
  0
LINE
  8
_0-0_LAYER001
  6
CONTINUOUS
 62
    4
 10
985.46109999999999
 20
1072.942
 11
988.62879999999996
 21
1070.9206999999999
  0
LINE
  8
_0-0_LAYER001
  6
CONTINUOUS
 62
    4
 10
988.62879999999996
 20
1070.9206999999999
 11
992.01350000000002
 21
1068.5758000000001
  0
LINE
  8
_0-0_LAYER001
  6
CONTINUOUS
 62
    4
 10
992.01350000000002
 20
1068.5758000000001
 11
995.61920000000009
 21
1065.9733000000001
  0
LINE
  8
_0-0_LAYER001
  6
CONTINUOUS
 62
    4
 10
995.61920000000009
 20
1065.9733000000001
 11
997.82619999999997
 21
1064.3708999999999
  0
LINE
  8
_0-0_LAYER001
  6
CONTINUOUS
 62
    4
 10
997.82619999999997
 20
1064.3708999999999
 11
1001.3162
 21
1061.8705
  0
LINE
  8
_0-0_LAYER001
  6
CONTINUOUS
 62
    4
 10
1001.3162
 20
1061.8705
 11
1007.4083000000001
 21
1057.6456000000001
  0
LINE
  8
_0-0_LAYER001
  6
CONTINUOUS
 62
    4
 10
1007.4083000000001
 20
1057.6456000000001
 11
1013.7121
 21
1053.5055
  0
LINE
  8
_0-0_LAYER001
  6
CONTINUOUS
 62
    4
 10
1013.7121
 20
1053.5055
 11
1020.2328
 21
1049.5166999999999
  0
LINE
  8
_0-0_LAYER001
  6
CONTINUOUS
 62
    4
 10
1020.2328
 20
1049.5166999999999
 11
1026.9987000000001
 21
1045.7327
  0
LINE
  8
_0-0_LAYER001
  6
CONTINUOUS
 62
    4
 10
1026.9987000000001
 20
1045.7327
 11
1033.9418000000001
 21
1042.2582
  0
LINE
  8
_0-0_LAYER001
  6
CONTINUOUS
 62
    4
 10
1033.9418000000001
 20
1042.2582
 11
1038.2152000000001
 21
1040.3338000000001
  0
LINE
  8
_0-0_LAYER001
  6
CONTINUOUS
 62
    4
 10
1038.2152000000001
 20
1040.3338000000001
 11
1041.8203000000001
 21
1038.8359
  0
LINE
  8
_0-0_LAYER001
  6
CONTINUOUS
 62
    4
 10
1041.8203000000001
 20
1038.8359
 11
1047.8764000000001
 21
1036.5740000000001
  0
LINE
  8
_0-0_LAYER001
  6
CONTINUOUS
 62
    4
 10
1047.8764000000001
 20
1036.5740000000001
 11
1054.1261999999999
 21
1034.5628999999999
  0
LINE
  8
_0-0_LAYER001
  6
CONTINUOUS
 62
    4
 10
1054.1261999999999
 20
1034.5628999999999
 11
1060.4749999999999
 21
1032.8415
  0
LINE
  8
_0-0_LAYER001
  6
CONTINUOUS
 62
    4
 10
1060.4749999999999
 20
1032.8415
 11
1066.9092000000001
 21
1031.4186999999999
  0
LINE
  8
_0-0_LAYER001
  6
CONTINUOUS
 62
    4
 10
1066.9092000000001
 20
1031.4186999999999
 11
1073.3228999999999
 21
1030.3199
  0
LINE
  8
_0-0_LAYER001
  6
CONTINUOUS
 62
    4
 10
1073.3228999999999
 20
1030.3199
 11
1077.1817000000001
 21
1029.8110999999999
  0
LINE
  8
_0-0_LAYER001
  6
CONTINUOUS
 62
    4
 10
1077.1817000000001
 20
1029.8110999999999
 11
1080.1763000000001
 21
1029.4928
  0
LINE
  8
_0-0_LAYER001
  6
CONTINUOUS
 62
    4
 10
1080.1763000000001
 20
1029.4928
 11
1085.0688
 21
1029.1105
  0
LINE
  8
_0-0_LAYER001
  6
CONTINUOUS
 62
    4
 10
1085.0688
 20
1029.1105
 11
1089.9763
 21
1028.886
  0
LINE
  8
_0-0_LAYER001
  6
CONTINUOUS
 62
    4
 10
1089.9763
 20
1028.886
 11
1094.8236999999999
 21
1028.8031000000001
  0
LINE
  8
_0-0_LAYER001
  6
CONTINUOUS
 62
    4
 10
1094.8236999999999
 20
1028.8031000000001
 11
1099.6076
 21
1028.8407999999999
  0
LINE
  8
_0-0_LAYER001
  6
CONTINUOUS
 62
    4
 10
1099.6076
 20
1028.8407999999999
 11
1104.2952
 21
1028.9777999999999
  0
LINE
  8
_0-0_LAYER001
  6
CONTINUOUS
 62
    4
 10
1104.2952
 20
1028.9777999999999
 11
1107.0724
 21
1029.0989999999999
  0
LINE
  8
_0-0_LAYER001
  6
CONTINUOUS
 62
    4
 10
1107.0724
 20
1029.0989999999999
 11
1112.1047000000001
 21
1029.3843999999999
  0
LINE
  8
_0-0_LAYER001
  6
CONTINUOUS
 62
    4
 10
1112.1047000000001
 20
1029.3843999999999
 11
1120.6309000000001
 21
1030.0454999999999
  0
LINE
  8
_0-0_LAYER001
  6
CONTINUOUS
 62
    4
 10
1120.6309000000001
 20
1030.0454999999999
 11
1129.1158
 21
1030.8959
  0
LINE
  8
_0-0_LAYER001
  6
CONTINUOUS
 62
    4
 10
1129.1158
 20
1030.8959
 11
1137.5071
 21
1031.8910000000001
  0
LINE
  8
_0-0_LAYER001
  6
CONTINUOUS
 62
    4
 10
1137.5071
 20
1031.8910000000001
 11
1145.8078
 21
1032.9916000000001
  0
LINE
  8
_0-0_LAYER001
  6
CONTINUOUS
 62
    4
 10
1145.8078
 20
1032.9916000000001
 11
1154.0155
 21
1034.1588999999999
  0
LINE
  8
_0-0_LAYER001
  6
CONTINUOUS
 62
    4
 10
1154.0155
 20
1034.1588999999999
 11
1158.7527
 21
1034.8543
  0
LINE
  8
_0-0_LAYER001
  6
CONTINUOUS
 62
    4
 10
1158.7527
 20
1034.8543
 11
1161.2080000000001
 21
1035.2182
  0
LINE
  8
_0-0_LAYER001
  6
CONTINUOUS
 62
    4
 10
1161.2080000000001
 20
1035.2182
 11
1165.4221
 21
1035.8468
  0
LINE
  8
_0-0_LAYER001
  6
CONTINUOUS
 62
    4
 10
1165.4221
 20
1035.8468
 11
1169.6337000000001
 21
1036.4792
  0
LINE
  8
_0-0_LAYER001
  6
CONTINUOUS
 62
    4
 10
1169.6337000000001
 20
1036.4792
 11
1173.8404
 21
1037.1143
  0
LINE
  8
_0-0_LAYER001
  6
CONTINUOUS
 62
    4
 10
1173.8404
 20
1037.1143
 11
1178.0426
 21
1037.7511
  0
LINE
  8
_0-0_LAYER001
  6
CONTINUOUS
 62
    4
 10
1178.0426
 20
1037.7511
 11
1182.2405000000001
 21
1038.3887
  0
LINE
  8
_0-0_LAYER001
  6
CONTINUOUS
 62
    4
 10
1182.2405000000001
 20
1038.3887
 11
1183.8581999999999
 21
1038.6347000000001
  0
LINE
  8
_0-0_LAYER001
  6
CONTINUOUS
 62
    4
 10
931.40290000000005
 20
1081.6007
 11
931.82889999999998
 21
1081.7637999999999
  0
ARC
  8
_0-0_LAYER001
  6
CONTINUOUS
 62
    4
 10
932.47559999999999
 20
1078.799
 40
3
 50
110.94902000000002
 51
178.70000000000002
  0
LINE
  8
_0-0_LAYER001
  6
CONTINUOUS
 62
    4
 10
929.36699999999996
 20
1063.028
 11
929.36699999999996
 21
1078.7505000000001
  0
LINE
  8
_0-0_LAYER001
  6
CONTINUOUS
 62
    4
 10
930.721
 20
1062.0926999999999
 11
936.89580000000001
 21
1064.4299000000001
  0
ARC
  8
_0-0_LAYER001
  6
CONTINUOUS
 62
    4
 10
930.36699999999996
 20
1063.028
 40
1
 50
180
 51
290.73165999999998
  0
LINE
  8
_0-0_LAYER001
  6
CONTINUOUS
 62
    4
 10
1182.0935999999999
 20
1056.5896
 11
1226.5479
 21
1066.2375
  0
LINE
  8
_0-0_LAYER001
  6
CONTINUOUS
 62
    4
 10
1188.8388
 20
1036.7559000000001
 11
1227.5106000000001
 21
1045.8058000000001
  0
LINE
  8
_0-0_LAYER001
  6
CONTINUOUS
 62
    4
 10
1227.5106000000001
 20
1046.7623000000001
 11
1227.5106000000001
 21
1045.8058000000001
  0
ARC
  8
_0-0_LAYER001
  6
CONTINUOUS
 62
    4
 10
1228.5106000000001
 20
1046.7623000000001
 40
1
 50
102.72435
 51
180
  0
LINE
  8
_0-0_LAYER001
  6
CONTINUOUS
 62
    4
 10
1233.3276000000001
 20
1048.8751999999999
 11
1228.2902999999999
 21
1047.7378000000001
  0
ARC
  8
_0-0_LAYER001
  6
CONTINUOUS
 62
    4
 10
1233.5479
 20
1047.8997999999999
 40
1
 50
0
 51
102.72435
  0
LINE
  8
_0-0_LAYER001
  6
CONTINUOUS
 62
    4
 10
1233.7599
 20
1049.3837000000001
 11
1183.626
 21
1038.5030999999999
  0
ARC
  8
_0-0_LAYER001
  6
CONTINUOUS
 62
    4
 10
1233.5479
 20
1050.3608999999999
 40
1
 50
282.24497000000002
 51
0
  0
LINE
  8
_0-0_LAYER001
  6
CONTINUOUS
 62
    4
 10
1233.7656999999999
 20
1028.643
 11
1184.1817000000001
 21
1017.5751
  0
LINE
  8
_0-0_LAYER001
  6
CONTINUOUS
 62
    4
 10
1234.5479
 20
1029.6188999999999
 11
1234.5479
 21
1047.8997999999999
  0
ARC
  8
_0-0_LAYER001
  6
CONTINUOUS
 62
    4
 10
1233.5479
 20
1029.6188999999999
 40
1
 50
282.58296000000001
 51
0.0000000000000254
  0
LINE
  8
_0-0_LAYER001
  6
CONTINUOUS
 62
    4
 10
1226.5479
 20
1067.6945000000001
 11
1226.5479
 21
1066.2375
  0
ARC
  8
_0-0_LAYER001
  6
CONTINUOUS
 62
    4
 10
1227.5479
 20
1067.6945000000001
 40
1
 50
101.73308
 51
180
  0
LINE
  8
_0-0_LAYER001
  6
CONTINUOUS
 62
    4
 10
1233.3444999999999
 20
1069.9197999999999
 11
1227.3444999999999
 21
1068.6736000000001
  0
LINE
  8
_0-0_LAYER001
  6
CONTINUOUS
 62
    4
 10
1234.5479
 20
1068.9407000000001
 11
1234.5479
 21
1050.3608999999999
  0
ARC
  8
_0-0_LAYER001
  6
CONTINUOUS
 62
    4
 10
1233.5479
 20
1068.9407000000001
 40
1
 50
0
 51
101.73308
  0
LINE
  8
_0-0_LAYER001
  6
CONTINUOUS
 62
    4
 10
873.93069999999989
 20
996.93059999999991
 11
866.60539999999992
 21
1008.2366999999999
  0
LINE
  8
_0-0_LAYER001
  6
CONTINUOUS
 62
    4
 10
882.44029999999998
 20
997.12049999999999
 11
891.37869999999998
 21
1012.3661999999999
  0
ARC
  8
_0-0_LAYER001
  6
CONTINUOUS
 62
    4
 10
878.12689999999998
 20
999.64940000000001
 40
5
 50
212.93986000000001
 51
329.61716000000001
  0
LINE
  8
_0-0_LAYER001
  6
CONTINUOUS
 62
    4
 10
921.7222999999999
 20
1036.6782000000001
 11
924.15039999999999
 21
1037.0820000000001
  0
LINE
  8
_0-0_LAYER001
  6
CONTINUOUS
 62
    4
 10
917.53330000000005
 20
1035.9819
 11
921.7222999999999
 21
1036.6782000000001
  0
LINE
  8
_0-0_LAYER001
  6
CONTINUOUS
 62
    4
 10
913.33950000000004
 20
1035.2864
 11
917.53330000000005
 21
1035.9819
  0
LINE
  8
_0-0_LAYER001
  6
CONTINUOUS
 62
    4
 10
909.14069999999992
 20
1034.5924
 11
913.33950000000004
 21
1035.2864
  0
LINE
  8
_0-0_LAYER001
  6
CONTINUOUS
 62
    4
 10
904.93669999999997
 20
1033.9009000000001
 11
909.14069999999992
 21
1034.5924
  0
LINE
  8
_0-0_LAYER001
  6
CONTINUOUS
 62
    4
 10
900.72980000000007
 20
1033.2131999999999
 11
904.93669999999997
 21
1033.9009000000001
  0
LINE
  8
_0-0_LAYER001
  6
CONTINUOUS
 62
    4
 10
898.27749999999992
 20
1032.8146999999999
 11
900.72980000000007
 21
1033.2131999999999
  0
LINE
  8
_0-0_LAYER001
  6
CONTINUOUS
 62
    4
 10
893.5447999999999
 20
1032.0523000000001
 11
898.27749999999992
 21
1032.8146999999999
  0
LINE
  8
_0-0_LAYER001
  6
CONTINUOUS
 62
    4
 10
885.34030000000007
 20
1030.7683999999999
 11
893.5447999999999
 21
1032.0523000000001
  0
LINE
  8
_0-0_LAYER001
  6
CONTINUOUS
 62
    4
 10
877.03279999999995
 20
1029.5486000000001
 11
885.34030000000007
 21
1030.7683999999999
  0
LINE
  8
_0-0_LAYER001
  6
CONTINUOUS
 62
    4
 10
868.6246000000001
 20
1028.4322
 11
877.03279999999995
 21
1029.5486000000001
  0
LINE
  8
_0-0_LAYER001
  6
CONTINUOUS
 62
    4
 10
860.11200000000008
 20
1027.4588000000001
 11
868.6246000000001
 21
1028.4322
  0
LINE
  8
_0-0_LAYER001
  6
CONTINUOUS
 62
    4
 10
851.55279999999993
 20
1026.6748
 11
860.11200000000008
 21
1027.4588000000001
  0
LINE
  8
_0-0_LAYER001
  6
CONTINUOUS
 62
    4
 10
846.49129999999991
 20
1026.3168000000001
 11
851.55279999999993
 21
1026.6748
  0
LINE
  8
_0-0_LAYER001
  6
CONTINUOUS
 62
    4
 10
843.68869999999993
 20
1026.1551999999999
 11
846.49129999999991
 21
1026.3168000000001
  0
LINE
  8
_0-0_LAYER001
  6
CONTINUOUS
 62
    4
 10
843.47090000000003
 20
1026.1458
 11
843.68869999999993
 21
1026.1551999999999
  0
LINE
  8
_0-0_LAYER001
  6
CONTINUOUS
 62
    4
 10
917.71170000000006
 20
1017.4907000000001
 11
919.32580000000007
 21
1017.7592
  0
LINE
  8
_0-0_LAYER001
  6
CONTINUOUS
 62
    4
 10
913.52310000000011
 20
1016.7945
 11
917.71170000000006
 21
1017.4907000000001
  0
LINE
  8
_0-0_LAYER001
  6
CONTINUOUS
 62
    4
 10
909.3302000000001
 20
1016.0990999999999
 11
913.52310000000011
 21
1016.7945
  0
LINE
  8
_0-0_LAYER001
  6
CONTINUOUS
 62
    4
 10
905.13270000000011
 20
1015.4052999999999
 11
909.3302000000001
 21
1016.0990999999999
  0
LINE
  8
_0-0_LAYER001
  6
CONTINUOUS
 62
    4
 10
900.93039999999996
 20
1014.7140999999999
 11
905.13270000000011
 21
1015.4052999999999
  0
LINE
  8
_0-0_LAYER001
  6
CONTINUOUS
 62
    4
 10
896.72550000000001
 20
1014.0268000000001
 11
900.93039999999996
 21
1014.7140999999999
  0
LINE
  8
_0-0_LAYER001
  6
CONTINUOUS
 62
    4
 10
894.27549999999997
 20
1013.6287
 11
896.72550000000001
 21
1014.0268000000001
  0
LINE
  8
_0-0_LAYER001
  6
CONTINUOUS
 62
    4
 10
889.5485000000001
 20
1012.8670999999999
 11
894.27549999999997
 21
1013.6287
  0
LINE
  8
_0-0_LAYER001
  6
CONTINUOUS
 62
    4
 10
881.35789999999997
 20
1011.5853999999999
 11
889.5485000000001
 21
1012.8670999999999
  0
LINE
  8
_0-0_LAYER001
  6
CONTINUOUS
 62
    4
 10
873.07339999999999
 20
1010.3689999999999
 11
881.35789999999997
 21
1011.5853999999999
  0
LINE
  8
_0-0_LAYER001
  6
CONTINUOUS
 62
    4
 10
864.69669999999996
 20
1009.2568000000001
 11
873.07339999999999
 21
1010.3689999999999
  0
LINE
  8
_0-0_LAYER001
  6
CONTINUOUS
 62
    4
 10
856.22460000000001
 20
1008.288
 11
864.69669999999996
 21
1009.2568000000001
  0
LINE
  8
_0-0_LAYER001
  6
CONTINUOUS
 62
    4
 10
847.70849999999996
 20
1007.508
 11
856.22460000000001
 21
1008.288
  0
LINE
  8
_0-0_LAYER001
  6
CONTINUOUS
 62
    4
 10
843.47090000000003
 20
1007.2083
 11
847.70849999999996
 21
1007.508
  0
LINE
  8
_0-0_LAYER001
  6
CONTINUOUS
 62
    4
 10
914.42720000000008
 20
1007.0695000000001
 11
912.18180000000007
 21
1015.6429000000001
  0
ARC
  8
_0-0_LAYER001
  6
CONTINUOUS
 62
    4
 10
917.3293000000001
 20
1007.8295000000001
 40
3
 50
194.67639000000003
 51
270.00000000000006
  0
LINE
  8
_0-0_LAYER001
  6
CONTINUOUS
 62
    4
 10
920.77179999999998
 20
1004.8252
 11
917.35400000000004
 21
1004.8252
  0
LINE
  8
_0-0_LAYER001
  6
CONTINUOUS
 62
    4
 10
923.73099999999999
 20
1007.3320000000001
 11
925.66499999999996
 21
1018.9362000000001
  0
ARC
  8
_0-0_LAYER001
  6
CONTINUOUS
 62
    4
 10
920.77179999999998
 20
1007.8252
 40
3
 50
270
 51
350.53766999999999
  0
LINE
  8
_0-0_LAYER001
  6
CONTINUOUS
 62
    4
 10
843.47090000000003
 20
1047.3815999999999
 11
846.0761
 21
1047.5292999999999
  0
LINE
  8
_0-0_LAYER001
  6
CONTINUOUS
 62
    4
 10
846.0761
 20
1047.5292999999999
 11
854.21430000000009
 21
1048.1603
  0
LINE
  8
_0-0_LAYER001
  6
CONTINUOUS
 62
    4
 10
854.21430000000009
 20
1048.1603
 11
862.33510000000001
 21
1048.9742000000001
  0
LINE
  8
_0-0_LAYER001
  6
CONTINUOUS
 62
    4
 10
862.33510000000001
 20
1048.9742000000001
 11
870.44090000000006
 21
1049.9355
  0
LINE
  8
_0-0_LAYER001
  6
CONTINUOUS
 62
    4
 10
870.44090000000006
 20
1049.9355
 11
878.53440000000001
 21
1051.0085999999999
  0
LINE
  8
_0-0_LAYER001
  6
CONTINUOUS
 62
    4
 10
878.53440000000001
 20
1051.0085999999999
 11
886.61789999999996
 21
1052.1582000000001
  0
LINE
  8
_0-0_LAYER001
  6
CONTINUOUS
 62
    4
 10
886.61789999999996
 20
1052.1582000000001
 11
891.30279999999993
 21
1052.846
  0
LINE
  8
_0-0_LAYER001
  6
CONTINUOUS
 62
    4
 10
891.30279999999993
 20
1052.846
 11
893.7376999999999
 21
1053.2068999999999
  0
LINE
  8
_0-0_LAYER001
  6
CONTINUOUS
 62
    4
 10
893.7376999999999
 20
1053.2068999999999
 11
897.93470000000002
 21
1053.8329000000001
  0
LINE
  8
_0-0_LAYER001
  6
CONTINUOUS
 62
    4
 10
897.93470000000002
 20
1053.8329000000001
 11
902.13049999999998
 21
1054.4629
  0
LINE
  8
_0-0_LAYER001
  6
CONTINUOUS
 62
    4
 10
902.13049999999998
 20
1054.4629
 11
906.32529999999997
 21
1055.0962
  0
LINE
  8
_0-0_LAYER001
  6
CONTINUOUS
 62
    4
 10
906.32529999999997
 20
1055.0962
 11
910.51950000000011
 21
1055.7318
  0
LINE
  8
_0-0_LAYER001
  6
CONTINUOUS
 62
    4
 10
910.51950000000011
 20
1055.7318
 11
914.71319999999992
 21
1056.3688
  0
LINE
  8
_0-0_LAYER001
  6
CONTINUOUS
 62
    4
 10
914.71319999999992
 20
1056.3688
 11
917.14550000000008
 21
1056.7385999999999
  0
LINE
  8
_0-0_LAYER001
  6
CONTINUOUS
 62
    4
 10
843.47090000000003
 20
1029.3525999999999
 11
847.28160000000003
 21
1029.5688
  0
LINE
  8
_0-0_LAYER001
  6
CONTINUOUS
 62
    4
 10
847.28160000000003
 20
1029.5688
 11
855.80770000000007
 21
1030.2298000000001
  0
LINE
  8
_0-0_LAYER001
  6
CONTINUOUS
 62
    4
 10
855.80770000000007
 20
1030.2298000000001
 11
864.29259999999999
 21
1031.0802000000001
  0
LINE
  8
_0-0_LAYER001
  6
CONTINUOUS
 62
    4
 10
864.29259999999999
 20
1031.0802000000001
 11
872.68389999999999
 21
1032.0753
  0
LINE
  8
_0-0_LAYER001
  6
CONTINUOUS
 62
    4
 10
872.68389999999999
 20
1032.0753
 11
880.9846
 21
1033.1759999999999
  0
LINE
  8
_0-0_LAYER001
  6
CONTINUOUS
 62
    4
 10
880.9846
 20
1033.1759999999999
 11
889.19239999999991
 21
1034.3432
  0
LINE
  8
_0-0_LAYER001
  6
CONTINUOUS
 62
    4
 10
889.19239999999991
 20
1034.3432
 11
893.92949999999996
 21
1035.0387000000001
  0
LINE
  8
_0-0_LAYER001
  6
CONTINUOUS
 62
    4
 10
893.92949999999996
 20
1035.0387000000001
 11
896.38490000000002
 21
1035.4025999999999
  0
LINE
  8
_0-0_LAYER001
  6
CONTINUOUS
 62
    4
 10
896.38490000000002
 20
1035.4025999999999
 11
900.59899999999993
 21
1036.0310999999999
  0
LINE
  8
_0-0_LAYER001
  6
CONTINUOUS
 62
    4
 10
900.59899999999993
 20
1036.0310999999999
 11
904.81050000000005
 21
1036.6636000000001
  0
LINE
  8
_0-0_LAYER001
  6
CONTINUOUS
 62
    4
 10
904.81050000000005
 20
1036.6636000000001
 11
909.01729999999998
 21
1037.2987000000001
  0
LINE
  8
_0-0_LAYER001
  6
CONTINUOUS
 62
    4
 10
909.01729999999998
 20
1037.2987000000001
 11
913.21949999999993
 21
1037.9355
  0
LINE
  8
_0-0_LAYER001
  6
CONTINUOUS
 62
    4
 10
913.21949999999993
 20
1037.9355
 11
917.41740000000004
 21
1038.5731000000001
  0
LINE
  8
_0-0_LAYER001
  6
CONTINUOUS
 62
    4
 10
917.41740000000004
 20
1038.5731000000001
 11
919.03510000000006
 21
1038.819
  0
LINE
  8
_0-0_LAYER001
  6
CONTINUOUS
 62
    4
 10
929.54389999999989
 20
1041.8901000000001
 11
929.54389999999989
 21
1059.0875000000001
  0
LINE
  8
_0-0_LAYER001
  6
CONTINUOUS
 62
    4
 10
917.27040000000011
 20
1056.7738999999999
 11
961.72469999999998
 21
1066.4218000000001
  0
LINE
  8
_0-0_LAYER001
  6
CONTINUOUS
 62
    4
 10
924.01559999999995
 20
1036.9402
 11
962.68740000000003
 21
1045.9902
  0
LINE
  8
_0-0_LAYER001
  6
CONTINUOUS
 62
    4
 10
962.68740000000003
 20
1046.9467
 11
962.68740000000003
 21
1045.9902
  0
ARC
  8
_0-0_LAYER001
  6
CONTINUOUS
 62
    4
 10
963.68740000000003
 20
1046.9467
 40
1
 50
102.72435
 51
180
  0
LINE
  8
_0-0_LAYER001
  6
CONTINUOUS
 62
    4
 10
968.50450000000001
 20
1049.0596
 11
963.46720000000005
 21
1047.9221
  0
ARC
  8
_0-0_LAYER001
  6
CONTINUOUS
 62
    4
 10
968.72469999999998
 20
1048.0841
 40
1
 50
0
 51
102.72435
  0
LINE
  8
_0-0_LAYER001
  6
CONTINUOUS
 62
    4
 10
968.93679999999995
 20
1049.568
 11
918.80279999999993
 21
1038.6875
  0
ARC
  8
_0-0_LAYER001
  6
CONTINUOUS
 62
    4
 10
968.72469999999998
 20
1050.5453
 40
1
 50
282.24497000000002
 51
0
  0
LINE
  8
_0-0_LAYER001
  6
CONTINUOUS
 62
    4
 10
968.94260000000008
 20
1028.8272999999999
 11
919.35860000000002
 21
1017.7593999999999
  0
LINE
  8
_0-0_LAYER001
  6
CONTINUOUS
 62
    4
 10
969.72469999999998
 20
1029.8033
 11
969.72469999999998
 21
1048.0841
  0
ARC
  8
_0-0_LAYER001
  6
CONTINUOUS
 62
    4
 10
968.72469999999998
 20
1029.8033
 40
1
 50
282.58296000000001
 51
0.0000000000000254
  0
LINE
  8
_0-0_LAYER001
  6
CONTINUOUS
 62
    4
 10
961.72469999999998
 20
1067.8788999999999
 11
961.72469999999998
 21
1066.4218000000001
  0
ARC
  8
_0-0_LAYER001
  6
CONTINUOUS
 62
    4
 10
962.72469999999998
 20
1067.8788999999999
 40
1
 50
101.73308
 51
180
  0
LINE
  8
_0-0_LAYER001
  6
CONTINUOUS
 62
    4
 10
968.52140000000009
 20
1070.1041
 11
962.52140000000009
 21
1068.8579999999999
  0
LINE
  8
_0-0_LAYER001
  6
CONTINUOUS
 62
    4
 10
969.72469999999998
 20
1069.125
 11
969.72469999999998
 21
1050.5453
  0
ARC
  8
_0-0_LAYER001
  6
CONTINUOUS
 62
    4
 10
968.72469999999998
 20
1069.125
 40
1
 50
0
 51
101.73308
  0
LINE
  8
_0-0_LAYER001
  6
DASHED1
 62
    2
 10
1033.9418000000001
 20
1038.912
 11
1049.9418000000001
 21
1038.912
  0
LINE
  8
_0-0_LAYER001
  6
DASHED1
 62
    2
 10
1049.9418000000001
 20
1038.912
 11
1049.9418000000001
 21
1035.912
  0
LINE
  8
_0-0_LAYER001
  6
DASHED1
 62
    2
 10
1033.9418000000001
 20
1038.912
 11
1033.9418000000001
 21
1035.912
  0
LINE
  8
_0-0_LAYER001
  6
DASHED1
 62
    2
 10
1033.9418000000001
 20
1035.912
 11
1049.9418000000001
 21
1035.912
  0
LINE
  8
_0-0_LAYER001
  6
DASHED1
 62
    2
 10
1044.9418000000001
 20
981.0159000000001
 11
1041.8915999999999
 21
966.50700000000006
  0
LINE
  8
_0-0_LAYER001
  6
DASHED1
 62
    2
 10
1044.9418000000001
 20
1035.912
 11
1044.9418000000001
 21
981.0159000000001
  0
LINE
  8
_0-0_LAYER001
  6
DASHED1
 62
    2
 10
1041.8915999999999
 20
966.50700000000006
 11
1038.9418000000001
 21
980.7645
  0
LINE
  8
_0-0_LAYER001
  6
DASHED1
 62
    2
 10
1038.9418000000001
 20
1035.912
 11
1038.9418000000001
 21
980.7645
  0
LINE
  8
_0-1_LAYER003
  6
CONTINUOUS
 62
    7
 10
1711.6700999999998
 20
1400.6061999999999
 11
1792.6700999999998
 21
1400.6061999999999
  0
LINE
  8
_0-1_LAYER003
  6
CONTINUOUS
 62
    7
 10
1792.6700999999998
 20
1400.6061999999999
 11
1851.0682999999999
 21
1299.4576000000002
  0
LINE
  8
_0-1_LAYER003
  6
CONTINUOUS
 62
    7
 10
1851.0682999999999
 20
1299.4576000000002
 11
1849.1271999999999
 21
1306.702
  0
LINE
  8
_0-1_LAYER003
  6
CONTINUOUS
 62
    7
 10
1850.4223565587899
 20
1300.1035434412101
 11
1845.7649999999999
 21
1304.7609
  0
LINE
  8
_0-1_LAYER003
  6
CONTINUOUS
 62
    7
 10
1872.3908999999999
 20
1315.4623999999999
 11
1872.3908999999999
 21
942.2186999999999
  0
LINE
  8
_0-1_LAYER003
  6
CONTINUOUS
 62
    7
 10
1872.3908999999999
 20
942.2186999999999
 11
843.47090000000003
 21
942.2186999999999
  0
LINE
  8
_0-1_LAYER003
  6
CONTINUOUS
 62
    7
 10
843.47090000000003
 20
982.2186999999999
 11
1872.3908999999999
 21
982.2186999999999
  0
LINE
  8
_0-1_LAYER003
  6
CONTINUOUS
 62
    7
 10
1870.0679
 20
984.71569999999997
 11
843.47090000000003
 21
984.71569999999997
  0
LINE
  8
_0-1_LAYER003
  6
CONTINUOUS
 62
    7
 10
843.47090000000003
 20
989.0612000000001
 11
1725.2049000000002
 21
989.0612000000001
  0
LINE
  8
_0-1_LAYER003
  6
CONTINUOUS
 62
    7
 10
1725.2049000000002
 20
989.0612000000001
 11
1725.2049000000002
 21
1004.0612000000001
  0
LINE
  8
_0-1_LAYER003
  6
CONTINUOUS
 62
    7
 10
1725.2049000000002
 20
1004.0612000000001
 11
843.47090000000003
 21
1004.0612000000001
  0
LINE
  8
_0-1_LAYER003
  6
CONTINUOUS
 62
    7
 10
939.40390000000002
 20
959.81349999999998
 11
947.27299999999991
 21
959.81349999999998
  0
LINE
  8
_0-1_LAYER003
  6
CONTINUOUS
 62
    7
 10
944.88900000000012
 20
959.81349999999998
 11
949.40390000000002
 21
959.81349999999998
  0
LINE
  8
_0-1_LAYER003
  6
CONTINUOUS
 62
    7
 10
949.40390000000002
 20
959.81349999999998
 11
949.40390000000002
 21
905.7947999999999
  0
LINE
  8
_0-1_LAYER003
  6
CONTINUOUS
 62
    7
 10
949.40390000000002
 20
905.7947999999999
 11
970.77389999999991
 21
905.7947999999999
  0
LINE
  8
_0-1_LAYER003
  6
CONTINUOUS
 62
    7
 10
970.77389999999991
 20
905.7947999999999
 11
970.77389999999991
 21
895.7947999999999
  0
LINE
  8
_0-1_LAYER003
  6
CONTINUOUS
 62
    7
 10
970.77389999999991
 20
895.7947999999999
 11
939.40390000000002
 21
895.7947999999999
  0
LINE
  8
_0-1_LAYER003
  6
CONTINUOUS
 62
    7
 10
939.40390000000002
 20
895.7947999999999
 11
939.40390000000002
 21
959.81349999999998
  0
LINE
  8
_0-1_LAYER003
  6
CONTINUOUS
 62
    7
 10
950.82950000000005
 20
901.05179999999996
 11
952.77070000000003
 21
893.80739999999992
  0
LINE
  8
_0-1_LAYER003
  6
CONTINUOUS
 62
    7
 10
950.82950000000005
 20
901.05179999999996
 11
956.08650000000011
 21
895.7947999999999
  0
LINE
  8
_0-1_LAYER003
  6
CONTINUOUS
 62
    7
 10
950.82950000000005
 20
901.05179999999996
 11
975.45779999999991
 21
858.39439999999991
  0
LINE
  8
_0-1_LAYER003
  6
CONTINUOUS
 62
    7
 10
975.45779999999991
 20
858.39439999999991
 11
1035.4577999999999
 21
858.39439999999991
  0
LINE
  8
_0-1_LAYER003
  6
CONTINUOUS
 62
    7
 10
975.45779999999991
 20
858.39439999999991
 11
1050.6114346964341
 21
858.39439999999991
  0
LINE
  8
_0-1_LAYER003
  6
CONTINUOUS
 62
    7
 10
1048.8489
 20
942.2186999999999
 11
918.84889999999996
 21
812.2186999999999
  0
LINE
  8
_0-1_LAYER003
  6
CONTINUOUS
 62
    7
 10
1026.2209
 20
942.2186999999999
 11
896.22090000000003
 21
812.2186999999999
  0
LINE
  8
_0-1_LAYER003
  6
CONTINUOUS
 62
    7
 10
1037.5349000000001
 20
942.2186999999999
 11
907.53490000000011
 21
812.2186999999999
  0
LINE
  8
_0-1_LAYER003
  6
CONTINUOUS
 62
    7
 10
843.47090000000003
 20
812.2186999999999
 11
1872.3908999999999
 21
812.2186999999999
  0
LINE
  8
_0-1_LAYER003
  6
CONTINUOUS
 62
    7
 10
1722.3908999999999
 20
889.98180000000002
 11
1722.3908999999999
 21
838.28179999999998
  0
LINE
  8
_0-1_LAYER003
  6
CONTINUOUS
 62
    7
 10
1722.3908999999999
 20
839.98180000000002
 11
1872.3908999999999
 21
839.98180000000002
  0
LINE
  8
_0-1_LAYER003
  6
CONTINUOUS
 62
    7
 10
1872.3908999999999
 20
838.28179999999998
 11
1872.3908999999999
 21
889.98180000000002
  0
LINE
  8
_0-1_LAYER003
  6
CONTINUOUS
 62
    7
 10
1892.529
 20
880.97280000000001
 11
2126.529
 21
880.97280000000001
  0
LINE
  8
_0-1_LAYER003
  6
CONTINUOUS
 62
    7
 10
1998.5093000000002
 20
929.51890000000003
 11
1922.4076
 21
929.51890000000003
  0
LINE
  8
_0-1_LAYER003
  6
CONTINUOUS
 62
    7
 10
1892.529
 20
880.97280000000001
 11
1830.3334
 21
988.69869999999992
  0
LINE
  8
_0-1_LAYER003
  6
CONTINUOUS
 62
    7
 10
1830.3334
 20
988.69869999999992
 11
1832.2745
 21
981.4543000000001
  0
LINE
  8
_0-1_LAYER003
  6
CONTINUOUS
 62
    7
 10
1830.3334
 20
988.69869999999992
 11
1835.6367
 21
983.39540000000011
  0
LINE
  8
_0-1_LAYER003
  6
CONTINUOUS
 62
    7
 10
1870.0679
 20
984.71569999999997
 11
1870.0679
 21
1232.2186999999999
  0
LINE
  8
_0-1_LAYER003
  6
CONTINUOUS
 62
    7
 10
1842.3908999999999
 20
1177.4384296180826
 11
1842.3908999999999
 21
1140.0255
  0
LINE
  8
_0-1_LAYER003
  6
CONTINUOUS
 62
    7
 10
1842.3908999999999
 20
1140.0255
 11
1872.3908999999999
 21
1140.0255
  0
LINE
  8
_0-1_LAYER003
  6
CONTINUOUS
 62
    7
 10
1872.3908999999999
 20
1140.0255
 11
1872.3908999999999
 21
1180.0255
  0
LINE
  8
_0-1_LAYER003
  6
CONTINUOUS
 62
    7
 10
1872.3908999999999
 20
1180.0255
 11
1856.5152034042549
 21
1180.0255
  0
LINE
  8
_0-1_LAYER003
  6
CONTINUOUS
 62
    7
 10
1856.5152034042549
 20
1180.0255
 11
1842.3908999999999
 21
1177.4384296180826
  0
LINE
  8
_0-1_LAYER003
  6
CONTINUOUS
 62
    7
 10
1844.5620637020015
 20
1177.8361096414421
 11
1859.9843000000001
 21
1151.124
  0
LINE
  8
_0-1_LAYER003
  6
CONTINUOUS
 62
    7
 10
1859.9843000000001
 20
1151.124
 11
1854.681
 21
1156.4273000000001
  0
LINE
  8
_0-1_LAYER003
  6
CONTINUOUS
 62
    7
 10
1842.3908999999999
 20
1166.0255
 11
1848.3908000000001
 21
1163.0254
  0
LINE
  8
_0-1_LAYER003
  6
CONTINUOUS
 62
    7
 10
1848.3908000000001
 20
1163.0254
 11
1848.3908000000001
 21
1157.0255
  0
LINE
  8
_0-1_LAYER003
  6
CONTINUOUS
 62
    7
 10
1848.3908000000001
 20
1157.0255
 11
1842.3908999999999
 21
1154.0254
  0
LINE
  8
_0-1_LAYER003
  6
CONTINUOUS
 62
    7
 10
1872.3908999999999
 20
1157.0255
 11
1848.3908000000001
 21
1157.0255
  0
LINE
  8
_0-1_LAYER003
  6
CONTINUOUS
 62
    7
 10
1859.7968999999998
 20
1157.9313
 11
1857.6997999999999
 21
1166.5654
  0
LINE
  8
_0-1_LAYER003
  6
CONTINUOUS
 62
    7
 10
1854.3406
 20
1164.9991
 11
1859.7968999999998
 21
1157.9313
  0
LINE
  8
_0-1_LAYER003
  6
CONTINUOUS
 62
    7
 10
1858.0432000000001
 20
1158.3685
 11
1859.9843000000001
 21
1151.124
  0
LINE
  8
_0-1_LAYER003
  6
CONTINUOUS
 62
    7
 10
1848.3908000000001
 20
1163.0254
 11
1872.3908999999999
 21
1163.0254
  0
LINE
  8
_0-1_LAYER003
  6
CONTINUOUS
 62
    7
 10
1857.6997999999999
 20
1166.5654
 11
1846.2891
 21
1191.0382
  0
LINE
  8
_0-1_LAYER003
  6
CONTINUOUS
 62
    7
 10
1846.2891
 20
1191.0382
 11
1847.9715999999999
 21
1193.5827999999999
  0
LINE
  8
_0-1_LAYER003
  6
CONTINUOUS
 62
    7
 10
1847.9715999999999
 20
1193.5827999999999
 11
1839.9009000000001
 21
1189.8200999999999
  0
LINE
  8
_0-1_LAYER003
  6
CONTINUOUS
 62
    7
 10
1839.9009000000001
 20
1189.8200999999999
 11
1842.9297000000001
 21
1189.4734000000001
  0
LINE
  8
_0-1_LAYER003
  6
CONTINUOUS
 62
    7
 10
1842.9297000000001
 20
1189.4734000000001
 11
1854.3406
 21
1164.9991
  0
LINE
  8
_0-1_LAYER003
  6
CONTINUOUS
 62
    7
 10
1844.5620637020015
 20
1177.8361096414421
 11
1750.8476000000001
 21
1340.1543999999999
  0
LINE
  8
_0-1_LAYER003
  6
CONTINUOUS
 62
    7
 10
1750.8476000000001
 20
1340.1543999999999
 11
1616.7547
 21
1340.1543999999999
  0
LINE
  8
_0-1_LAYER003
  6
CONTINUOUS
 62
    7
 10
1502.9749000000002
 20
1311.3152
 11
1736.9749000000002
 21
1311.3152
  0
LINE
  8
_0-1_LAYER003
  6
CONTINUOUS
 62
    7
 10
1602.7204000000002
 20
1273.7945999999999
 11
1733.2204000000002
 21
1273.7945999999999
  0
LINE
  8
_0-1_LAYER003
  6
CONTINUOUS
 62
    7
 10
1590.1417000000001
 20
1201.8770999999999
 11
1704.1417000000001
 21
1201.8770999999999
  0
LINE
  8
_0-1_LAYER003
  6
CONTINUOUS
 62
    7
 10
1704.1417000000001
 20
1201.8770999999999
 11
1754.6826999999998
 21
1114.3375000000001
  0
LINE
  8
_0-1_LAYER003
  6
CONTINUOUS
 62
    7
 10
1754.6826999999998
 20
1114.3375000000001
 11
1752.7415999999998
 21
1121.5818999999999
  0
LINE
  8
_0-1_LAYER003
  6
CONTINUOUS
 62
    7
 10
1754.6826999999998
 20
1114.3375000000001
 11
1749.3793999999998
 21
1119.6407999999999
  0
LINE
  8
_0-1_LAYER003
  6
CONTINUOUS
 62
    7
 10
1756.3879000000002
 20
1160.8986
 11
1760.6819999999998
 21
1167.2691
  0
LINE
  8
_0-1_LAYER003
  6
CONTINUOUS
 62
    7
 10
1756.3879000000002
 20
1160.8986
 11
1756.9358999999999
 21
1178.9775999999999
  0
LINE
  8
_0-1_LAYER003
  6
CONTINUOUS
 62
    7
 10
1756.9358999999999
 20
1178.9775999999999
 11
1846.9358999999999
 21
1195.4623999999999
  0
LINE
  8
_0-1_LAYER003
  6
CONTINUOUS
 62
    7
 10
1846.9358999999999
 20
1195.4623999999999
 11
1846.9358999999999
 21
1295.4623999999999
  0
LINE
  8
_0-1_LAYER003
  6
CONTINUOUS
 62
    7
 10
1846.9358999999999
 20
1295.4623999999999
 11
1871.9358999999999
 21
1295.4623999999999
  0
LINE
  8
_0-1_LAYER003
  6
CONTINUOUS
 62
    7
 10
1862.8969000000002
 20
1181.1944000000001
 11
1860.1949
 21
1195.9494
  0
LINE
  8
_0-1_LAYER003
  6
CONTINUOUS
 62
    7
 10
1860.1949
 20
1195.9494
 11
1771.6669000000002
 21
1179.7334000000001
  0
LINE
  8
_0-1_LAYER003
  6
CONTINUOUS
 62
    7
 10
1771.6669000000002
 20
1179.7334000000001
 11
1774.3699000000001
 21
1164.9793999999999
  0
LINE
  8
_0-1_LAYER003
  6
CONTINUOUS
 62
    7
 10
1774.3699000000001
 20
1164.9793999999999
 11
1862.8969000000002
 21
1181.1944000000001
  0
LINE
  8
_0-1_LAYER003
  6
CONTINUOUS
 62
    7
 10
1788.2118
 20
1182.4290000000001
 11
1790.1529
 21
1175.1845000000001
  0
LINE
  8
_0-1_LAYER003
  6
CONTINUOUS
 62
    7
 10
1790.1529
 20
1175.1845000000001
 11
1784.8496
 21
1180.4878000000001
  0
LINE
  8
_0-1_LAYER003
  6
CONTINUOUS
 62
    7
 10
1805.9580000000001
 20
1195.7155
 11
1807.8991000000001
 21
1188.471
  0
LINE
  8
_0-1_LAYER003
  6
CONTINUOUS
 62
    7
 10
1807.8991000000001
 20
1188.471
 11
1802.5958000000001
 21
1193.7743
  0
LINE
  8
_0-1_LAYER003
  6
CONTINUOUS
 62
    7
 10
1790.1529
 20
1175.1845000000001
 11
1733.2204000000002
 21
1273.7945999999999
  0
LINE
  8
_0-1_LAYER003
  6
CONTINUOUS
 62
    7
 10
1736.9749000000002
 20
1311.3152
 11
1807.8991000000001
 21
1188.471
  0
LINE
  8
_0-1_LAYER003
  6
CONTINUOUS
 62
    7
 10
1771.6669000000002
 20
1179.7334000000001
 11
1862.8969000000002
 21
1181.1944000000001
  0
LINE
  8
_0-1_LAYER003
  6
CONTINUOUS
 62
    7
 10
1830.7982999999999
 20
1163.1052
 11
1847.2275
 21
1163.1052
  0
LINE
  8
_0-1_LAYER003
  6
CONTINUOUS
 62
    7
 10
1847.2275
 20
1163.1052
 11
1847.2275
 21
1145.1652999999999
  0
LINE
  8
_0-1_LAYER003
  6
CONTINUOUS
 62
    7
 10
1847.2275
 20
1145.1652999999999
 11
1830.7982999999999
 21
1145.1652999999999
  0
LINE
  8
_0-1_LAYER003
  6
CONTINUOUS
 62
    7
 10
1830.7982999999999
 20
1145.1652999999999
 11
1830.7982999999999
 21
1163.1052
  0
LINE
  8
_0-1_LAYER003
  6
CONTINUOUS
 62
    7
 10
1847.2275
 20
1145.1652999999999
 11
1849.4935999999998
 21
1141.7189000000001
  0
LINE
  8
_0-1_LAYER003
  6
CONTINUOUS
 62
    7
 10
1849.4935999999998
 20
1141.7189000000001
 11
1826.7860000000001
 21
1113.8206
  0
LINE
  8
_0-1_LAYER003
  6
CONTINUOUS
 62
    7
 10
1826.7860000000001
 20
1113.8206
 11
1820.7896999999998
 21
1112.8262
  0
LINE
  8
_0-1_LAYER003
  6
CONTINUOUS
 62
    7
 10
1820.7896999999998
 20
1112.8262
 11
1820.7896999999998
 21
1131.5215000000001
  0
LINE
  8
_0-1_LAYER003
  6
CONTINUOUS
 62
    7
 10
1820.7896999999998
 20
1131.5215000000001
 11
1847.2275
 21
1145.1652999999999
  0
LINE
  8
_0-1_LAYER003
  6
CONTINUOUS
 62
    7
 10
1872.3908999999999
 20
1164.2755
 11
1890.5907999999999
 21
1164.2765999999999
  0
LINE
  8
_0-1_LAYER003
  6
CONTINUOUS
 62
    7
 10
1890.5907999999999
 20
1164.2755
 11
1899.6848
 21
1165.8805
  0
LINE
  8
_0-1_LAYER003
  6
CONTINUOUS
 62
    7
 10
1899.6848
 20
1165.8805
 11
1899.9807999999998
 21
1164.2065
  0
LINE
  8
_0-1_LAYER003
  6
CONTINUOUS
 62
    7
 10
1899.9807999999998
 20
1164.2065
 11
1901.6549
 21
1164.5015000000001
  0
LINE
  8
_0-1_LAYER003
  6
CONTINUOUS
 62
    7
 10
1901.6549
 20
1164.5015000000001
 11
1901.3589543861144
 21
1166.1745272309468
  0
LINE
  8
_0-1_LAYER003
  6
CONTINUOUS
 62
    7
 10
1901.3589543861144
 20
1166.1745272309468
 11
1904.0178000000001
 21
1166.6434999999999
  0
LINE
  8
_0-1_LAYER003
  6
CONTINUOUS
 62
    7
 10
1904.0178000000001
 20
1166.6434999999999
 11
1904.3139000000001
 21
1164.9704999999999
  0
LINE
  8
_0-1_LAYER003
  6
CONTINUOUS
 62
    7
 10
1904.3139000000001
 20
1164.9704999999999
 11
1905.9879000000001
 21
1165.2655
  0
LINE
  8
_0-1_LAYER003
  6
CONTINUOUS
 62
    7
 10
1905.9879000000001
 20
1165.2655
 11
1905.6918999999998
 21
1166.9395999999999
  0
LINE
  8
_0-1_LAYER003
  6
CONTINUOUS
 62
    7
 10
1905.6918999999998
 20
1166.9395999999999
 11
1908.3508000000002
 21
1167.4076
  0
LINE
  8
_0-1_LAYER003
  6
CONTINUOUS
 62
    7
 10
1908.3508000000002
 20
1167.4076
 11
1908.6468
 21
1165.7345
  0
LINE
  8
_0-1_LAYER003
  6
CONTINUOUS
 62
    7
 10
1908.6468
 20
1165.7345
 11
1910.3209000000002
 21
1166.0295000000001
  0
LINE
  8
_0-1_LAYER003
  6
CONTINUOUS
 62
    7
 10
1910.3209000000002
 20
1166.0295000000001
 11
1910.0250886121148
 21
1167.7024333220265
  0
LINE
  8
_0-1_LAYER003
  6
CONTINUOUS
 62
    7
 10
1910.0250886121148
 20
1167.7024333220265
 11
1911.5029411389071
 21
1167.9652593242561
  0
LINE
  8
_0-1_LAYER003
  6
CONTINUOUS
 62
    7
 10
1911.5029411389071
 20
1167.9652593242561
 11
1913.2349313622894
 21
1166.7545057996451
  0
LINE
  8
_0-1_LAYER003
  6
CONTINUOUS
 62
    7
 10
1913.2349313622894
 20
1166.7545057996451
 11
1913.6399000000001
 21
1164.4825000000001
  0
LINE
  8
_0-1_LAYER003
  6
CONTINUOUS
 62
    7
 10
1913.6399000000001
 20
1164.4825000000001
 11
1888.3669
 21
1160.0265999999999
  0
LINE
  8
_0-1_LAYER003
  6
CONTINUOUS
 62
    7
 10
1888.3669
 20
1160.0265999999999
 11
1913.4648000000002
 21
1155.6005
  0
LINE
  8
_0-1_LAYER003
  6
CONTINUOUS
 62
    7
 10
1913.4648000000002
 20
1155.6005
 11
1913.0668999999998
 21
1153.3356000000001
  0
LINE
  8
_0-1_LAYER003
  6
CONTINUOUS
 62
    7
 10
1913.0668999999998
 20
1153.3356000000001
 11
1911.3228068191861
 21
1152.1249791172679
  0
LINE
  8
_0-1_LAYER003
  6
CONTINUOUS
 62
    7
 10
1911.3228068191861
 20
1152.1249791172679
 11
1909.8508000000002
 21
1152.3806
  0
LINE
  8
_0-1_LAYER003
  6
CONTINUOUS
 62
    7
 10
1909.8508000000002
 20
1152.3806
 11
1910.1459
 21
1154.0535
  0
LINE
  8
_0-1_LAYER003
  6
CONTINUOUS
 62
    7
 10
1910.1459
 20
1154.0535
 11
1908.4728
 21
1154.3484000000001
  0
LINE
  8
_0-1_LAYER003
  6
CONTINUOUS
 62
    7
 10
1908.4728
 20
1154.3484000000001
 11
1908.1768999999999
 21
1152.6755000000001
  0
LINE
  8
_0-1_LAYER003
  6
CONTINUOUS
 62
    7
 10
1908.1768999999999
 20
1152.6755000000001
 11
1905.5178000000001
 21
1153.1445000000001
  0
LINE
  8
_0-1_LAYER003
  6
CONTINUOUS
 62
    7
 10
1905.5178000000001
 20
1153.1445000000001
 11
1905.8128999999999
 21
1154.8175000000001
  0
LINE
  8
_0-1_LAYER003
  6
CONTINUOUS
 62
    7
 10
1905.8128999999999
 20
1154.8175000000001
 11
1904.1398697637264
 21
1155.1123291037638
  0
LINE
  8
_0-1_LAYER003
  6
CONTINUOUS
 62
    7
 10
1904.1398697637264
 20
1155.1123291037638
 11
1903.8438999999998
 21
1153.4395
  0
LINE
  8
_0-1_LAYER003
  6
CONTINUOUS
 62
    7
 10
1903.8438999999998
 20
1153.4395
 11
1901.1848
 21
1153.9085
  0
LINE
  8
_0-1_LAYER003
  6
CONTINUOUS
 62
    7
 10
1901.1848
 20
1153.9085
 11
1901.4807999999998
 21
1155.5814
  0
LINE
  8
_0-1_LAYER003
  6
CONTINUOUS
 62
    7
 10
1901.4807999999998
 20
1155.5814
 11
1899.8058999999998
 21
1155.8765000000001
  0
LINE
  8
_0-1_LAYER003
  6
CONTINUOUS
 62
    7
 10
1899.8058999999998
 20
1155.8765000000001
 11
1899.5108
 21
1154.2036000000001
  0
LINE
  8
_0-1_LAYER003
  6
CONTINUOUS
 62
    7
 10
1899.5108
 20
1154.2036000000001
 11
1890.5907999999999
 21
1155.7755
  0
LINE
  8
_0-1_LAYER003
  6
CONTINUOUS
 62
    7
 10
1872.3908999999999
 20
1155.7755
 11
1890.5907999999999
 21
1155.7755
  0
LINE
  8
_0-1_LAYER003
  6
CONTINUOUS
 62
    7
 10
1856.8335000000002
 20
1089.8965000000001
 11
1866.3989000000001
 21
1102.2186999999999
  0
LINE
  8
_0-1_LAYER003
  6
CONTINUOUS
 62
    7
 10
1866.3989000000001
 20
1102.2186999999999
 11
1866.3989000000001
 21
987.09069999999997
  0
LINE
  8
_0-1_LAYER003
  6
CONTINUOUS
 62
    7
 10
1866.3989000000001
 20
987.09069999999997
 11
1730.4798999999998
 21
987.09069999999997
  0
LINE
  8
_0-1_LAYER003
  6
CONTINUOUS
 62
    7
 10
1730.4798999999998
 20
987.09069999999997
 11
1730.4798999999998
 21
1004.0612000000001
  0
LINE
  8
_0-1_LAYER003
  6
CONTINUOUS
 62
    7
 10
1730.4798999999998
 20
1004.0612000000001
 11
1751.0239000000001
 21
1004.0612000000001
  0
LINE
  8
_0-1_LAYER003
  6
CONTINUOUS
 62
    7
 10
1751.0239000000001
 20
1004.0612000000001
 11
1730.4798999999998
 21
1004.0612000000001
  0
LINE
  8
_0-1_LAYER003
  6
CONTINUOUS
 62
    7
 10
1539.4038999999998
 20
959.81349999999998
 11
1549.4038999999998
 21
959.81349999999998
  0
LINE
  8
_0-1_LAYER003
  6
CONTINUOUS
 62
    7
 10
1549.4038999999998
 20
959.81349999999998
 11
1549.4038999999998
 21
905.7947999999999
  0
LINE
  8
_0-1_LAYER003
  6
CONTINUOUS
 62
    7
 10
1549.4038999999998
 20
905.7947999999999
 11
1570.7739000000001
 21
905.7947999999999
  0
LINE
  8
_0-1_LAYER003
  6
CONTINUOUS
 62
    7
 10
1570.7739000000001
 20
905.7947999999999
 11
1570.7739000000001
 21
895.7947999999999
  0
LINE
  8
_0-1_LAYER003
  6
CONTINUOUS
 62
    7
 10
1570.7739000000001
 20
895.7947999999999
 11
1539.4038999999998
 21
895.7947999999999
  0
LINE
  8
_0-1_LAYER003
  6
CONTINUOUS
 62
    7
 10
1539.4038999999998
 20
895.7947999999999
 11
1539.4038999999998
 21
959.81349999999998
  0
LINE
  8
_0-1_LAYER003
  6
CONTINUOUS
 62
    7
 10
1840.54
 20
1071.3177000000001
 11
1842.4812000000002
 21
1064.0732
  0
LINE
  8
_0-1_LAYER003
  6
CONTINUOUS
 62
    7
 10
1840.54
 20
1071.3177000000001
 11
1845.8433
 21
1066.0144
  0
LINE
  8
_0-1_LAYER003
  6
CONTINUOUS
 62
    7
 10
1840.54
 20
1071.3177000000001
 11
1922.4076
 21
929.51890000000003
  0
LINE
  8
_0-1_LAYER003
  6
CONTINUOUS
 62
    7
 10
1955.3114
 20
987.09069999999997
 11
2007.0114000000001
 21
987.09069999999997
  0
LINE
  8
_0-1_LAYER003
  6
CONTINUOUS
 62
    7
 10
2005.3114
 20
987.09069999999997
 11
2005.3114
 21
1102.2186999999999
  0
LINE
  8
_0-1_LAYER003
  6
CONTINUOUS
 62
    7
 10
2007.0114000000001
 20
1102.2186999999999
 11
1955.3114
 21
1102.2186999999999
  0
LINE
  8
_0-1_LAYER003
  6
CONTINUOUS
 62
    7
 10
2043.2492000000002
 20
982.2186999999999
 11
2094.9492000000005
 21
982.2186999999999
  0
LINE
  8
_0-1_LAYER003
  6
CONTINUOUS
 62
    7
 10
2093.2492000000002
 20
982.2186999999999
 11
2093.2492000000002
 21
1232.2186999999999
  0
LINE
  8
_0-1_LAYER003
  6
CONTINUOUS
 62
    7
 10
2094.9492000000005
 20
1232.2186999999999
 11
2043.2492000000002
 21
1232.2186999999999
  0
LINE
  8
_0-1_LAYER003
  6
CONTINUOUS
 62
    7
 10
2043.2492000000002
 20
1232.2186999999999
 11
2093.2492000000002
 21
1232.2186999999999
  0
LINE
  8
_0-1_LAYER003
  6
CONTINUOUS
 62
    7
 10
1955.3114
 20
1195.4623999999999
 11
2007.0114000000001
 21
1195.4623999999999
  0
LINE
  8
_0-1_LAYER003
  6
CONTINUOUS
 62
    7
 10
2005.3114
 20
1195.4623999999999
 11
2005.3114
 21
1315.4623999999999
  0
LINE
  8
_0-1_LAYER003
  6
CONTINUOUS
 62
    7
 10
2007.0114000000001
 20
1315.4623999999999
 11
1955.3114
 21
1315.4623999999999
  0
LINE
  8
_0-1_LAYER003
  6
CONTINUOUS
 62
    7
 10
1955.3114
 20
1295.4623999999999
 11
2007.0114000000001
 21
1295.4623999999999
  0
LINE
  8
_0-3_LAYER005
  6
CONTINUOUS
 62
    2
 10
1847.3908999999999
 20
1315.4623999999999
 11
1871.9358999999999
 21
1315.4623999999999
  0
LINE
  8
_0-1_LAYER003
  6
CONTINUOUS
 62
    7
 10
1847.3908999999999
 20
1315.4623999999999
 11
1872.3908999999999
 21
1315.4623999999999
  0
LINE
  8
_0-2_LAYER004
  6
CONTINUOUS
 62
    2
 10
1847.3908999999999
 20
1315.4623999999999
 11
1847.3908999999999
 21
1476.0736999999999
  0
LINE
  8
_0-1_LAYER003
  6
CONTINUOUS
 62
    7
 10
1847.3908999999999
 20
1315.4623999999999
 11
1847.3908999999999
 21
1476.0736999999999
  0
LINE
  8
_0-1_LAYER003
  6
CONTINUOUS
 62
    7
 10
1851.7875999999997
 20
1315.4623999999999
 11
1990.7689
 21
1454.4436999999998
  0
LINE
  8
_0-1_LAYER003
  6
CONTINUOUS
 62
    7
 10
1847.3908999999999
 20
1333.6927000000001
 11
1990.7689
 21
1477.0706999999998
  0
LINE
  8
_0-1_LAYER003
  6
CONTINUOUS
 62
    7
 10
1847.3908999999999
 20
1322.3786999999998
 11
1990.7689
 21
1465.7566999999999
  0
LINE
  8
_0-1_LAYER003
  6
CONTINUOUS
 62
    7
 10
1756.9358999999999
 20
1276.0457000000001
 11
1756.9358999999999
 21
1249.3457000000001
  0
LINE
  8
_0-1_LAYER003
  6
CONTINUOUS
 62
    7
 10
1756.9358999999999
 20
1274.3457000000001
 11
1846.9358999999999
 21
1274.3457000000001
  0
ARC
  8
_0-1_LAYER003
  6
CONTINUOUS
 62
    7
 10
1830.1163369629626
 20
1304.0949566211812
 40
20.69453431515376
 50
335.49243592949813
 51
33.318789070501829
  0
LINE
  8
_0-1_LAYER003
  6
CONTINUOUS
 62
    7
 10
1215.8395
 20
1129.2646
 11
1256.3395
 21
1129.2646
  0
LINE
  8
_0-1_LAYER003
  6
CONTINUOUS
 62
    7
 10
1256.3395
 20
1129.2646
 11
1317.3532
 21
1023.5856000000001
  0
LINE
  8
_0-1_LAYER003
  6
CONTINUOUS
 62
    7
 10
1317.3532
 20
1023.5856000000001
 11
1315.4121
 21
1030.8299999999999
  0
LINE
  8
_0-1_LAYER003
  6
CONTINUOUS
 62
    7
 10
1317.3532
 20
1023.5856000000001
 11
1312.0499
 21
1028.8888999999999
  0
LINE
  8
_0-1_LAYER003
  6
CONTINUOUS
 62
    7
 10
1312.0499
 20
1028.8888999999999
 11
1317.3532
 21
1023.5856000000001
  0
LINE
  8
_0-1_LAYER003
  6
CONTINUOUS
 62
    7
 10
1072.6110000000001
 20
991.92740000000003
 11
1072.6110000000001
 21
984.42740000000003
  0
LINE
  8
_0-1_LAYER003
  6
CONTINUOUS
 62
    7
 10
1072.6110000000001
 20
991.92740000000003
 11
1076.3610000000001
 21
985.43219999999997
  0
LINE
  8
_0-1_LAYER003
  6
CONTINUOUS
 62
    7
 10
1156.0561717139365
 20
683.09850000000006
 11
1360.6283000000003
 21
683.09850000000006
  0
LINE
  8
_0-0_LAYER001
  6
CONTINUOUS
 62
    2
 10
1171.4282273204585
 20
623.13660000000004
 11
1410.2807000000003
 21
623.13660000000004
  0
LINE
  8
_0-1_LAYER003
  6
CONTINUOUS
 62
    7
 10
1171.4282273204585
 20
623.13660000000004
 11
1410.2807000000003
 21
623.13660000000004
  0
LINE
  8
_0-0_LAYER001
  6
CONTINUOUS
 62
    2
 10
1072.6110000000001
 20
991.92740000000003
 11
1171.4282273204585
 21
623.13660000000004
  0
LINE
  8
_0-1_LAYER003
  6
CONTINUOUS
 62
    7
 10
1171.4282273204585
 20
623.13660000000004
 11
1072.6110000000001
 21
991.92740000000003
  0
LINE
  8
_0-1_LAYER003
  6
CONTINUOUS
 62
    7
 10
1197.4168999999999
 20
954.85320000000002
 11
1199.1618146814246
 21
948.34098531857535
  0
LINE
  8
_0-1_LAYER003
  6
CONTINUOUS
 62
    7
 10
1197.4168999999999
 20
954.85320000000002
 11
1202.7202
 21
949.54989999999998
  0
LINE
  8
_0-1_LAYER003
  6
CONTINUOUS
 62
    7
 10
1197.4168999999999
 20
954.85320000000002
 11
1234.8795
 21
889.9661000000001
  0
LINE
  8
_0-1_LAYER003
  6
CONTINUOUS
 62
    7
 10
1234.8795
 20
889.9661000000001
 11
1294.8795
 21
889.9661000000001
  0
LINE
  8
_0-1_LAYER003
  6
CONTINUOUS
 62
    7
 10
1351.1059
 20
812.2186999999999
 11
1481.1059
 21
942.2186999999999
  0
LINE
  8
_0-1_LAYER003
  6
CONTINUOUS
 62
    7
 10
1339.7928999999999
 20
812.2186999999999
 11
1469.7928999999999
 21
942.2186999999999
  0
LINE
  8
_0-1_LAYER003
  6
CONTINUOUS
 62
    7
 10
1328.4789000000001
 20
812.2186999999999
 11
1458.4789000000001
 21
942.2186999999999
  0
LINE
  8
_0-1_LAYER003
  6
CONTINUOUS
 62
    7
 10
929.08269999999993
 20
734.77620000000002
 11
929.08269999999993
 21
786.47620000000006
  0
LINE
  8
_0-1_LAYER003
  6
CONTINUOUS
 62
    7
 10
929.08269999999993
 20
736.47620000000006
 11
1764.0826999999999
 21
736.47620000000006
  0
LINE
  8
_0-1_LAYER003
  6
CONTINUOUS
 62
    7
 10
1764.0826999999999
 20
734.77620000000002
 11
1764.0826999999999
 21
786.47620000000006
  0
LINE
  8
_0-1_LAYER003
  6
CONTINUOUS
 62
    7
 10
1459.0826999999999
 20
786.47620000000006
 11
1459.0826999999999
 21
736.47620000000006
  0
LINE
  8
_0-1_LAYER003
  6
CONTINUOUS
 62
    7
 10
1459.0826999999999
 20
736.47620000000006
 11
1459.0826999999999
 21
734.77620000000002
  0
LINE
  8
_0-1_LAYER003
  6
CONTINUOUS
 62
    7
 10
1194.0826999999999
 20
734.77620000000002
 11
1194.0826999999999
 21
786.47620000000006
  0
TEXT
  8
_0-1_LAYER003
 62
    7
 10
1204.742773218896
 20
1137.6972360839809
 40
20
 41
1
 50
0
  1
桟　瓦
  0
TEXT
  8
_0-1_LAYER003
 62
    7
 10
1397.6182454908442
 20
1315.9609301535088
 40
20
 41
1
 50
0
  1
雨押水切カラー鋼板0.35ｍｍ以上
  0
TEXT
  8
_0-0_LAYER001
 62
    7
 10
1625.561985448601
 20
1345.1844865583494
 40
20
 41
1
 50
0
  1
下地：40x30
  0
TEXT
  8
_0-0_LAYER001
 62
    7
 10
1054.2414577339669
 20
749.02393589960047
 40
20
 41
1
 50
0
  1
265
  0
TEXT
  8
_0-2_LAYER004
 62
    7
 10
1790.4831689150865
 20
1282.6426556698361
 40
20
 41
1
 50
0
  1
90
  0
TEXT
  8
_0-2_LAYER004
 62
    7
 10
1783.0879750576328
 20
848.43913061076205
 40
20
 41
1
 50
0
  1
150
  0
TEXT
  8
_0-1_LAYER003
 62
    7
 10
1599.264584886638
 20
748.07578540246027
 40
20
 41
1
 50
0
  1
305
  0
TEXT
  8
_0-1_LAYER003
 62
    7
 10
1319.3036745687434
 20
747.01932913710971
 40
20
 41
1
 50
0
  1
265
  0
TEXT
  8
_0-1_LAYER003
 62
    7
 10
1161.8916910315122
 20
687.85777827747916
 40
20
 41
1
 50
0
  1
瓦桟：15x30以上
  0
TEXT
  8
_0-1_LAYER003
 62
    7
 10
983.35058218726999
 20
863.22951832566991
 40
20
 41
1
 50
0
  1
アンカー
  0
TEXT
  8
_0-2_LAYER004
 62
    7
 10
1237.9565421367513
 20
894.92320628618609
 40
20
 41
1
 50
0
  1
溶接金網
  0
TEXT
  8
_0-1_LAYER003
 62
    7
 10
1928.878939676008
 20
931.8991755734553
 40
20
 41
1
 50
0
  1
葺　土
  0
TEXT
  8
_0-1_LAYER003
 62
    7
 10
1896.1287954501413
 20
887.52801242873238
 40
20
 41
1
 50
0
  1
捨谷水切カラー鋼板0.35ｍｍ以上
  0
TEXT
  8
_0-1_LAYER003
 62
    7
 10
1549.6111404151623
 20
1204.4648920338959
 40
20
 41
1
 50
0
  1
熨斗瓦２段積み
  0
TEXT
  8
_0-1_LAYER003
 62
    7
 10
1681.6681735839804
 20
1403.0786699197984
 40
20
 41
1
 50
0
  1
シーリング
  0
TEXT
  8
_0-1_LAYER003
 62
    7
 10
1598.2081286212874
 20
1276.303918077733
 40
20
 41
1
 50
0
  1
笠木：15x90
  0
TEXT
  8
_0-2_LAYER004
 62
    7
 10
1991.1013287140536
 20
1295.0426221861612
 40
20
 41
1
 50
90
  1
20
  0
TEXT
  8
_0-0_LAYER001
 62
    7
 10
1991.1013287140536
 20
1233.0194349146645
 40
20
 41
1
 50
90
  1
100
  0
TEXT
  8
_0-2_LAYER004
 62
    7
 10
1988.644964861717
 20
1029.7553261338185
 40
20
 41
1
 50
90
  1
115
  0
TEXT
  8
_0-2_LAYER004
 62
    7
 10
2081.9867912505042
 20
1093.6207862945678
 40
20
 41
1
 50
90
  1
250
  0
TEXT
  8
_0-2_LAYER004
 62
    7
 10
2031.6313322776059
 20
1164.8553380123265
 40
20
 41
1
 50
90
  1
水切り立上がり寸法
  0
TEXT
  8
_0-1_LAYER003
 62
    7
 10
2122.516794814057
 20
992.90986834877094
 40
20
 41
1
 50
90
  1
下葺き材立上がり寸法
  0
LINE
  8
_0-2_LAYER004
  6
CONTINUOUS
 62
    7
 10
1410.2807000000003
 20
623.13660000000004
 11
1474.6508287603026
 21
623.13660000000004
  0
LINE
  8
_0-2_LAYER004
  6
CONTINUOUS
 62
    7
 10
2126.529
 20
880.97280000000001
 11
2255.7745338033124
 21
880.97280000000001
  0
LINE
  8
_0-2_LAYER004
  6
CONTINUOUS
 62
    7
 10
1711.6700999999998
 20
1400.6061999999999
 11
1678.5290285042329
 21
1400.6061999999999
  0
LINE
  8
_0-2_LAYER004
  6
CONTINUOUS
 62
    7
 10
1215.8395
 20
1129.2646
 11
1201.9944411509503
 21
1129.2646
  0
LINE
  8
_0-2_LAYER004
  6
CONTINUOUS
 62
    7
 10
1294.8795
 20
889.9661000000001
 11
1334.6380891771216
 21
889.9661000000001
  0
LINE
  8
_0-2_LAYER004
  6
CONTINUOUS
 62
    7
 10
1050.6114346964341
 20
858.39439999999991
 11
1081.6326123864612
 21
858.39439999999991
  0
TEXT
  8
_0-1_LAYER003
 62
    7
 10
1183.6586414445399
 20
628.63284608770425
 40
20
 41
1
 50
0
  1
パーライト系モルタルｔ＝40
  0
TEXT
  8
_0-1_LAYER003
 62
    7
 10
1165.7824591573517
 20
656.72398968185712
 40
20
 41
1
 50
0
  1
下葺材：ルーフィング
  0
LINE
  8
_0-0_LAYER001
  6
CONTINUOUS
 62
    2
 10
1162.7147
 20
653.2319
 11
1364.9742046431641
 21
653.2319
  0
LINE
  8
_0-1_LAYER003
  6
CONTINUOUS
 62
    7
 10
1164.1260886339899
 20
653.2319
 11
1387.9578675838347
 21
653.2319
  0
ENDSEC
  0
EOF
