  0
SECTION
  2
HEADER
  9
$ACADVER
  1
AC1009
  9
$INSBASE
 10
0
 20
0
 30
0
  9
$EXTMIN
 10
0
 20
0
  9
$EXTMAX
 10
2970
 20
2100
  9
$LIMMIN
 10
0
 20
0
  9
$LIMMAX
 10
2970
 20
2100
  9
$LTSCALE
 40
10
  0
ENDSEC
  0
SECTION
  2
TABLES
  0
TABLE
  2
LTYPE
 70
     9
  0
LTYPE
  2
CONTINUOUS
 70
    64
  3
実線
 72
    65
 73
     0
 40
0.0
  0
LTYPE
  2
DASHED1
 70
    64
  3
--  --  --  --  --  --  --  --  
 72
    65
 73
     2
 40
2.5
 49
1.25
 49
-1.25
  0
LTYPE
  2
DASHED2
 70
    64
  3
----    ----    ----    ----    
 72
    65
 73
     2
 40
5.0
 49
2.5
 49
-2.5
  0
LTYPE
  2
DASHED3
 70
    64
  3
------  ------  ------  ------  
 72
    65
 73
     2
 40
5.0
 49
3.75
 49
-1.25
  0
LTYPE
  2
CENTER1
 70
    64
  3
----- - ----- - ----- - ----- - 
 72
    65
 73
     4
 40
10.0
 49
6.25
 49
-1.25
 49
1.25
 49
-1.25
  0
LTYPE
  2
CENTER2
 70
    64
  3
----------  --  ----------  --  
 72
    65
 73
     4
 40
20.0
 49
12.5
 49
-2.5
 49
2.5
 49
-2.5
  0
LTYPE
  2
PHANTOM1
 70
    64
  3
--- - - --- - - --- - - --- - - 
 72
    65
 73
     6
 40
10.0
 49
3.25
 49
-1.25
 49
1.25
 49
-1.25
 49
1.25
 49
-1.25
  0
LTYPE
  2
PHANTOM2
 70
    64
  3
--------  -  -  --------  -  -  
 72
    65
 73
     6
 40
20.0
 49
10.0
 49
-2.5
 49
1.25
 49
-2.5
 49
1.25
 49
-2.5
  0
LTYPE
  2
DOT
 70
    64
  3
-   -   -   -   -   -   -   -   
 72
    65
 73
     2
 40
2.5
 49
0.625
 49
-1.875
  0
LTYPE
  2
DUMMY
 70
    64
  3
ダミー
 72
    65
 73
     0
 40
0.0
  0
LTYPE
  2
RAND1
 70
    64
  3
ランダム線1
 72
    65
 73
     4
 40
10.0
 49
1.0
 49
-2.0
 49
3.0
 49
-4.0
  0
LTYPE
  2
RAND2
 70
    64
  3
ランダム線2
 72
    65
 73
     4
 40
14.0
 49
2.0
 49
-3.0
 49
4.0
 49
-5.0
  0
LTYPE
  2
RAND3
 70
    64
  3
ランダム線3
 72
    65
 73
     4
 40
18.0
 49
3.0
 49
-4.0
 49
5.0
 49
-6.0
  0
LTYPE
  2
RAND4
 70
    64
  3
ランダム線4
 72
    65
 73
     4
 40
22.0
 49
4.0
 49
-5.0
 49
6.0
 49
-7.0
  0
LTYPE
  2
RAND5
 70
    64
  3
ランダム線5
 72
    65
 73
     4
 40
26.0
 49
5.0
 49
-6.0
 49
7.0
 49
-8.0
  0
LTYPE
  2
LONG1
 70
    64
  3
----------  --  ----------  --  
 72
    65
 73
     4
 40
40.0
 49
32.5
 49
-2.5
 49
2.5
 49
-2.5
  0
LTYPE
  2
LONG2
 70
    64
  3
--------  -  -  --------  -  -  
 72
    65
 73
     6
 40
40.0
 49
30.0
 49
-2.5
 49
1.25
 49
-2.5
 49
1.25
 49
-2.5
  0
LTYPE
  2
LONG3
 70
    64
  3
+++++++++++++++..+++++++++++++++
 72
    65
 73
     2
 40
40.0
 49
37.5
 49
-2.5
  0
LTYPE
  2
LONG4
 70
    64
  3
+++++++++++++++..+++++++++++++++
 72
    65
 73
     2
 40
80.0
 49
75.0
 49
-5.0
  0
LTYPE
  2
LONG5
 70
    64
  3
----------  --  ----------  --  
 72
    65
 73
     4
 40
60.0
 49
37.5
 49
-7.5
 49
7.5
 49
-7.5
  0
LTYPE
  2
dashed
 70
   64
  3
-------   -------------   ------
 72
   65
 73
    2
 40
7.5
 49
6
 49
-1.5
  0
LTYPE
  2
dashed_spaced
 70
   64
  3
----        --------        ----
 72
   65
 73
    2
 40
12
 49
6
 49
-6
  0
LTYPE
  2
long_dashed_dotted
 70
   64
  3
------------- --- --------------
 72
   65
 73
    4
 40
15.25
 49
12
 49
-1.5
 49
0.25
 49
-1.5
  0
LTYPE
  2
long_dashed_double-dotted
 70
   64
  3
----------- --- --- ------------
 72
   65
 73
    6
 40
17
 49
12
 49
-1.5
 49
0.25
 49
-1.5
 49
0.25
 49
-1.5
  0
LTYPE
  2
long_dashed_triplicate-dotted
 70
   64
  3
--------- --- --- --- ----------
 72
   65
 73
    8
 40
18.75
 49
12
 49
-1.5
 49
0.25
 49
-1.5
 49
0.25
 49
-1.5
 49
0.25
 49
-1.5
  0
LTYPE
  2
dotted
 70
   64
  3
   -       -       -       -    
 72
   65
 73
    2
 40
1.75
 49
0.25
 49
-1.5
  0
LTYPE
  2
chain
 70
   64
  3
-------------- -- --------------
 72
   65
 73
    4
 40
18.5
 49
12
 49
-1.5
 49
3.5
 49
-1.5
  0
LTYPE
  2
chain_double_dash
 70
   64
  3
------------ -- -- -------------
 72
   65
 73
    6
 40
23.5
 49
12
 49
-1.5
 49
3.5
 49
-1.5
 49
3.5
 49
-1.5
  0
LTYPE
  2
dashed_dotted
 70
   64
  3
-----------     -     ----------
 72
   65
 73
    4
 40
9.25
 49
6
 49
-1.5
 49
0.25
 49
-1.5
  0
LTYPE
  2
double-dashed_dotted
 70
   64
  3
------   -----------   -   -----
 72
   65
 73
    6
 40
16.75
 49
6
 49
-1.5
 49
6
 49
-1.5
 49
0.25
 49
-1.5
  0
LTYPE
  2
dashed_double-dotted
 70
   64
  3
---------    -    -    ---------
 72
   65
 73
    6
 40
11
 49
6
 49
-1.5
 49
0.25
 49
-1.5
 49
0.25
 49
-1.5
  0
LTYPE
  2
double-dashed_double-dotted
 70
   64
  3
-----   ---------   -   -   ----
 72
   65
 73
    8
 40
18.5
 49
6
 49
-1.5
 49
6
 49
-1.5
 49
0.25
 49
-1.5
 49
0.25
 49
-1.5
  0
LTYPE
  2
dashed_triplicate-dotted
 70
   64
  3
-------    -    -    -    ------
 72
   65
 73
    8
 40
12.75
 49
6
 49
-1.5
 49
0.25
 49
-1.5
 49
0.25
 49
-1.5
 49
0.25
 49
-1.5
  0
LTYPE
  2
double-dashed_triplicate-dotted
 70
   64
  3
-----  ---------  -  -  -  -----
 72
   65
 73
   10
 40
20.25
 49
6
 49
-1.5
 49
6
 49
-1.5
 49
0.25
 49
-1.5
 49
0.25
 49
-1.5
 49
0.25
 49
-1.5
  0
LTYPE
  2
undefined
 70
   64
  3
--------------------------------
 72
   65
 73
    0
 40
0
  0
ENDTAB
  0
TABLE
  2
STYLE
  5
3
100
AcDbSymbolTable
 70
     1
  0
STYLE
  5
10
100
AcDbSymbolTableRecord
100
AcDbTextStyleTableRecord
  2
STANDARD
 70
     0
 40
0.0
 41
1.0
 50
0.0
 71
     0
 42
0.2
  3
txt
  4
bigfont.shx
  0
STYLE
  5
26
100
AcDbSymbolTableRecord
100
AcDbTextStyleTableRecord
  2
TATEGAKI
 70
    68
 40
0.0
 41
1.0
 50
0.0
 71
     0
 42
1.0
  3
txt
  4
bigfont.shx
  0
ENDTAB
  0
TABLE
  2
LAYER
 70
    4
  0
LAYER
  2
_0-0_LAYER001
 70
   64
 62
    7
  6
CONTINUOUS
  0
LAYER
  2
_0-1_LAYER004
 70
   64
 62
    7
  6
CONTINUOUS
  0
LAYER
  2
_0-2_ADD_LINE
 70
   64
 62
    7
  6
CONTINUOUS
  0
LAYER
  2
ADD_LINE
 70
   64
 62
    7
  6
CONTINUOUS
  0
ENDTAB
  0
ENDSEC
  0
SECTION
  2
BLOCKS
  0
ENDSEC
  0
SECTION
  2
ENTITIES
  0
TEXT
  8
_0-0_LAYER001
 62
    7
 10
1692.9469815041864
 20
1171.5748345979118
 40
20
 41
1
 50
0
  1
桟　瓦
  0
LINE
  8
_0-2_ADD_LINE
  6
CONTINUOUS
 62
    7
 10
1704.5400167961623
 20
1167.1527333333333
 11
1692.9469815041864
 21
1167.1527333333333
  0
LINE
  8
_0-0_LAYER001
  6
DASHED1
 62
    2
 10
1662.6466
 20
1002.6821333333334
 11
1479.9785999999999
 21
920.48146666666662
  0
LINE
  8
_0-0_LAYER001
  6
DASHED1
 62
    2
 10
1297.1678666666667
 20
1002.6821333333334
 11
1479.8358666666668
 21
920.48146666666662
  0
LINE
  8
_0-0_LAYER001
  6
CONTINUOUS
 62
    2
 10
1445.8188
 20
997.15100000000007
 11
1460.1814000000002
 21
965.23366666666675
  0
CIRCLE
  8
_0-0_LAYER001
  6
CONTINUOUS
 62
    2
 10
1446.5027333333333
 20
995.63113333333331
 40
1.1333333333333331
  0
LINE
  8
_0-0_LAYER001
  6
CONTINUOUS
 62
    2
 10
1446.5027333333333
 20
995.63113333333331
 11
1537.6949333333332
 21
1036.6672666666666
  0
CIRCLE
  8
_0-0_LAYER001
  6
CONTINUOUS
 62
    2
 10
1537.6949333333332
 20
1036.6672666666666
 40
1.1333333333333331
  0
LINE
  8
_0-0_LAYER001
  6
CONTINUOUS
 62
    2
 10
1537.0110000000002
 20
1038.1871333333333
 11
1551.3736666666668
 21
1006.2698
  0
LINE
  8
_0-0_LAYER001
  6
CONTINUOUS
 62
    2
 10
1432.7713333333331
 20
949.02460000000008
 11
1432.7713333333331
 21
944.02460000000008
  0
LINE
  8
_0-0_LAYER001
  6
CONTINUOUS
 62
    2
 10
1432.7713333333331
 20
944.02460000000008
 11
1430.2713333333331
 21
948.35473333333323
  0
LINE
  8
_0-0_LAYER001
  6
DASHED3
 62
    2
 10
1987.5651333333331
 20
1149.8444
 11
1479.9071999999999
 21
921.39819999999986
  0
LINE
  8
_0-0_LAYER001
  6
CONTINUOUS
 62
    2
 10
1988.2490666666667
 20
1148.3245333333332
 11
1479.9071999999999
 21
919.57053333333329
  0
LINE
  8
_0-0_LAYER001
  6
DASHED3
 62
    2
 10
982.4348
 20
1145.2608666666667
 11
1479.9071999999999
 21
921.39819999999986
  0
LINE
  8
_0-0_LAYER001
  6
CONTINUOUS
 62
    2
 10
981.75086666666652
 20
1143.741
 11
1479.9071999999999
 21
919.57053333333329
  0
LINE
  8
_0-0_LAYER001
  6
CONTINUOUS
 62
    2
 10
1999.1921333333332
 20
1124.0065999999999
 11
1479.9071999999999
 21
890.32826666666665
  0
LINE
  8
_0-0_LAYER001
  6
CONTINUOUS
 62
    2
 10
970.80780000000004
 20
1119.4231333333335
 11
1479.9071999999999
 21
890.32826666666665
  0
LINE
  8
_0-0_LAYER001
  6
CONTINUOUS
 62
    2
 10
2040.2286666666666
 20
1032.8144666666667
 11
1479.9071999999999
 21
780.6697333333334
  0
LINE
  8
_0-0_LAYER001
  6
CONTINUOUS
 62
    2
 10
929.77126666666663
 20
1028.2310000000002
 11
1479.9071999999999
 21
780.6697333333334
  0
CIRCLE
  8
_0-0_LAYER001
  6
CONTINUOUS
 62
    2
 10
1732.3065333333334
 20
847.88186666666661
 40
1.1333333333333331
  0
LINE
  8
_0-0_LAYER001
  6
CONTINUOUS
 62
    2
 10
1732.3065333333334
 20
847.88186666666661
 11
1549.9222
 21
765.80893333333336
  0
CIRCLE
  8
_0-0_LAYER001
  6
CONTINUOUS
 62
    2
 10
1549.9222
 20
765.80893333333336
 40
1.1333333333333331
  0
LINE
  8
_0-0_LAYER001
  6
CONTINUOUS
 62
    2
 10
1732.9904666666666
 20
846.36200000000008
 11
1718.6276666666665
 21
878.27926666666656
  0
LINE
  8
_0-0_LAYER001
  6
CONTINUOUS
 62
    2
 10
1550.6061999999999
 20
764.28906666666671
 11
1536.2433999999998
 21
796.20626666666681
  0
CIRCLE
  8
_0-0_LAYER001
  6
CONTINUOUS
 62
    2
 10
1227.971
 20
848.91086666666661
 40
1.1333333333333331
  0
LINE
  8
_0-0_LAYER001
  6
CONTINUOUS
 62
    2
 10
1227.971
 20
848.91086666666661
 11
1410.3552666666667
 21
766.83793333333347
  0
CIRCLE
  8
_0-0_LAYER001
  6
CONTINUOUS
 62
    2
 10
1410.3552666666667
 20
766.83793333333347
 40
1.1333333333333331
  0
LINE
  8
_0-0_LAYER001
  6
CONTINUOUS
 62
    2
 10
1227.287
 20
847.39099999999996
 11
1241.6497999999999
 21
879.30826666666667
  0
LINE
  8
_0-0_LAYER001
  6
CONTINUOUS
 62
    2
 10
1409.6713333333335
 20
765.31806666666682
 11
1424.0340666666666
 21
797.2353333333333
  0
LINE
  8
_0-0_LAYER001
  6
DASHED1
 62
    2
 10
1722.9763333333335
 20
868.61526666666668
 11
1662.2911999999999
 21
1003.4710666666666
  0
LINE
  8
_0-0_LAYER001
  6
DASHED1
 62
    2
 10
1238.3838666666668
 20
872.05066666666664
 11
1297.1680000000001
 21
1002.6820666666667
  0
LINE
  8
_0-0_LAYER001
  6
CONTINUOUS
 62
    1
 10
1994.1668666666667
 20
1121.7452000000001
 11
1998.3344
 21
1125.9127333333333
  0
LINE
  8
_0-0_LAYER001
  6
CONTINUOUS
 62
    1
 10
1981.3103999999998
 20
1115.9598000000001
 11
1996.1399333333334
 21
1130.7893333333334
  0
LINE
  8
_0-0_LAYER001
  6
CONTINUOUS
 62
    1
 10
1968.4538666666667
 20
1110.1744000000001
 11
1993.9454666666666
 21
1135.6659333333334
  0
LINE
  8
_0-0_LAYER001
  6
CONTINUOUS
 62
    1
 10
1955.5973999999997
 20
1104.3889333333334
 11
1991.7509999999997
 21
1140.5425333333333
  0
LINE
  8
_0-0_LAYER001
  6
CONTINUOUS
 62
    1
 10
1942.7409333333333
 20
1098.6035333333332
 11
1989.5565333333332
 21
1145.4191333333333
  0
LINE
  8
_0-0_LAYER001
  6
CONTINUOUS
 62
    1
 10
1929.8843999999997
 20
1092.8181333333332
 11
1983.0522666666666
 21
1145.9859333333334
  0
LINE
  8
_0-0_LAYER001
  6
CONTINUOUS
 62
    1
 10
1917.0279333333335
 20
1087.0326666666667
 11
1970.195733333333
 21
1140.2005333333334
  0
LINE
  8
_0-0_LAYER001
  6
CONTINUOUS
 62
    1
 10
1904.1714666666667
 20
1081.2472666666665
 11
1957.3392666666666
 21
1134.4150666666667
  0
LINE
  8
_0-0_LAYER001
  6
CONTINUOUS
 62
    1
 10
1891.3149333333333
 20
1075.4618666666668
 11
1944.482733333333
 21
1128.6296666666667
  0
LINE
  8
_0-0_LAYER001
  6
CONTINUOUS
 62
    1
 10
1878.4584666666665
 20
1069.6764000000001
 11
1931.6262666666669
 21
1122.8442
  0
LINE
  8
_0-0_LAYER001
  6
CONTINUOUS
 62
    1
 10
1865.6019333333334
 20
1063.8910000000001
 11
1918.7698
 21
1117.0588
  0
LINE
  8
_0-0_LAYER001
  6
CONTINUOUS
 62
    1
 10
1852.7454666666665
 20
1058.1055999999999
 11
1905.9132666666667
 21
1111.2734
  0
LINE
  8
_0-0_LAYER001
  6
CONTINUOUS
 62
    1
 10
1839.8890000000001
 20
1052.3201333333332
 11
1893.0567999999998
 21
1105.4879333333333
  0
LINE
  8
_0-0_LAYER001
  6
CONTINUOUS
 62
    1
 10
1827.0324666666666
 20
1046.5347333333334
 11
1880.2003333333332
 21
1099.7025333333333
  0
LINE
  8
_0-0_LAYER001
  6
CONTINUOUS
 62
    1
 10
1814.1759999999999
 20
1040.7492666666667
 11
1867.3437999999999
 21
1093.9171333333334
  0
LINE
  8
_0-0_LAYER001
  6
CONTINUOUS
 62
    1
 10
1801.3195333333333
 20
1034.9638666666667
 11
1854.4873333333335
 21
1088.1316666666667
  0
LINE
  8
_0-0_LAYER001
  6
CONTINUOUS
 62
    1
 10
1788.4630000000002
 20
1029.1784666666667
 11
1841.6307999999999
 21
1082.3462666666665
  0
LINE
  8
_0-0_LAYER001
  6
CONTINUOUS
 62
    1
 10
1775.6065333333333
 20
1023.393
 11
1828.7743333333333
 21
1076.5608666666667
  0
LINE
  8
_0-0_LAYER001
  6
CONTINUOUS
 62
    1
 10
1762.75
 20
1017.6075999999999
 11
1815.9178666666667
 21
1070.7754
  0
LINE
  8
_0-0_LAYER001
  6
CONTINUOUS
 62
    1
 10
1749.8935333333334
 20
1011.8222000000001
 11
1803.0613333333336
 21
1064.99
  0
LINE
  8
_0-0_LAYER001
  6
CONTINUOUS
 62
    1
 10
1737.0370666666668
 20
1006.0367333333334
 11
1790.2048666666667
 21
1059.2045333333335
  0
LINE
  8
_0-0_LAYER001
  6
CONTINUOUS
 62
    1
 10
1724.1805333333332
 20
1000.2513333333333
 11
1777.3483999999999
 21
1053.4191333333333
  0
LINE
  8
_0-0_LAYER001
  6
CONTINUOUS
 62
    1
 10
1711.3240666666666
 20
994.4659333333334
 11
1764.4918666666667
 21
1047.6337333333331
  0
LINE
  8
_0-0_LAYER001
  6
CONTINUOUS
 62
    1
 10
1698.4675999999999
 20
988.68046666666669
 11
1751.6354000000001
 21
1041.8482666666666
  0
LINE
  8
_0-0_LAYER001
  6
CONTINUOUS
 62
    1
 10
1685.6110666666666
 20
982.89506666666671
 11
1738.7788666666665
 21
1036.0628666666667
  0
LINE
  8
_0-0_LAYER001
  6
CONTINUOUS
 62
    1
 10
1672.7545999999998
 20
977.10966666666673
 11
1725.9223999999999
 21
1030.2774666666667
  0
LINE
  8
_0-0_LAYER001
  6
CONTINUOUS
 62
    1
 10
1659.8980666666666
 20
971.32420000000002
 11
1713.0659333333333
 21
1024.492
  0
LINE
  8
_0-0_LAYER001
  6
CONTINUOUS
 62
    1
 10
1647.0416
 20
965.53879999999992
 11
1700.2094
 21
1018.7066
  0
LINE
  8
_0-0_LAYER001
  6
CONTINUOUS
 62
    1
 10
1634.1851333333334
 20
959.75333333333333
 11
1687.3529333333331
 21
1012.9212000000001
  0
LINE
  8
_0-0_LAYER001
  6
CONTINUOUS
 62
    1
 10
1621.3286000000003
 20
953.96793333333335
 11
1674.4964666666669
 21
1007.1357333333334
  0
LINE
  8
_0-0_LAYER001
  6
CONTINUOUS
 62
    1
 10
1608.4721333333334
 20
948.18253333333337
 11
1661.6399333333334
 21
1001.3503333333333
  0
LINE
  8
_0-0_LAYER001
  6
CONTINUOUS
 62
    1
 10
1595.6156666666666
 20
942.39706666666677
 11
1648.7834666666668
 21
995.56493333333333
  0
LINE
  8
_0-0_LAYER001
  6
CONTINUOUS
 62
    1
 10
1582.7591333333335
 20
936.61166666666668
 11
1635.9269333333336
 21
989.77946666666662
  0
LINE
  8
_0-0_LAYER001
  6
CONTINUOUS
 62
    1
 10
1569.9026666666666
 20
930.8262666666667
 11
1623.0704666666668
 21
983.99406666666664
  0
LINE
  8
_0-0_LAYER001
  6
CONTINUOUS
 62
    1
 10
1557.0461333333333
 20
925.04079999999999
 11
1610.2139999999999
 21
978.20859999999993
  0
LINE
  8
_0-0_LAYER001
  6
CONTINUOUS
 62
    1
 10
1544.1896666666667
 20
919.25540000000001
 11
1597.3574666666668
 21
972.42320000000007
  0
LINE
  8
_0-0_LAYER001
  6
CONTINUOUS
 62
    1
 10
1531.3332
 20
913.46999999999991
 11
1584.501
 21
966.63779999999997
  0
LINE
  8
_0-0_LAYER001
  6
CONTINUOUS
 62
    1
 10
1518.4766666666667
 20
907.68453333333343
 11
1571.6445333333334
 21
960.85233333333326
  0
LINE
  8
_0-0_LAYER001
  6
CONTINUOUS
 62
    1
 10
1505.6201999999998
 20
901.89913333333334
 11
1558.7879999999998
 21
955.06693333333328
  0
LINE
  8
_0-0_LAYER001
  6
CONTINUOUS
 62
    1
 10
1492.7637333333332
 20
896.11373333333336
 11
1545.9315333333334
 21
949.2815333333333
  0
LINE
  8
_0-0_LAYER001
  6
CONTINUOUS
 62
    1
 10
1479.9071999999999
 20
890.32826666666665
 11
1533.075
 21
943.49606666666659
  0
LINE
  8
_0-0_LAYER001
  6
CONTINUOUS
 62
    1
 10
1475.0306
 20
892.52273333333335
 11
1520.2185333333332
 21
937.71066666666673
  0
LINE
  8
_0-0_LAYER001
  6
CONTINUOUS
 62
    1
 10
1470.1540000000002
 20
894.71720000000005
 11
1507.3620666666666
 21
931.92526666666663
  0
LINE
  8
_0-0_LAYER001
  6
CONTINUOUS
 62
    1
 10
1465.2773999999999
 20
896.91166666666675
 11
1494.5055333333332
 21
926.13980000000015
  0
LINE
  8
_0-0_LAYER001
  6
CONTINUOUS
 62
    1
 10
1460.4008000000001
 20
899.10613333333345
 11
1481.6490666666666
 21
920.35439999999994
  0
LINE
  8
_0-0_LAYER001
  6
CONTINUOUS
 62
    1
 10
1455.5242000000001
 20
901.30060000000003
 11
1475.6913333333332
 21
921.4677333333334
  0
LINE
  8
_0-0_LAYER001
  6
CONTINUOUS
 62
    1
 10
1450.6476
 20
903.49506666666673
 11
1470.8147333333332
 21
923.66219999999998
  0
LINE
  8
_0-0_LAYER001
  6
CONTINUOUS
 62
    1
 10
1445.771
 20
905.68960000000004
 11
1465.9381333333336
 21
925.85666666666668
  0
LINE
  8
_0-0_LAYER001
  6
CONTINUOUS
 62
    1
 10
1440.8943999999999
 20
907.88406666666674
 11
1461.061533333333
 21
928.05113333333338
  0
LINE
  8
_0-0_LAYER001
  6
CONTINUOUS
 62
    1
 10
1436.0178666666666
 20
910.07853333333333
 11
1456.1849333333334
 21
930.24560000000008
  0
LINE
  8
_0-0_LAYER001
  6
CONTINUOUS
 62
    1
 10
1431.1412666666665
 20
912.27300000000002
 11
1451.3083333333334
 21
932.44006666666678
  0
LINE
  8
_0-0_LAYER001
  6
CONTINUOUS
 62
    1
 10
1426.2646666666665
 20
914.46746666666672
 11
1446.4317333333333
 21
934.63453333333337
  0
LINE
  8
_0-0_LAYER001
  6
CONTINUOUS
 62
    1
 10
1421.3880666666669
 20
916.66193333333331
 11
1441.5551333333333
 21
936.82900000000006
  0
LINE
  8
_0-0_LAYER001
  6
CONTINUOUS
 62
    1
 10
1416.5114666666668
 20
918.85639999999989
 11
1436.6785333333335
 21
939.02346666666676
  0
LINE
  8
_0-0_LAYER001
  6
CONTINUOUS
 62
    1
 10
1411.6348666666668
 20
921.05086666666671
 11
1431.8019333333334
 21
941.21793333333335
  0
LINE
  8
_0-0_LAYER001
  6
CONTINUOUS
 62
    1
 10
1406.7582666666667
 20
923.24533333333329
 11
1426.9253333333334
 21
943.41239999999993
  0
LINE
  8
_0-0_LAYER001
  6
CONTINUOUS
 62
    1
 10
1401.8816666666667
 20
925.43979999999988
 11
1422.0487333333333
 21
945.60686666666675
  0
LINE
  8
_0-0_LAYER001
  6
CONTINUOUS
 62
    1
 10
1397.0050666666666
 20
927.63426666666658
 11
1417.1721333333332
 21
947.80133333333333
  0
LINE
  8
_0-0_LAYER001
  6
CONTINUOUS
 62
    1
 10
1392.1284666666668
 20
929.82873333333328
 11
1412.2955333333332
 21
949.99579999999992
  0
LINE
  8
_0-0_LAYER001
  6
CONTINUOUS
 62
    1
 10
1387.2518666666667
 20
932.02319999999986
 11
1407.4189333333334
 21
952.19026666666662
  0
LINE
  8
_0-0_LAYER001
  6
CONTINUOUS
 62
    1
 10
1382.3752666666667
 20
934.21766666666656
 11
1402.5423333333333
 21
954.38480000000004
  0
LINE
  8
_0-0_LAYER001
  6
CONTINUOUS
 62
    1
 10
1377.4986666666666
 20
936.41213333333326
 11
1397.6657333333333
 21
956.57926666666663
  0
LINE
  8
_0-0_LAYER001
  6
CONTINUOUS
 62
    1
 10
1372.6220666666666
 20
938.60660000000007
 11
1392.7891333333334
 21
958.77373333333321
  0
LINE
  8
_0-0_LAYER001
  6
CONTINUOUS
 62
    1
 10
1367.7454666666665
 20
940.80106666666666
 11
1387.9125333333334
 21
960.96819999999991
  0
LINE
  8
_0-0_LAYER001
  6
CONTINUOUS
 62
    1
 10
1362.8688666666667
 20
942.99553333333336
 11
1383.0359333333333
 21
963.16266666666661
  0
LINE
  8
_0-0_LAYER001
  6
CONTINUOUS
 62
    1
 10
1357.9922666666666
 20
945.19000000000005
 11
1378.1593333333333
 21
965.35713333333319
  0
LINE
  8
_0-0_LAYER001
  6
CONTINUOUS
 62
    1
 10
1353.1156666666666
 20
947.38446666666675
 11
1373.2827333333332
 21
967.55159999999989
  0
LINE
  8
_0-0_LAYER001
  6
CONTINUOUS
 62
    1
 10
1348.2390666666665
 20
949.57899999999995
 11
1368.4061333333334
 21
969.74606666666659
  0
LINE
  8
_0-0_LAYER001
  6
CONTINUOUS
 62
    1
 10
1343.3624666666665
 20
951.77346666666665
 11
1363.5295999999998
 21
971.94053333333341
  0
LINE
  8
_0-0_LAYER001
  6
CONTINUOUS
 62
    1
 10
1338.4858666666669
 20
953.96793333333335
 11
1358.6529999999998
 21
974.13499999999999
  0
LINE
  8
_0-0_LAYER001
  6
CONTINUOUS
 62
    1
 10
1333.6092666666668
 20
956.16240000000005
 11
1353.7764000000002
 21
976.32946666666669
  0
LINE
  8
_0-0_LAYER001
  6
CONTINUOUS
 62
    1
 10
1328.7326666666668
 20
958.35686666666675
 11
1348.8998000000001
 21
978.52393333333339
  0
LINE
  8
_0-0_LAYER001
  6
CONTINUOUS
 62
    1
 10
1323.8560666666667
 20
960.55133333333333
 11
1344.0232000000001
 21
980.71840000000009
  0
LINE
  8
_0-0_LAYER001
  6
CONTINUOUS
 62
    1
 10
1318.9794666666667
 20
962.74580000000003
 11
1339.1466
 21
982.91286666666679
  0
LINE
  8
_0-0_LAYER001
  6
CONTINUOUS
 62
    1
 10
1314.1028666666666
 20
964.94026666666673
 11
1334.27
 21
985.10733333333337
  0
LINE
  8
_0-0_LAYER001
  6
CONTINUOUS
 62
    1
 10
1309.2262666666668
 20
967.13473333333332
 11
1329.3933999999999
 21
987.30180000000007
  0
LINE
  8
_0-0_LAYER001
  6
CONTINUOUS
 62
    1
 10
1304.3496666666667
 20
969.3291999999999
 11
1324.5168000000001
 21
989.49626666666677
  0
LINE
  8
_0-0_LAYER001
  6
CONTINUOUS
 62
    1
 10
1299.4730666666667
 20
971.52366666666671
 11
1319.6402
 21
991.69073333333336
  0
LINE
  8
_0-0_LAYER001
  6
CONTINUOUS
 62
    1
 10
1294.5964666666669
 20
973.7181333333333
 11
1314.7636
 21
993.88519999999994
  0
LINE
  8
_0-0_LAYER001
  6
CONTINUOUS
 62
    1
 10
1289.7199333333333
 20
975.91259999999988
 11
1309.8869999999999
 21
996.07966666666675
  0
LINE
  8
_0-0_LAYER001
  6
CONTINUOUS
 62
    1
 10
1284.8433333333332
 20
978.10706666666658
 11
1305.0103999999999
 21
998.27420000000006
  0
LINE
  8
_0-0_LAYER001
  6
CONTINUOUS
 62
    1
 10
1279.9667333333334
 20
980.30153333333328
 11
1300.1338000000001
 21
1000.4686666666666
  0
LINE
  8
_0-0_LAYER001
  6
CONTINUOUS
 62
    1
 10
1275.0901333333334
 20
982.49599999999987
 11
1295.2572
 21
1002.6631333333332
  0
LINE
  8
_0-0_LAYER001
  6
CONTINUOUS
 62
    1
 10
1270.2135333333333
 20
984.69046666666657
 11
1290.3806
 21
1004.8576
  0
LINE
  8
_0-0_LAYER001
  6
CONTINUOUS
 62
    1
 10
1265.3369333333333
 20
986.88493333333327
 11
1285.5039999999999
 21
1007.0520666666666
  0
LINE
  8
_0-0_LAYER001
  6
CONTINUOUS
 62
    1
 10
1260.4603333333332
 20
989.07939999999996
 11
1280.6273999999999
 21
1009.2465333333332
  0
LINE
  8
_0-0_LAYER001
  6
CONTINUOUS
 62
    1
 10
1255.5837333333334
 20
991.27386666666666
 11
1275.7508
 21
1011.4409999999999
  0
LINE
  8
_0-0_LAYER001
  6
CONTINUOUS
 62
    1
 10
1250.7071333333333
 20
993.46839999999997
 11
1270.8742000000002
 21
1013.6354666666666
  0
LINE
  8
_0-0_LAYER001
  6
CONTINUOUS
 62
    1
 10
1245.8305333333333
 20
995.66286666666667
 11
1265.9976000000001
 21
1015.8299333333333
  0
LINE
  8
_0-0_LAYER001
  6
CONTINUOUS
 62
    1
 10
1240.9539333333332
 20
997.85733333333337
 11
1261.1210000000001
 21
1018.0243999999999
  0
LINE
  8
_0-0_LAYER001
  6
CONTINUOUS
 62
    1
 10
1236.0773333333332
 20
1000.0518000000001
 11
1256.2444
 21
1020.2188666666666
  0
LINE
  8
_0-0_LAYER001
  6
CONTINUOUS
 62
    1
 10
1231.2007333333331
 20
1002.2462666666667
 11
1251.3678
 21
1022.4133333333333
  0
LINE
  8
_0-0_LAYER001
  6
CONTINUOUS
 62
    1
 10
1226.3241333333335
 20
1004.4407333333334
 11
1246.4911999999999
 21
1024.6078000000002
  0
LINE
  8
_0-0_LAYER001
  6
CONTINUOUS
 62
    1
 10
1221.4475333333335
 20
1006.6352000000001
 11
1241.6146000000001
 21
1026.8022666666666
  0
LINE
  8
_0-0_LAYER001
  6
CONTINUOUS
 62
    1
 10
1216.5709333333334
 20
1008.8296666666668
 11
1236.7380000000001
 21
1028.9967333333334
  0
LINE
  8
_0-0_LAYER001
  6
CONTINUOUS
 62
    1
 10
1211.6943333333334
 20
1011.0241333333333
 11
1231.8614
 21
1031.1912000000002
  0
LINE
  8
_0-0_LAYER001
  6
CONTINUOUS
 62
    1
 10
1206.8177333333333
 20
1013.2186
 11
1226.9848
 21
1033.3856666666666
  0
LINE
  8
_0-0_LAYER001
  6
CONTINUOUS
 62
    1
 10
1201.9411333333335
 20
1015.4130666666667
 11
1222.1081999999999
 21
1035.5801333333334
  0
LINE
  8
_0-0_LAYER001
  6
CONTINUOUS
 62
    1
 10
1197.0645333333334
 20
1017.6075333333333
 11
1217.2316000000001
 21
1037.7746
  0
LINE
  8
_0-0_LAYER001
  6
CONTINUOUS
 62
    1
 10
1192.1879333333334
 20
1019.8019999999999
 11
1212.3550666666667
 21
1039.9690666666668
  0
LINE
  8
_0-0_LAYER001
  6
CONTINUOUS
 62
    1
 10
1187.3113333333336
 20
1021.9964666666667
 11
1207.4784666666667
 21
1042.1635999999999
  0
LINE
  8
_0-0_LAYER001
  6
CONTINUOUS
 62
    1
 10
1182.4347333333335
 20
1024.1909333333333
 11
1202.6018666666666
 21
1044.3580666666667
  0
LINE
  8
_0-0_LAYER001
  6
CONTINUOUS
 62
    1
 10
1177.5581333333334
 20
1026.3853999999999
 11
1197.7252666666666
 21
1046.5525333333333
  0
LINE
  8
_0-0_LAYER001
  6
CONTINUOUS
 62
    1
 10
1172.6815333333334
 20
1028.5798666666667
 11
1192.8486666666665
 21
1048.7470000000001
  0
LINE
  8
_0-0_LAYER001
  6
CONTINUOUS
 62
    1
 10
1167.8049333333333
 20
1030.7743333333333
 11
1187.9720666666667
 21
1050.9414666666667
  0
LINE
  8
_0-0_LAYER001
  6
CONTINUOUS
 62
    1
 10
1162.9283333333333
 20
1032.9688000000001
 11
1183.0954666666667
 21
1053.1359333333332
  0
LINE
  8
_0-0_LAYER001
  6
CONTINUOUS
 62
    1
 10
1158.0517333333335
 20
1035.1632666666665
 11
1178.2188666666666
 21
1055.3304000000001
  0
LINE
  8
_0-0_LAYER001
  6
CONTINUOUS
 62
    1
 10
1153.1751333333334
 20
1037.3578
 11
1173.3422666666665
 21
1057.5248666666666
  0
LINE
  8
_0-0_LAYER001
  6
CONTINUOUS
 62
    1
 10
1148.2985333333334
 20
1039.5522666666668
 11
1168.4656666666665
 21
1059.7193333333332
  0
LINE
  8
_0-0_LAYER001
  6
CONTINUOUS
 62
    1
 10
1143.4219333333335
 20
1041.7467333333334
 11
1163.5890666666664
 21
1061.9138
  0
LINE
  8
_0-0_LAYER001
  6
CONTINUOUS
 62
    1
 10
1138.5454
 20
1043.9412
 11
1158.7124666666668
 21
1064.1082666666666
  0
LINE
  8
_0-0_LAYER001
  6
CONTINUOUS
 62
    1
 10
1133.6688000000001
 20
1046.1356666666668
 11
1153.8358666666668
 21
1066.3027333333334
  0
LINE
  8
_0-0_LAYER001
  6
CONTINUOUS
 62
    1
 10
1128.7922000000001
 20
1048.3301333333334
 11
1148.9592666666667
 21
1068.4971999999998
  0
LINE
  8
_0-0_LAYER001
  6
CONTINUOUS
 62
    1
 10
1123.9156
 20
1050.5246000000002
 11
1144.0826666666667
 21
1070.6916666666666
  0
LINE
  8
_0-0_LAYER001
  6
CONTINUOUS
 62
    1
 10
1119.039
 20
1052.7190666666665
 11
1139.2060666666666
 21
1072.8861333333334
  0
LINE
  8
_0-0_LAYER001
  6
CONTINUOUS
 62
    1
 10
1114.1623999999999
 20
1054.9135333333334
 11
1134.3294666666668
 21
1075.0805999999998
  0
LINE
  8
_0-0_LAYER001
  6
CONTINUOUS
 62
    1
 10
1109.2857999999999
 20
1057.1080000000002
 11
1129.4528666666668
 21
1077.2750666666666
  0
LINE
  8
_0-0_LAYER001
  6
CONTINUOUS
 62
    1
 10
1104.4092000000001
 20
1059.3024666666665
 11
1124.5762666666667
 21
1079.4695333333334
  0
LINE
  8
_0-0_LAYER001
  6
CONTINUOUS
 62
    1
 10
1099.5326
 20
1061.4969333333333
 11
1119.6996666666669
 21
1081.6640000000002
  0
LINE
  8
_0-0_LAYER001
  6
CONTINUOUS
 62
    1
 10
1094.6559999999999
 20
1063.6913999999999
 11
1114.8230666666668
 21
1083.8584666666666
  0
LINE
  8
_0-0_LAYER001
  6
CONTINUOUS
 62
    1
 10
1089.7794000000001
 20
1065.8858666666667
 11
1109.9464666666668
 21
1086.0529999999999
  0
LINE
  8
_0-0_LAYER001
  6
CONTINUOUS
 62
    1
 10
1084.9028000000001
 20
1068.0803333333333
 11
1105.0698666666667
 21
1088.2474666666667
  0
LINE
  8
_0-0_LAYER001
  6
CONTINUOUS
 62
    1
 10
1080.0262
 20
1070.2747999999999
 11
1100.1932666666667
 21
1090.4419333333335
  0
LINE
  8
_0-0_LAYER001
  6
CONTINUOUS
 62
    1
 10
1075.1496
 20
1072.4692666666667
 11
1095.3166666666666
 21
1092.6363999999999
  0
LINE
  8
_0-0_LAYER001
  6
CONTINUOUS
 62
    1
 10
1070.2729999999999
 20
1074.6637333333333
 11
1090.4400666666668
 21
1094.8308666666667
  0
LINE
  8
_0-0_LAYER001
  6
CONTINUOUS
 62
    1
 10
1065.3963999999999
 20
1076.8581999999999
 11
1085.5634666666667
 21
1097.0253333333333
  0
LINE
  8
_0-0_LAYER001
  6
CONTINUOUS
 62
    1
 10
1060.5198
 20
1079.0526666666667
 11
1080.6868666666667
 21
1099.2198000000001
  0
LINE
  8
_0-0_LAYER001
  6
CONTINUOUS
 62
    1
 10
1055.6432
 20
1081.2472
 11
1075.8102666666668
 21
1101.4142666666667
  0
LINE
  8
_0-0_LAYER001
  6
CONTINUOUS
 62
    1
 10
1050.7665999999999
 20
1083.4416666666666
 11
1070.9336666666668
 21
1103.6087333333332
  0
LINE
  8
_0-0_LAYER001
  6
CONTINUOUS
 62
    1
 10
1045.8899999999999
 20
1085.6361333333332
 11
1066.0571333333335
 21
1105.8032000000001
  0
LINE
  8
_0-0_LAYER001
  6
CONTINUOUS
 62
    1
 10
1041.0133999999998
 20
1087.8306
 11
1061.1805333333334
 21
1107.9976666666666
  0
LINE
  8
_0-0_LAYER001
  6
CONTINUOUS
 62
    1
 10
1036.1368000000002
 20
1090.0250666666668
 11
1056.3039333333334
 21
1110.1921333333332
  0
LINE
  8
_0-0_LAYER001
  6
CONTINUOUS
 62
    1
 10
1031.2602000000002
 20
1092.2195333333334
 11
1051.4273333333333
 21
1112.3866
  0
LINE
  8
_0-0_LAYER001
  6
CONTINUOUS
 62
    1
 10
1026.3836000000001
 20
1094.414
 11
1046.5507333333333
 21
1114.5810666666666
  0
LINE
  8
_0-0_LAYER001
  6
CONTINUOUS
 62
    1
 10
1021.5070000000002
 20
1096.6084666666668
 11
1041.6741333333332
 21
1116.7755333333332
  0
LINE
  8
_0-0_LAYER001
  6
CONTINUOUS
 62
    1
 10
1016.6304000000001
 20
1098.8029333333334
 11
1036.7975333333334
 21
1118.9699999999998
  0
LINE
  8
_0-0_LAYER001
  6
CONTINUOUS
 62
    1
 10
1011.7538000000001
 20
1100.9974
 11
1031.9209333333333
 21
1121.1644666666666
  0
LINE
  8
_0-0_LAYER001
  6
CONTINUOUS
 62
    1
 10
1006.8772000000001
 20
1103.1918666666666
 11
1027.0443333333333
 21
1123.3589333333334
  0
LINE
  8
_0-0_LAYER001
  6
CONTINUOUS
 62
    1
 10
1002.0006000000001
 20
1105.3863333333334
 11
1022.1677333333334
 21
1125.5534
  0
LINE
  8
_0-0_LAYER001
  6
CONTINUOUS
 62
    1
 10
997.12400000000002
 20
1107.5808000000002
 11
1017.2911333333334
 21
1127.7478666666666
  0
LINE
  8
_0-0_LAYER001
  6
CONTINUOUS
 62
    1
 10
992.2474666666667
 20
1109.7752666666668
 11
1012.4145333333333
 21
1129.9424000000001
  0
LINE
  8
_0-0_LAYER001
  6
CONTINUOUS
 62
    1
 10
987.37086666666664
 20
1111.9697333333334
 11
1007.5379333333333
 21
1132.1368666666667
  0
LINE
  8
_0-0_LAYER001
  6
CONTINUOUS
 62
    1
 10
982.49426666666682
 20
1114.1641999999999
 11
1002.6613333333332
 21
1134.3313333333333
  0
LINE
  8
_0-0_LAYER001
  6
CONTINUOUS
 62
    1
 10
977.61766666666676
 20
1116.3586666666667
 11
997.78473333333352
 21
1136.5257999999999
  0
LINE
  8
_0-0_LAYER001
  6
CONTINUOUS
 62
    1
 10
972.74106666666671
 20
1118.5531333333333
 11
992.90813333333347
 21
1138.7202666666667
  0
LINE
  8
_0-0_LAYER001
  6
CONTINUOUS
 62
    1
 10
974.29966666666678
 20
1127.1828666666668
 11
988.03153333333341
 21
1140.9147333333335
  0
LINE
  8
_0-0_LAYER001
  6
CONTINUOUS
 62
    1
 10
980.08506666666676
 20
1140.0393333333334
 11
983.15493333333336
 21
1143.1092000000001
  0
LINE
  8
_0-0_LAYER001
  6
CONTINUOUS
 62
    1
 10
972.12146666666672
 20
1122.3424
 11
978.50406666666674
 21
1115.9598000000001
  0
LINE
  8
_0-0_LAYER001
  6
CONTINUOUS
 62
    1
 10
974.31593333333342
 20
1127.2190000000001
 11
991.36053333333336
 21
1110.1744000000001
  0
LINE
  8
_0-0_LAYER001
  6
CONTINUOUS
 62
    1
 10
976.51039999999989
 20
1132.0955999999999
 11
1004.217
 21
1104.3889333333334
  0
LINE
  8
_0-0_LAYER001
  6
CONTINUOUS
 62
    1
 10
978.7048666666667
 20
1136.9721999999999
 11
1017.0735333333334
 21
1098.6035333333332
  0
LINE
  8
_0-0_LAYER001
  6
CONTINUOUS
 62
    1
 10
980.89933333333329
 20
1141.8488
 11
1029.9299999999998
 21
1092.8181333333332
  0
LINE
  8
_0-0_LAYER001
  6
CONTINUOUS
 62
    1
 10
989.61866666666674
 20
1140.2005333333334
 11
1042.7864666666667
 21
1087.0326666666667
  0
LINE
  8
_0-0_LAYER001
  6
CONTINUOUS
 62
    1
 10
1002.4752000000001
 20
1134.4150666666667
 11
1055.643
 21
1081.2472666666665
  0
LINE
  8
_0-0_LAYER001
  6
CONTINUOUS
 62
    1
 10
1015.3316666666666
 20
1128.6296666666667
 11
1068.4994666666666
 21
1075.4618666666668
  0
LINE
  8
_0-0_LAYER001
  6
CONTINUOUS
 62
    1
 10
1028.1881333333333
 20
1122.8442
 11
1081.3560000000002
 21
1069.6764000000001
  0
LINE
  8
_0-0_LAYER001
  6
CONTINUOUS
 62
    1
 10
1041.0446666666667
 20
1117.0588
 11
1094.2124666666668
 21
1063.8910000000001
  0
LINE
  8
_0-0_LAYER001
  6
CONTINUOUS
 62
    1
 10
1053.9011333333333
 20
1111.2734
 11
1107.0689333333335
 21
1058.1055999999999
  0
LINE
  8
_0-0_LAYER001
  6
CONTINUOUS
 62
    1
 10
1066.7576666666669
 20
1105.4879333333333
 11
1119.9254666666666
 21
1052.3201333333332
  0
LINE
  8
_0-0_LAYER001
  6
CONTINUOUS
 62
    1
 10
1079.6141333333335
 20
1099.7025333333333
 11
1132.7819333333334
 21
1046.5347333333334
  0
LINE
  8
_0-0_LAYER001
  6
CONTINUOUS
 62
    1
 10
1092.4706000000001
 20
1093.9171333333334
 11
1145.6384
 21
1040.7492666666667
  0
LINE
  8
_0-0_LAYER001
  6
CONTINUOUS
 62
    1
 10
1105.3271333333332
 20
1088.1316666666667
 11
1158.4949333333334
 21
1034.9638666666667
  0
LINE
  8
_0-0_LAYER001
  6
CONTINUOUS
 62
    1
 10
1118.1836000000001
 20
1082.3462666666665
 11
1171.3514
 21
1029.1784666666667
  0
LINE
  8
_0-0_LAYER001
  6
CONTINUOUS
 62
    1
 10
1131.0400666666667
 20
1076.5608666666667
 11
1184.2079333333334
 21
1023.393
  0
LINE
  8
_0-0_LAYER001
  6
CONTINUOUS
 62
    1
 10
1143.8966
 20
1070.7754
 11
1197.0644000000002
 21
1017.6075999999999
  0
LINE
  8
_0-0_LAYER001
  6
CONTINUOUS
 62
    1
 10
1156.7530666666667
 20
1064.99
 11
1209.9208666666666
 21
1011.8222000000001
  0
LINE
  8
_0-0_LAYER001
  6
CONTINUOUS
 62
    1
 10
1169.6096
 20
1059.2045333333335
 11
1222.7773999999999
 21
1006.0367333333334
  0
LINE
  8
_0-0_LAYER001
  6
CONTINUOUS
 62
    1
 10
1182.4660666666668
 20
1053.4191333333333
 11
1235.6338666666668
 21
1000.2513333333333
  0
LINE
  8
_0-0_LAYER001
  6
CONTINUOUS
 62
    1
 10
1195.3225333333332
 20
1047.6337333333331
 11
1248.4903333333334
 21
994.4659333333334
  0
LINE
  8
_0-0_LAYER001
  6
CONTINUOUS
 62
    1
 10
1208.1790666666668
 20
1041.8482666666666
 11
1261.3468666666668
 21
988.68046666666669
  0
LINE
  8
_0-0_LAYER001
  6
CONTINUOUS
 62
    1
 10
1221.0355333333334
 20
1036.0628666666667
 11
1274.2033333333334
 21
982.89506666666671
  0
LINE
  8
_0-0_LAYER001
  6
CONTINUOUS
 62
    1
 10
1233.8920000000001
 20
1030.2774666666667
 11
1287.0598666666665
 21
977.10966666666673
  0
LINE
  8
_0-0_LAYER001
  6
CONTINUOUS
 62
    1
 10
1246.7485333333334
 20
1024.492
 11
1299.9163333333331
 21
971.32420000000002
  0
LINE
  8
_0-0_LAYER001
  6
CONTINUOUS
 62
    1
 10
1259.605
 20
1018.7066
 11
1312.7728000000002
 21
965.53879999999992
  0
LINE
  8
_0-0_LAYER001
  6
CONTINUOUS
 62
    1
 10
1272.4615333333331
 20
1012.9212000000001
 11
1325.6293333333333
 21
959.75333333333333
  0
LINE
  8
_0-0_LAYER001
  6
CONTINUOUS
 62
    1
 10
1285.318
 20
1007.1357333333334
 11
1338.4857999999999
 21
953.96793333333335
  0
LINE
  8
_0-0_LAYER001
  6
CONTINUOUS
 62
    1
 10
1298.1744666666668
 20
1001.3503333333333
 11
1351.3422666666668
 21
948.18253333333337
  0
LINE
  8
_0-0_LAYER001
  6
CONTINUOUS
 62
    1
 10
1311.0309999999999
 20
995.56493333333333
 11
1364.1988000000001
 21
942.39706666666677
  0
LINE
  8
_0-0_LAYER001
  6
CONTINUOUS
 62
    1
 10
1323.8874666666666
 20
989.77946666666662
 11
1377.0552666666667
 21
936.61166666666668
  0
LINE
  8
_0-0_LAYER001
  6
CONTINUOUS
 62
    1
 10
1336.7439333333334
 20
983.99406666666664
 11
1389.9118000000001
 21
930.8262666666667
  0
LINE
  8
_0-0_LAYER001
  6
CONTINUOUS
 62
    1
 10
1349.6004666666668
 20
978.20859999999993
 11
1402.7682666666667
 21
925.04079999999999
  0
LINE
  8
_0-0_LAYER001
  6
CONTINUOUS
 62
    1
 10
1362.4569333333334
 20
972.42320000000007
 11
1415.6247333333336
 21
919.25540000000001
  0
LINE
  8
_0-0_LAYER001
  6
CONTINUOUS
 62
    1
 10
1375.3134666666665
 20
966.63779999999997
 11
1428.4812666666667
 21
913.46999999999991
  0
LINE
  8
_0-0_LAYER001
  6
CONTINUOUS
 62
    1
 10
1388.1699333333333
 20
960.85233333333326
 11
1441.3377333333333
 21
907.68453333333343
  0
LINE
  8
_0-0_LAYER001
  6
CONTINUOUS
 62
    1
 10
1401.0264000000002
 20
955.06693333333328
 11
1454.1941999999999
 21
901.89913333333334
  0
LINE
  8
_0-0_LAYER001
  6
CONTINUOUS
 62
    1
 10
1413.8829333333333
 20
949.2815333333333
 11
1467.0507333333335
 21
896.11373333333336
  0
LINE
  8
_0-0_LAYER001
  6
CONTINUOUS
 62
    1
 10
1426.7393999999999
 20
943.49606666666659
 11
1479.9071999999999
 21
890.32826666666665
  0
LINE
  8
_0-0_LAYER001
  6
CONTINUOUS
 62
    1
 10
1439.5958666666666
 20
937.71066666666673
 11
1484.7837999999999
 21
892.52273333333335
  0
LINE
  8
_0-0_LAYER001
  6
CONTINUOUS
 62
    1
 10
1452.4524000000001
 20
931.92526666666663
 11
1489.6604
 21
894.71720000000005
  0
LINE
  8
_0-0_LAYER001
  6
CONTINUOUS
 62
    1
 10
1465.3088666666665
 20
926.13980000000015
 11
1494.537
 21
896.91166666666675
  0
LINE
  8
_0-0_LAYER001
  6
CONTINUOUS
 62
    1
 10
1478.1653999999999
 20
920.35439999999994
 11
1499.4135999999999
 21
899.10613333333345
  0
LINE
  8
_0-0_LAYER001
  6
CONTINUOUS
 62
    1
 10
1484.123133333333
 20
921.4677333333334
 11
1504.2902000000001
 21
901.30060000000003
  0
LINE
  8
_0-0_LAYER001
  6
CONTINUOUS
 62
    1
 10
1488.9997333333336
 20
923.66219999999998
 11
1509.1668
 21
903.49506666666673
  0
LINE
  8
_0-0_LAYER001
  6
CONTINUOUS
 62
    1
 10
1493.8763333333332
 20
925.85666666666668
 11
1514.0434
 21
905.68960000000004
  0
LINE
  8
_0-0_LAYER001
  6
CONTINUOUS
 62
    1
 10
1498.7529333333332
 20
928.05113333333338
 11
1518.9200000000001
 21
907.88406666666674
  0
LINE
  8
_0-0_LAYER001
  6
CONTINUOUS
 62
    1
 10
1503.6295333333333
 20
930.24560000000008
 11
1523.7966000000001
 21
910.07853333333333
  0
LINE
  8
_0-0_LAYER001
  6
CONTINUOUS
 62
    1
 10
1508.5061333333333
 20
932.44006666666678
 11
1528.6731999999997
 21
912.27300000000002
  0
LINE
  8
_0-0_LAYER001
  6
CONTINUOUS
 62
    1
 10
1513.3827333333331
 20
934.63453333333337
 11
1533.5498000000002
 21
914.46746666666672
  0
LINE
  8
_0-0_LAYER001
  6
CONTINUOUS
 62
    1
 10
1518.2592666666667
 20
936.82900000000006
 11
1538.4263999999998
 21
916.66193333333331
  0
LINE
  8
_0-0_LAYER001
  6
CONTINUOUS
 62
    1
 10
1523.1358666666665
 20
939.02346666666676
 11
1543.3029999999999
 21
918.85639999999989
  0
LINE
  8
_0-0_LAYER001
  6
CONTINUOUS
 62
    1
 10
1528.0124666666668
 20
941.21793333333335
 11
1548.1795999999999
 21
921.05086666666671
  0
LINE
  8
_0-0_LAYER001
  6
CONTINUOUS
 62
    1
 10
1532.8890666666666
 20
943.41239999999993
 11
1553.0562
 21
923.24533333333329
  0
LINE
  8
_0-0_LAYER001
  6
CONTINUOUS
 62
    1
 10
1537.7656666666664
 20
945.60686666666675
 11
1557.9327999999998
 21
925.43979999999988
  0
LINE
  8
_0-0_LAYER001
  6
CONTINUOUS
 62
    1
 10
1542.6422666666667
 20
947.80133333333333
 11
1562.8094000000001
 21
927.63426666666658
  0
LINE
  8
_0-0_LAYER001
  6
CONTINUOUS
 62
    1
 10
1547.5188666666666
 20
949.99579999999992
 11
1567.6859999999999
 21
929.82873333333328
  0
LINE
  8
_0-0_LAYER001
  6
CONTINUOUS
 62
    1
 10
1552.3954666666666
 20
952.19026666666662
 11
1572.5626
 21
932.02319999999986
  0
LINE
  8
_0-0_LAYER001
  6
CONTINUOUS
 62
    1
 10
1557.2720666666667
 20
954.38480000000004
 11
1577.4392
 21
934.21766666666656
  0
LINE
  8
_0-0_LAYER001
  6
CONTINUOUS
 62
    1
 10
1562.1486666666667
 20
956.57926666666663
 11
1582.3158000000001
 21
936.41213333333326
  0
LINE
  8
_0-0_LAYER001
  6
CONTINUOUS
 62
    1
 10
1567.0252666666665
 20
958.77373333333321
 11
1587.1923999999999
 21
938.60660000000007
  0
LINE
  8
_0-0_LAYER001
  6
CONTINUOUS
 62
    1
 10
1571.9018666666668
 20
960.96819999999991
 11
1592.0689333333335
 21
940.80106666666666
  0
LINE
  8
_0-0_LAYER001
  6
CONTINUOUS
 62
    1
 10
1576.7784666666666
 20
963.16266666666661
 11
1596.9455333333331
 21
942.99553333333336
  0
LINE
  8
_0-0_LAYER001
  6
CONTINUOUS
 62
    1
 10
1581.6550666666667
 20
965.35713333333319
 11
1601.8221333333336
 21
945.19000000000005
  0
LINE
  8
_0-0_LAYER001
  6
CONTINUOUS
 62
    1
 10
1586.5316666666668
 20
967.55159999999989
 11
1606.6987333333332
 21
947.38446666666675
  0
LINE
  8
_0-0_LAYER001
  6
CONTINUOUS
 62
    1
 10
1591.4082666666668
 20
969.74606666666659
 11
1611.5753333333332
 21
949.57899999999995
  0
LINE
  8
_0-0_LAYER001
  6
CONTINUOUS
 62
    1
 10
1596.2848666666664
 20
971.94053333333341
 11
1616.4519333333333
 21
951.77346666666665
  0
LINE
  8
_0-0_LAYER001
  6
CONTINUOUS
 62
    1
 10
1601.1614666666669
 20
974.13499999999999
 11
1621.3285333333333
 21
953.96793333333335
  0
LINE
  8
_0-0_LAYER001
  6
CONTINUOUS
 62
    1
 10
1606.0380666666665
 20
976.32946666666669
 11
1626.2051333333332
 21
956.16240000000005
  0
LINE
  8
_0-0_LAYER001
  6
CONTINUOUS
 62
    1
 10
1610.9146666666666
 20
978.52393333333339
 11
1631.0817333333334
 21
958.35686666666675
  0
LINE
  8
_0-0_LAYER001
  6
CONTINUOUS
 62
    1
 10
1615.7912666666666
 20
980.71840000000009
 11
1635.9583333333333
 21
960.55133333333333
  0
LINE
  8
_0-0_LAYER001
  6
CONTINUOUS
 62
    1
 10
1620.6678666666667
 20
982.91286666666679
 11
1640.8349333333331
 21
962.74580000000003
  0
LINE
  8
_0-0_LAYER001
  6
CONTINUOUS
 62
    1
 10
1625.5444666666665
 20
985.10733333333337
 11
1645.7115333333334
 21
964.94026666666673
  0
LINE
  8
_0-0_LAYER001
  6
CONTINUOUS
 62
    1
 10
1630.4210666666668
 20
987.30180000000007
 11
1650.5881333333332
 21
967.13473333333332
  0
LINE
  8
_0-0_LAYER001
  6
CONTINUOUS
 62
    1
 10
1635.2976666666666
 20
989.49626666666677
 11
1655.4647333333332
 21
969.3291999999999
  0
LINE
  8
_0-0_LAYER001
  6
CONTINUOUS
 62
    1
 10
1640.1742666666667
 20
991.69073333333336
 11
1660.3413333333333
 21
971.52366666666671
  0
LINE
  8
_0-0_LAYER001
  6
CONTINUOUS
 62
    1
 10
1645.0508666666667
 20
993.88519999999994
 11
1665.2179333333333
 21
973.7181333333333
  0
LINE
  8
_0-0_LAYER001
  6
CONTINUOUS
 62
    1
 10
1649.9274666666668
 20
996.07966666666675
 11
1670.0945333333334
 21
975.91259999999988
  0
LINE
  8
_0-0_LAYER001
  6
CONTINUOUS
 62
    1
 10
1654.8040666666666
 20
998.27420000000006
 11
1674.9711333333335
 21
978.10706666666658
  0
LINE
  8
_0-0_LAYER001
  6
CONTINUOUS
 62
    1
 10
1659.6806666666669
 20
1000.4686666666666
 11
1679.8477333333335
 21
980.30153333333328
  0
LINE
  8
_0-0_LAYER001
  6
CONTINUOUS
 62
    1
 10
1664.5571999999997
 20
1002.6631333333332
 11
1684.7243333333333
 21
982.49599999999987
  0
LINE
  8
_0-0_LAYER001
  6
CONTINUOUS
 62
    1
 10
1669.4338000000002
 20
1004.8576
 11
1689.6009333333336
 21
984.69046666666657
  0
LINE
  8
_0-0_LAYER001
  6
CONTINUOUS
 62
    1
 10
1674.3103999999998
 20
1007.0520666666666
 11
1694.4775333333334
 21
986.88493333333327
  0
LINE
  8
_0-0_LAYER001
  6
CONTINUOUS
 62
    1
 10
1679.1869999999999
 20
1009.2465333333332
 11
1699.3541333333333
 21
989.07939999999996
  0
LINE
  8
_0-0_LAYER001
  6
CONTINUOUS
 62
    1
 10
1684.0636
 20
1011.4409999999999
 11
1704.2307333333335
 21
991.27386666666666
  0
LINE
  8
_0-0_LAYER001
  6
CONTINUOUS
 62
    1
 10
1688.9402
 20
1013.6354666666666
 11
1709.1073333333334
 21
993.46839999999997
  0
LINE
  8
_0-0_LAYER001
  6
CONTINUOUS
 62
    1
 10
1693.8167999999998
 20
1015.8299333333333
 11
1713.9839333333334
 21
995.66286666666667
  0
LINE
  8
_0-0_LAYER001
  6
CONTINUOUS
 62
    1
 10
1698.6934000000001
 20
1018.0243999999999
 11
1718.8605333333335
 21
997.85733333333337
  0
LINE
  8
_0-0_LAYER001
  6
CONTINUOUS
 62
    1
 10
1703.5699999999999
 20
1020.2188666666666
 11
1723.7371333333335
 21
1000.0518000000001
  0
LINE
  8
_0-0_LAYER001
  6
CONTINUOUS
 62
    1
 10
1708.4465999999998
 20
1022.4133333333333
 11
1728.6137333333331
 21
1002.2462666666667
  0
LINE
  8
_0-0_LAYER001
  6
CONTINUOUS
 62
    1
 10
1713.3232
 20
1024.6078000000002
 11
1733.4903333333332
 21
1004.4407333333334
  0
LINE
  8
_0-0_LAYER001
  6
CONTINUOUS
 62
    1
 10
1718.1997999999999
 20
1026.8022666666666
 11
1738.3668666666665
 21
1006.6352000000001
  0
LINE
  8
_0-0_LAYER001
  6
CONTINUOUS
 62
    1
 10
1723.0763999999999
 20
1028.9967333333334
 11
1743.2434666666668
 21
1008.8296666666668
  0
LINE
  8
_0-0_LAYER001
  6
CONTINUOUS
 62
    1
 10
1727.953
 20
1031.1912000000002
 11
1748.1200666666666
 21
1011.0241333333333
  0
LINE
  8
_0-0_LAYER001
  6
CONTINUOUS
 62
    1
 10
1732.8296
 20
1033.3856666666666
 11
1752.9966666666667
 21
1013.2186
  0
LINE
  8
_0-0_LAYER001
  6
CONTINUOUS
 62
    1
 10
1737.7062000000001
 20
1035.5801333333334
 11
1757.8732666666667
 21
1015.4130666666667
  0
LINE
  8
_0-0_LAYER001
  6
CONTINUOUS
 62
    1
 10
1742.5828000000001
 20
1037.7746
 11
1762.7498666666668
 21
1017.6075333333333
  0
LINE
  8
_0-0_LAYER001
  6
CONTINUOUS
 62
    1
 10
1747.4594000000002
 20
1039.9690666666668
 11
1767.6264666666666
 21
1019.8019999999999
  0
LINE
  8
_0-0_LAYER001
  6
CONTINUOUS
 62
    1
 10
1752.336
 20
1042.1635999999999
 11
1772.5030666666669
 21
1021.9964666666667
  0
LINE
  8
_0-0_LAYER001
  6
CONTINUOUS
 62
    1
 10
1757.2126000000003
 20
1044.3580666666667
 11
1777.3796666666667
 21
1024.1909333333333
  0
LINE
  8
_0-0_LAYER001
  6
CONTINUOUS
 62
    1
 10
1762.0892000000001
 20
1046.5525333333333
 11
1782.2562666666668
 21
1026.3853999999999
  0
LINE
  8
_0-0_LAYER001
  6
CONTINUOUS
 62
    1
 10
1766.9657999999999
 20
1048.7470000000001
 11
1787.1328666666668
 21
1028.5798666666667
  0
LINE
  8
_0-0_LAYER001
  6
CONTINUOUS
 62
    1
 10
1771.8424000000002
 20
1050.9414666666667
 11
1792.0094666666669
 21
1030.7743333333333
  0
LINE
  8
_0-0_LAYER001
  6
CONTINUOUS
 62
    1
 10
1776.7190000000001
 20
1053.1359333333332
 11
1796.8860666666665
 21
1032.9688000000001
  0
LINE
  8
_0-0_LAYER001
  6
CONTINUOUS
 62
    1
 10
1781.5956000000001
 20
1055.3304000000001
 11
1801.7626666666665
 21
1035.1632666666665
  0
LINE
  8
_0-0_LAYER001
  6
CONTINUOUS
 62
    1
 10
1786.4721999999997
 20
1057.5248666666666
 11
1806.6392666666666
 21
1037.3578
  0
LINE
  8
_0-0_LAYER001
  6
CONTINUOUS
 62
    1
 10
1791.3488000000002
 20
1059.7193333333332
 11
1811.5158666666666
 21
1039.5522666666668
  0
LINE
  8
_0-0_LAYER001
  6
CONTINUOUS
 62
    1
 10
1796.2253999999998
 20
1061.9138
 11
1816.3924666666665
 21
1041.7467333333334
  0
LINE
  8
_0-0_LAYER001
  6
CONTINUOUS
 62
    1
 10
1801.1019999999999
 20
1064.1082666666666
 11
1821.2690666666667
 21
1043.9412
  0
LINE
  8
_0-0_LAYER001
  6
CONTINUOUS
 62
    1
 10
1805.9785999999999
 20
1066.3027333333334
 11
1826.1456666666666
 21
1046.1356666666668
  0
LINE
  8
_0-0_LAYER001
  6
CONTINUOUS
 62
    1
 10
1810.8552
 20
1068.4971999999998
 11
1831.0222666666664
 21
1048.3301333333334
  0
LINE
  8
_0-0_LAYER001
  6
CONTINUOUS
 62
    1
 10
1815.7317333333333
 20
1070.6916666666666
 11
1835.8988666666667
 21
1050.5246000000002
  0
LINE
  8
_0-0_LAYER001
  6
CONTINUOUS
 62
    1
 10
1820.6083333333333
 20
1072.8861333333334
 11
1840.7754666666665
 21
1052.7190666666665
  0
LINE
  8
_0-0_LAYER001
  6
CONTINUOUS
 62
    1
 10
1825.4849333333334
 20
1075.0805999999998
 11
1845.6520666666665
 21
1054.9135333333334
  0
LINE
  8
_0-0_LAYER001
  6
CONTINUOUS
 62
    1
 10
1830.3615333333335
 20
1077.2750666666666
 11
1850.5286666666666
 21
1057.1080000000002
  0
LINE
  8
_0-0_LAYER001
  6
CONTINUOUS
 62
    1
 10
1835.2381333333333
 20
1079.4695333333334
 11
1855.4052666666666
 21
1059.3024666666665
  0
LINE
  8
_0-0_LAYER001
  6
CONTINUOUS
 62
    1
 10
1840.1147333333329
 20
1081.6640000000002
 11
1860.2818666666667
 21
1061.4969333333333
  0
LINE
  8
_0-0_LAYER001
  6
CONTINUOUS
 62
    1
 10
1844.9913333333334
 20
1083.8584666666666
 11
1865.1584666666668
 21
1063.6913999999999
  0
LINE
  8
_0-0_LAYER001
  6
CONTINUOUS
 62
    1
 10
1849.867933333333
 20
1086.0529999999999
 11
1870.0350666666668
 21
1065.8858666666667
  0
LINE
  8
_0-0_LAYER001
  6
CONTINUOUS
 62
    1
 10
1854.744533333333
 20
1088.2474666666667
 11
1874.9116666666666
 21
1068.0803333333333
  0
LINE
  8
_0-0_LAYER001
  6
CONTINUOUS
 62
    1
 10
1859.6211333333331
 20
1090.4419333333335
 11
1879.7882666666669
 21
1070.2747999999999
  0
LINE
  8
_0-0_LAYER001
  6
CONTINUOUS
 62
    1
 10
1864.4977333333331
 20
1092.6363999999999
 11
1884.6648
 21
1072.4692666666667
  0
LINE
  8
_0-0_LAYER001
  6
CONTINUOUS
 62
    1
 10
1869.3743333333332
 20
1094.8308666666667
 11
1889.5414000000001
 21
1074.6637333333333
  0
LINE
  8
_0-0_LAYER001
  6
CONTINUOUS
 62
    1
 10
1874.2509333333333
 20
1097.0253333333333
 11
1894.4180000000001
 21
1076.8581999999999
  0
LINE
  8
_0-0_LAYER001
  6
CONTINUOUS
 62
    1
 10
1879.1275333333333
 20
1099.2198000000001
 11
1899.2945999999997
 21
1079.0526666666667
  0
LINE
  8
_0-0_LAYER001
  6
CONTINUOUS
 62
    1
 10
1884.0041333333331
 20
1101.4142666666667
 11
1904.1712000000002
 21
1081.2472
  0
LINE
  8
_0-0_LAYER001
  6
CONTINUOUS
 62
    1
 10
1888.8807333333334
 20
1103.6087333333332
 11
1909.0477999999998
 21
1083.4416666666666
  0
LINE
  8
_0-0_LAYER001
  6
CONTINUOUS
 62
    1
 10
1893.7573333333332
 20
1105.8032000000001
 11
1913.9243999999997
 21
1085.6361333333332
  0
LINE
  8
_0-0_LAYER001
  6
CONTINUOUS
 62
    1
 10
1898.6339333333331
 20
1107.9976666666666
 11
1918.8009999999999
 21
1087.8306
  0
LINE
  8
_0-0_LAYER001
  6
CONTINUOUS
 62
    1
 10
1903.5105333333333
 20
1110.1921333333332
 11
1923.6775999999998
 21
1090.0250666666668
  0
LINE
  8
_0-0_LAYER001
  6
CONTINUOUS
 62
    1
 10
1908.3871333333332
 20
1112.3866
 11
1928.5541999999998
 21
1092.2195333333334
  0
LINE
  8
_0-0_LAYER001
  6
CONTINUOUS
 62
    1
 10
1913.2637333333332
 20
1114.5810666666666
 11
1933.4307999999999
 21
1094.414
  0
LINE
  8
_0-0_LAYER001
  6
CONTINUOUS
 62
    1
 10
1918.1403333333333
 20
1116.7755333333332
 11
1938.3073999999999
 21
1096.6084666666668
  0
LINE
  8
_0-0_LAYER001
  6
CONTINUOUS
 62
    1
 10
1923.0169333333333
 20
1118.9699999999998
 11
1943.184
 21
1098.8029333333334
  0
LINE
  8
_0-0_LAYER001
  6
CONTINUOUS
 62
    1
 10
1927.8935333333332
 20
1121.1644666666666
 11
1948.0606
 21
1100.9974
  0
LINE
  8
_0-0_LAYER001
  6
CONTINUOUS
 62
    1
 10
1932.7701333333334
 20
1123.3589333333334
 11
1952.9372000000001
 21
1103.1918666666666
  0
LINE
  8
_0-0_LAYER001
  6
CONTINUOUS
 62
    1
 10
1937.6467333333333
 20
1125.5534
 11
1957.8137999999999
 21
1105.3863333333334
  0
LINE
  8
_0-0_LAYER001
  6
CONTINUOUS
 62
    1
 10
1942.5233333333333
 20
1127.7478666666666
 11
1962.6904000000002
 21
1107.5808000000002
  0
LINE
  8
_0-0_LAYER001
  6
CONTINUOUS
 62
    1
 10
1947.3999333333334
 20
1129.9424000000001
 11
1967.567
 21
1109.7752666666668
  0
LINE
  8
_0-0_LAYER001
  6
CONTINUOUS
 62
    1
 10
1952.2765333333334
 20
1132.1368666666667
 11
1972.4435999999996
 21
1111.9697333333334
  0
LINE
  8
_0-0_LAYER001
  6
CONTINUOUS
 62
    1
 10
1957.1531333333332
 20
1134.3313333333333
 11
1977.3202000000001
 21
1114.1641999999999
  0
LINE
  8
_0-0_LAYER001
  6
CONTINUOUS
 62
    1
 10
1962.0296666666668
 20
1136.5257999999999
 11
1982.1967999999997
 21
1116.3586666666667
  0
LINE
  8
_0-0_LAYER001
  6
CONTINUOUS
 62
    1
 10
1966.9062666666664
 20
1138.7202666666667
 11
1987.0733999999998
 21
1118.5531333333333
  0
LINE
  8
_0-0_LAYER001
  6
CONTINUOUS
 62
    1
 10
1971.7828666666669
 20
1140.9147333333335
 11
1991.9499999999998
 21
1120.7475999999999
  0
LINE
  8
_0-0_LAYER001
  6
CONTINUOUS
 62
    1
 10
1976.6594666666665
 20
1143.1092000000001
 11
1996.8265999999999
 21
1122.9420666666667
  0
LINE
  8
_0-0_LAYER001
  6
CONTINUOUS
 62
    1
 10
1981.5360666666663
 20
1145.3036666666667
 11
1996.2131333333332
 21
1130.6266000000001
  0
LINE
  8
_0-0_LAYER001
  6
CONTINUOUS
 62
    1
 10
1986.4126666666666
 20
1147.4981333333333
 11
1990.4277333333332
 21
1143.4830666666667
  0
LINE
  8
_0-0_LAYER001
  6
CONTINUOUS
 62
    2
 10
1976.2484666666664
 20
1004.0233333333334
 11
2029.3078666666668
 21
1057.0828000000001
  0
LINE
  8
_0-0_LAYER001
  6
CONTINUOUS
 62
    2
 10
1599.1246666666666
 20
834.31759999999997
 11
1798.5039999999999
 21
1033.6968666666667
  0
LINE
  8
_0-0_LAYER001
  6
CONTINUOUS
 62
    2
 10
1959.1064666666668
 20
996.30946666666659
 11
2026.3819333333333
 21
1063.5849333333335
  0
LINE
  8
_0-0_LAYER001
  6
CONTINUOUS
 62
    2
 10
1581.9826666666668
 20
826.60366666666675
 11
1781.3620000000001
 21
1025.9830000000002
  0
LINE
  8
_0-0_LAYER001
  6
CONTINUOUS
 62
    2
 10
1941.9644666666663
 20
988.59553333333338
 11
2023.4559333333334
 21
1070.0870666666667
  0
LINE
  8
_0-0_LAYER001
  6
CONTINUOUS
 62
    2
 10
1564.8407333333334
 20
818.88980000000004
 11
1764.22
 21
1018.2690666666667
  0
LINE
  8
_0-0_LAYER001
  6
CONTINUOUS
 62
    2
 10
1452.5514000000001
 20
1104.4728666666667
 11
1466.9141333333334
 21
1072.5556000000001
  0
CIRCLE
  8
_0-0_LAYER001
  6
CONTINUOUS
 62
    2
 10
1453.2353333333333
 20
1102.953
 40
1.1333333333333331
  0
LINE
  8
_0-0_LAYER001
  6
CONTINUOUS
 62
    2
 10
1453.2353333333333
 20
1102.953
 11
1623.4608000000003
 21
1179.5542666666668
  0
CIRCLE
  8
_0-0_LAYER001
  6
CONTINUOUS
 62
    2
 10
1623.4608000000003
 20
1179.5542666666668
 40
1.1333333333333331
  0
LINE
  8
_0-0_LAYER001
  6
CONTINUOUS
 62
    2
 10
1622.7768000000001
 20
1181.0741333333335
 11
1637.1395333333335
 21
1149.1568666666667
  0
LINE
  8
_0-0_LAYER001
  6
CONTINUOUS
 62
    2
 10
1617.3053333333335
 20
1193.2330666666667
 11
1631.6680666666666
 21
1161.3158000000001
  0
CIRCLE
  8
_0-0_LAYER001
  6
CONTINUOUS
 62
    2
 10
1617.9892666666669
 20
1191.7131999999999
 40
1.1333333333333331
  0
LINE
  8
_0-0_LAYER001
  6
CONTINUOUS
 62
    2
 10
1617.9892666666669
 20
1191.7131999999999
 11
1788.2146666666667
 21
1268.3144666666667
  0
CIRCLE
  8
_0-0_LAYER001
  6
CONTINUOUS
 62
    2
 10
1788.2146666666667
 20
1268.3144666666667
 40
1.1333333333333331
  0
LINE
  8
_0-0_LAYER001
  6
CONTINUOUS
 62
    2
 10
1787.5307333333333
 20
1269.8343333333335
 11
1801.8934666666667
 21
1237.9170666666666
  0
LINE
  8
_0-0_LAYER001
  6
CONTINUOUS
 62
    2
 10
1782.0591999999999
 20
1281.9932666666668
 11
1796.4219333333335
 21
1250.076
  0
CIRCLE
  8
_0-0_LAYER001
  6
CONTINUOUS
 62
    2
 10
1782.7431333333334
 20
1280.4733999999999
 40
1.1333333333333331
  0
LINE
  8
_0-0_LAYER001
  6
CONTINUOUS
 62
    2
 10
1782.7431333333334
 20
1280.4733999999999
 11
1905.4933333333333
 21
1335.7108666666668
  0
LINE
  8
_0-0_LAYER001
  6
CONTINUOUS
 62
    2
 10
1467.5032000000001
 20
1071.2465999999999
 11
1475.0265333333334
 21
1054.5280666666665
  0
CIRCLE
  8
_0-0_LAYER001
  6
CONTINUOUS
 62
    2
 10
1468.1871333333331
 20
1069.7267333333334
 40
1.1333333333333331
  0
LINE
  8
_0-0_LAYER001
  6
CONTINUOUS
 62
    2
 10
1468.1871333333331
 20
1069.7267333333334
 11
1513.7834666666668
 21
1090.2450666666666
  0
CIRCLE
  8
_0-0_LAYER001
  6
CONTINUOUS
 62
    2
 10
1513.7834666666668
 20
1090.2450666666666
 40
1.1333333333333331
  0
LINE
  8
_0-0_LAYER001
  6
CONTINUOUS
 62
    2
 10
1513.0995333333335
 20
1091.7649333333334
 11
1520.6228666666666
 21
1075.0464000000002
  0
CIRCLE
  8
_0-0_LAYER001
  6
CONTINUOUS
 62
    2
 10
1513.7834666666668
 20
1090.2450666666666
 40
1.1333333333333331
  0
LINE
  8
_0-0_LAYER001
  6
CONTINUOUS
 62
    2
 10
1513.7834666666668
 20
1090.2450666666666
 11
1638.4125333333336
 21
1146.328
  0
CIRCLE
  8
_0-0_LAYER001
  6
CONTINUOUS
 62
    2
 10
1638.4125333333336
 20
1146.328
 40
1.1333333333333331
  0
LINE
  8
_0-0_LAYER001
  6
CONTINUOUS
 62
    2
 10
1637.7286000000001
 20
1147.8478666666665
 11
1645.2519333333335
 21
1131.1293333333333
  0
CIRCLE
  8
_0-0_LAYER001
  6
CONTINUOUS
 62
    2
 10
1638.4125333333336
 20
1146.328
 40
1.1333333333333331
  0
LINE
  8
_0-0_LAYER001
  6
CONTINUOUS
 62
    2
 10
1638.4125333333336
 20
1146.328
 11
1674.8894
 21
1162.7426
  0
CIRCLE
  8
_0-0_LAYER001
  6
CONTINUOUS
 62
    2
 10
1674.8894
 20
1162.7426
 40
1.1333333333333331
  0
LINE
  8
_0-0_LAYER001
  6
CONTINUOUS
 62
    2
 10
1674.2054666666668
 20
1164.2624666666668
 11
1681.7287999999999
 21
1147.5438666666669
  0
LINE
  8
_0-0_LAYER001
  6
CONTINUOUS
 62
    4
 10
1677.1246666666666
 20
1063.9948666666667
 11
1680.8606666666669
 21
1065.1750666666667
  0
ARC
  8
_0-0_LAYER001
  6
CONTINUOUS
 62
    4
 10
1692.0504666666666
 20
1066.3174000000001
 40
11.248011333333332
 50
103.35714
 51
185.82902999999996
  0
LINE
  8
_0-0_LAYER001
  6
CONTINUOUS
 62
    4
 10
1693.1479333333334
 20
1066.1938
 11
1897.2642666666666
 21
1130.6733333333334
  0
LINE
  8
_0-0_LAYER001
  6
CONTINUOUS
 62
    4
 10
1893.2115999999999
 20
1143.5024000000001
 11
1877.6215999999999
 21
1138.5775333333333
  0
LINE
  8
_0-0_LAYER001
  6
CONTINUOUS
 62
    4
 10
1689.452
 20
1077.2612000000001
 11
1876.0154
 21
1136.1958
  0
ARC
  8
_0-0_LAYER001
  6
CONTINUOUS
 62
    4
 10
1879.7692666666667
 20
1135.2091999999998
 40
3.8813426666666659
 50
113.70193000000002
 51
165.27368000000001
  0
LINE
  8
_0-0_LAYER001
  6
CONTINUOUS
 62
    4
 10
1677.1183999999998
 20
1064.0147333333332
 11
1681.0404666666668
 21
1051.5990000000002
  0
ARC
  8
_0-0_LAYER001
  6
CONTINUOUS
 62
    4
 10
1695.7464666666669
 20
1055.2500666666667
 40
11.248011333333332
 50
103.35714
 51
192.69454999999999
  0
LINE
  8
_0-0_LAYER001
  6
CONTINUOUS
 62
    4
 10
1898.0349333333334
 20
1117.9325999999999
 11
1896.8606
 21
1121.6500666666666
  0
LINE
  8
_0-0_LAYER001
  6
CONTINUOUS
 62
    4
 10
1893.2115999999999
 20
1143.5024000000001
 11
1900.9937333333335
 21
1118.8672666666666
  0
LINE
  8
_0-0_LAYER001
  6
CONTINUOUS
 62
    4
 10
1898.0349333333334
 20
1117.9325999999999
 11
1900.9937333333335
 21
1118.8672666666666
  0
LINE
  8
_0-0_LAYER001
  6
CONTINUOUS
 62
    4
 10
1684.7734
 20
1052.7782666666667
 11
1681.0404666666668
 21
1051.5990000000002
  0
LINE
  8
_0-0_LAYER001
  6
CONTINUOUS
 62
    4
 10
1684.5264
 20
1054.5745333333334
 11
1896.8606
 21
1121.6500666666666
  0
LINE
  8
_0-0_LAYER001
  6
CONTINUOUS
 62
    2
 10
1881.7951999999996
 20
1104.0246
 11
1900.1755333333335
 21
1111.9090000000001
  0
LINE
  8
_0-0_LAYER001
  6
CONTINUOUS
 62
    2
 10
1900.1755333333335
 20
1111.9090000000001
 11
1896.2332666666669
 21
1121.0991999999999
  0
LINE
  8
_0-0_LAYER001
  6
CONTINUOUS
 62
    2
 10
1896.2332666666669
 20
1121.0991999999999
 11
1877.8530000000001
 21
1113.2147333333335
  0
LINE
  8
_0-0_LAYER001
  6
CONTINUOUS
 62
    2
 10
1877.8530000000001
 20
1113.2147333333335
 11
1881.7951999999996
 21
1104.0246
  0
LINE
  8
_0-0_LAYER001
  6
CONTINUOUS
 62
    2
 10
1896.2332666666669
 20
1121.0991999999999
 11
1881.7951999999996
 21
1104.0246
  0
LINE
  8
_0-0_LAYER001
  6
CONTINUOUS
 62
    4
 10
1846.8051333333333
 20
1142.0676666666666
 11
1850.5508
 21
1143.2168666666666
  0
ARC
  8
_0-0_LAYER001
  6
CONTINUOUS
 62
    4
 10
1861.7497333333336
 20
1144.2664666666667
 40
11.248011333333332
 50
102.88244
 51
185.35433
  0
LINE
  8
_0-0_LAYER001
  6
CONTINUOUS
 62
    4
 10
1862.8460666666665
 20
1144.1336666666666
 11
1980.5889333333334
 21
1180.2581333333333
  0
LINE
  8
_0-0_LAYER001
  6
CONTINUOUS
 62
    4
 10
1859.2419333333332
 20
1155.2313333333334
 11
1976.1977333333334
 21
1191.1142666666665
  0
LINE
  8
_0-0_LAYER001
  6
CONTINUOUS
 62
    4
 10
1846.7990666666669
 20
1142.0875333333333
 11
1850.6181333333334
 21
1129.6397333333332
  0
ARC
  8
_0-0_LAYER001
  6
CONTINUOUS
 62
    4
 10
1865.3538666666668
 20
1133.1688000000001
 40
11.248011333333332
 50
102.88244
 51
192.21985000000001
  0
LINE
  8
_0-0_LAYER001
  6
CONTINUOUS
 62
    4
 10
1854.3606666666667
 20
1130.788
 11
1850.6181333333334
 21
1129.6397333333332
  0
LINE
  8
_0-0_LAYER001
  6
CONTINUOUS
 62
    4
 10
1854.1286
 20
1132.5863333333334
 11
1983.7816666666668
 21
1172.3648666666666
  0
LINE
  8
_0-0_LAYER001
  6
CONTINUOUS
 62
    4
 10
1508.2972
 20
987.61419999999998
 11
1512.0331999999999
 21
988.79433333333327
  0
ARC
  8
_0-0_LAYER001
  6
CONTINUOUS
 62
    4
 10
1523.2230666666667
 20
989.93673333333334
 40
11.248011333333332
 50
103.35714
 51
185.82902999999996
  0
LINE
  8
_0-0_LAYER001
  6
CONTINUOUS
 62
    4
 10
1524.3204666666668
 20
989.8130666666666
 11
1728.4367999999999
 21
1054.2926000000002
  0
LINE
  8
_0-0_LAYER001
  6
CONTINUOUS
 62
    4
 10
1724.3841333333332
 20
1067.1216666666667
 11
1708.7941333333333
 21
1062.1968666666667
  0
LINE
  8
_0-0_LAYER001
  6
CONTINUOUS
 62
    4
 10
1520.6245333333334
 20
1000.8804666666667
 11
1707.1879333333334
 21
1059.8150666666668
  0
ARC
  8
_0-0_LAYER001
  6
CONTINUOUS
 62
    4
 10
1710.9418000000001
 20
1058.8284666666666
 40
3.8813426666666659
 50
113.70193000000002
 51
165.27368000000001
  0
LINE
  8
_0-0_LAYER001
  6
CONTINUOUS
 62
    4
 10
1508.2909333333332
 20
987.63400000000001
 11
1512.2130000000002
 21
975.21833333333348
  0
ARC
  8
_0-0_LAYER001
  6
CONTINUOUS
 62
    4
 10
1526.9189999999999
 20
978.86933333333332
 40
11.248011333333332
 50
103.35714
 51
192.69454999999999
  0
LINE
  8
_0-0_LAYER001
  6
CONTINUOUS
 62
    4
 10
1729.2074666666667
 20
1041.5518666666667
 11
1728.0331333333334
 21
1045.2693333333334
  0
LINE
  8
_0-0_LAYER001
  6
CONTINUOUS
 62
    4
 10
1724.3841333333332
 20
1067.1216666666667
 11
1732.1662666666668
 21
1042.4865333333335
  0
LINE
  8
_0-0_LAYER001
  6
CONTINUOUS
 62
    4
 10
1729.2074666666667
 20
1041.5518666666667
 11
1732.1662666666668
 21
1042.4865333333335
  0
LINE
  8
_0-0_LAYER001
  6
CONTINUOUS
 62
    4
 10
1515.9459333333334
 20
976.39753333333329
 11
1512.2130000000002
 21
975.21833333333348
  0
LINE
  8
_0-0_LAYER001
  6
CONTINUOUS
 62
    4
 10
1515.6989333333333
 20
978.19386666666674
 11
1728.0331333333334
 21
1045.2693333333334
  0
LINE
  8
_0-0_LAYER001
  6
CONTINUOUS
 62
    2
 10
1712.9677333333334
 20
1027.6438666666668
 11
1731.3480666666669
 21
1035.5282666666667
  0
LINE
  8
_0-0_LAYER001
  6
CONTINUOUS
 62
    2
 10
1731.3480666666669
 20
1035.5282666666667
 11
1727.4058666666667
 21
1044.7184666666667
  0
LINE
  8
_0-0_LAYER001
  6
CONTINUOUS
 62
    2
 10
1727.4058666666667
 20
1044.7184666666667
 11
1709.0255333333334
 21
1036.8339999999998
  0
LINE
  8
_0-0_LAYER001
  6
CONTINUOUS
 62
    2
 10
1709.0255333333334
 20
1036.8339999999998
 11
1712.9677333333334
 21
1027.6438666666668
  0
LINE
  8
_0-0_LAYER001
  6
CONTINUOUS
 62
    2
 10
1727.4058666666667
 20
1044.7184666666667
 11
1712.9677333333334
 21
1027.6438666666668
  0
LINE
  8
_0-0_LAYER001
  6
CONTINUOUS
 62
    4
 10
1282.6897333333332
 20
1063.9948666666667
 11
1278.9537999999998
 21
1065.1750666666667
  0
ARC
  8
_0-0_LAYER001
  6
CONTINUOUS
 62
    4
 10
1267.7639333333334
 20
1066.3174000000001
 40
11.248011333333332
 50
354.17096000000004
 51
76.642851000000064
  0
LINE
  8
_0-0_LAYER001
  6
CONTINUOUS
 62
    4
 10
1266.6664666666668
 20
1066.1938
 11
1062.5501333333334
 21
1130.6733333333334
  0
LINE
  8
_0-0_LAYER001
  6
CONTINUOUS
 62
    4
 10
1066.6028000000001
 20
1143.5024000000001
 11
1082.1928
 21
1138.5775333333333
  0
LINE
  8
_0-0_LAYER001
  6
CONTINUOUS
 62
    4
 10
1270.3624666666667
 20
1077.2612000000001
 11
1083.799
 21
1136.1958
  0
ARC
  8
_0-0_LAYER001
  6
CONTINUOUS
 62
    4
 10
1080.0452
 20
1135.2091999999998
 40
3.8813426666666659
 50
14.726318000000001
 51
66.298061999999987
  0
LINE
  8
_0-0_LAYER001
  6
CONTINUOUS
 62
    4
 10
1282.6959999999999
 20
1064.0147333333332
 11
1278.7739333333334
 21
1051.5990000000002
  0
ARC
  8
_0-0_LAYER001
  6
CONTINUOUS
 62
    4
 10
1264.068
 20
1055.2500666666667
 40
11.248011333333332
 50
347.30544000000003
 51
76.64285100000005
  0
LINE
  8
_0-0_LAYER001
  6
CONTINUOUS
 62
    4
 10
1061.7795333333333
 20
1117.9325999999999
 11
1062.9538666666667
 21
1121.6500666666666
  0
LINE
  8
_0-0_LAYER001
  6
CONTINUOUS
 62
    4
 10
1066.6028000000001
 20
1143.5024000000001
 11
1058.8206666666667
 21
1118.8672666666666
  0
LINE
  8
_0-0_LAYER001
  6
CONTINUOUS
 62
    4
 10
1061.7795333333333
 20
1117.9325999999999
 11
1058.8206666666667
 21
1118.8672666666666
  0
LINE
  8
_0-0_LAYER001
  6
CONTINUOUS
 62
    4
 10
1275.0409999999999
 20
1052.7782666666667
 11
1278.7739333333334
 21
1051.5990000000002
  0
LINE
  8
_0-0_LAYER001
  6
CONTINUOUS
 62
    4
 10
1275.288
 20
1054.5745333333334
 11
1062.9538666666667
 21
1121.6500666666666
  0
LINE
  8
_0-0_LAYER001
  6
CONTINUOUS
 62
    2
 10
1078.0192000000002
 20
1104.0246
 11
1059.6389333333334
 21
1111.9090000000001
  0
LINE
  8
_0-0_LAYER001
  6
CONTINUOUS
 62
    2
 10
1059.6389333333334
 20
1111.9090000000001
 11
1063.5811333333334
 21
1121.0991999999999
  0
LINE
  8
_0-0_LAYER001
  6
CONTINUOUS
 62
    2
 10
1063.5811333333334
 20
1121.0991999999999
 11
1081.9614666666666
 21
1113.2147333333335
  0
LINE
  8
_0-0_LAYER001
  6
CONTINUOUS
 62
    2
 10
1081.9614666666666
 20
1113.2147333333335
 11
1078.0192000000002
 21
1104.0246
  0
LINE
  8
_0-0_LAYER001
  6
CONTINUOUS
 62
    2
 10
1063.5811333333334
 20
1121.0991999999999
 11
1078.0192000000002
 21
1104.0246
  0
LINE
  8
_0-0_LAYER001
  6
CONTINUOUS
 62
    4
 10
1113.0092666666667
 20
1142.0676666666666
 11
1109.2636666666667
 21
1143.2168666666666
  0
ARC
  8
_0-0_LAYER001
  6
CONTINUOUS
 62
    4
 10
1098.0647333333334
 20
1144.2664666666667
 40
11.248011333333332
 50
354.64566000000008
 51
77.117553000000044
  0
LINE
  8
_0-0_LAYER001
  6
CONTINUOUS
 62
    4
 10
1096.9683333333335
 20
1144.1336666666666
 11
979.22546666666665
 21
1180.2581333333333
  0
LINE
  8
_0-0_LAYER001
  6
CONTINUOUS
 62
    4
 10
1100.5724666666667
 20
1155.2313333333334
 11
983.61673333333329
 21
1191.1142666666665
  0
LINE
  8
_0-0_LAYER001
  6
CONTINUOUS
 62
    4
 10
1113.0154000000002
 20
1142.0875333333333
 11
1109.1962666666668
 21
1129.6397333333332
  0
ARC
  8
_0-0_LAYER001
  6
CONTINUOUS
 62
    4
 10
1094.4606000000001
 20
1133.1688000000001
 40
11.248011333333332
 50
347.78015000000005
 51
77.117553000000029
  0
LINE
  8
_0-0_LAYER001
  6
CONTINUOUS
 62
    4
 10
1105.4537333333333
 20
1130.788
 11
1109.1962666666668
 21
1129.6397333333332
  0
LINE
  8
_0-0_LAYER001
  6
CONTINUOUS
 62
    4
 10
1105.6858666666667
 20
1132.5863333333334
 11
976.03273333333334
 21
1172.3648666666666
  0
LINE
  8
_0-0_LAYER001
  6
CONTINUOUS
 62
    4
 10
1451.5171999999998
 20
987.61419999999998
 11
1447.7812666666669
 21
988.79433333333327
  0
ARC
  8
_0-0_LAYER001
  6
CONTINUOUS
 62
    4
 10
1436.5914
 20
989.93673333333334
 40
11.248011333333332
 50
354.17096000000004
 51
76.642851000000064
  0
LINE
  8
_0-0_LAYER001
  6
CONTINUOUS
 62
    4
 10
1435.4939333333334
 20
989.8130666666666
 11
1231.3776
 21
1054.2926000000002
  0
LINE
  8
_0-0_LAYER001
  6
CONTINUOUS
 62
    4
 10
1235.4302666666667
 20
1067.1216666666667
 11
1251.0202666666667
 21
1062.1968666666667
  0
LINE
  8
_0-0_LAYER001
  6
CONTINUOUS
 62
    4
 10
1439.1899333333333
 20
1000.8804666666667
 11
1252.6264666666666
 21
1059.8150666666668
  0
ARC
  8
_0-0_LAYER001
  6
CONTINUOUS
 62
    4
 10
1248.8725999999999
 20
1058.8284666666666
 40
3.8813426666666659
 50
14.726318000000001
 51
66.298061999999987
  0
LINE
  8
_0-0_LAYER001
  6
CONTINUOUS
 62
    4
 10
1451.5234666666665
 20
987.63400000000001
 11
1447.6014
 21
975.21833333333348
  0
ARC
  8
_0-0_LAYER001
  6
CONTINUOUS
 62
    4
 10
1432.8954666666666
 20
978.86933333333332
 40
11.248011333333332
 50
347.30544000000003
 51
76.64285100000005
  0
LINE
  8
_0-0_LAYER001
  6
CONTINUOUS
 62
    4
 10
1230.607
 20
1041.5518666666667
 11
1231.7813333333334
 21
1045.2693333333334
  0
LINE
  8
_0-0_LAYER001
  6
CONTINUOUS
 62
    4
 10
1235.4302666666667
 20
1067.1216666666667
 11
1227.6481333333334
 21
1042.4865333333335
  0
LINE
  8
_0-0_LAYER001
  6
CONTINUOUS
 62
    4
 10
1230.607
 20
1041.5518666666667
 11
1227.6481333333334
 21
1042.4865333333335
  0
LINE
  8
_0-0_LAYER001
  6
CONTINUOUS
 62
    4
 10
1443.8684666666666
 20
976.39753333333329
 11
1447.6014
 21
975.21833333333348
  0
LINE
  8
_0-0_LAYER001
  6
CONTINUOUS
 62
    4
 10
1444.1154666666666
 20
978.19386666666674
 11
1231.7813333333334
 21
1045.2693333333334
  0
LINE
  8
_0-0_LAYER001
  6
CONTINUOUS
 62
    2
 10
1246.8466666666668
 20
1027.6438666666668
 11
1228.4664
 21
1035.5282666666667
  0
LINE
  8
_0-0_LAYER001
  6
CONTINUOUS
 62
    2
 10
1228.4664
 20
1035.5282666666667
 11
1232.4086000000002
 21
1044.7184666666667
  0
LINE
  8
_0-0_LAYER001
  6
CONTINUOUS
 62
    2
 10
1232.4086000000002
 20
1044.7184666666667
 11
1250.7889333333333
 21
1036.8339999999998
  0
LINE
  8
_0-0_LAYER001
  6
CONTINUOUS
 62
    2
 10
1250.7889333333333
 20
1036.8339999999998
 11
1246.8466666666668
 21
1027.6438666666668
  0
LINE
  8
_0-0_LAYER001
  6
CONTINUOUS
 62
    2
 10
1232.4086000000002
 20
1044.7184666666667
 11
1246.8466666666668
 21
1027.6438666666668
  0
LINE
  8
_0-0_LAYER001
  6
CONTINUOUS
 62
    2
 10
1375.3409999999999
 20
997.69526666666661
 11
1364.3978666666667
 21
973.37739999999997
  0
LINE
  8
_0-0_LAYER001
  6
CONTINUOUS
 62
    2
 10
1388.7149999999999
 20
962.43473333333327
 11
1399.6580666666669
 21
986.75259999999992
  0
LINE
  8
_0-0_LAYER001
  6
CONTINUOUS
 62
    2
 10
1399.6580666666669
 20
986.75259999999992
 11
1375.3409999999999
 21
997.69526666666661
  0
LINE
  8
_0-0_LAYER001
  6
CONTINUOUS
 62
    2
 10
1379.6410666666668
 20
996.85673333333341
 11
1400.9537333333333
 21
987.2661333333333
  0
LINE
  8
_0-0_LAYER001
  6
CONTINUOUS
 62
    2
 10
1400.9537333333333
 20
958.02386666666678
 11
1479.9071999999999
 21
922.49479999999994
  0
LINE
  8
_0-0_LAYER001
  6
CONTINUOUS
 62
    2
 10
1400.9537333333333
 20
987.2661333333333
 11
1400.9537333333333
 21
958.02386666666678
  0
LINE
  8
_0-0_LAYER001
  6
CONTINUOUS
 62
    2
 10
1379.6410666666668
 20
996.85673333333341
 11
1386.8561999999999
 21
995.3922
  0
LINE
  8
_0-0_LAYER001
  6
CONTINUOUS
 62
    2
 10
1399.6580666666669
 20
986.75259999999992
 11
1364.3978666666667
 21
973.37739999999997
  0
LINE
  8
_0-0_LAYER001
  6
CONTINUOUS
 62
    2
 10
1375.3409999999999
 20
997.69526666666661
 11
1388.7149999999999
 21
962.43473333333327
  0
LINE
  8
_0-0_LAYER001
  6
CONTINUOUS
 62
    2
 10
1584.4733999999999
 20
997.69526666666661
 11
1595.4165333333333
 21
973.37739999999997
  0
LINE
  8
_0-0_LAYER001
  6
CONTINUOUS
 62
    2
 10
1571.0994000000001
 20
962.43473333333327
 11
1560.1563333333334
 21
986.75259999999992
  0
LINE
  8
_0-0_LAYER001
  6
CONTINUOUS
 62
    2
 10
1560.1563333333334
 20
986.75259999999992
 11
1584.4733999999999
 21
997.69526666666661
  0
LINE
  8
_0-0_LAYER001
  6
CONTINUOUS
 62
    2
 10
1580.1733333333334
 20
996.85673333333341
 11
1558.8607333333332
 21
987.2661333333333
  0
LINE
  8
_0-0_LAYER001
  6
CONTINUOUS
 62
    2
 10
1580.1733333333334
 20
996.85673333333341
 11
1572.9582
 21
995.3922
  0
LINE
  8
_0-0_LAYER001
  6
CONTINUOUS
 62
    2
 10
1560.1563333333334
 20
986.75259999999992
 11
1595.4165333333333
 21
973.37739999999997
  0
LINE
  8
_0-0_LAYER001
  6
CONTINUOUS
 62
    2
 10
1584.4733999999999
 20
997.69526666666661
 11
1571.0994000000001
 21
962.43473333333327
  0
LINE
  8
_0-0_LAYER001
  6
CONTINUOUS
 62
    2
 10
1558.8607333333332
 20
958.02386666666678
 11
1479.9071999999999
 21
922.49479999999994
  0
LINE
  8
_0-0_LAYER001
  6
CONTINUOUS
 62
    2
 10
1558.8607333333332
 20
987.2661333333333
 11
1558.8607333333332
 21
958.02386666666678
  0
LINE
  8
_0-0_LAYER001
  6
CONTINUOUS
 62
    2
 10
1569.6666666666667
 20
988.68520000000001
 11
1567.1666666666667
 21
984.35506666666674
  0
LINE
  8
_0-0_LAYER001
  6
CONTINUOUS
 62
    2
 10
1567.1666666666667
 20
984.35506666666674
 11
1567.1666666666667
 21
989.35506666666674
  0
LINE
  8
_0-0_LAYER001
  6
CONTINUOUS
 62
    2
 10
1567.1666666666667
 20
984.35506666666674
 11
1592.1169999999997
 21
1077.4710666666667
  0
LINE
  8
_0-0_LAYER001
  6
CONTINUOUS
 62
    2
 10
1592.1169999999997
 20
1077.4710666666667
 11
1678.2521999999999
 21
1077.4710666666667
  0
LINE
  8
_0-1_LAYER004
  6
DASHED1
 62
    2
 10
1594.0564666666664
 20
899.57106666666675
 11
1591.3744666666666
 21
905.67440000000011
  0
LINE
  8
_0-1_LAYER004
  6
DASHED1
 62
    2
 10
1561.3155999999999
 20
940.9839333333332
 11
1579.1853333333333
 21
900.31813333333332
  0
LINE
  8
_0-1_LAYER004
  6
DASHED1
 62
    2
 10
1555.2121999999999
 20
938.30193333333341
 11
1575.7640000000001
 21
891.53273333333334
  0
LINE
  8
_0-1_LAYER004
  6
DASHED1
 62
    2
 10
1579.1853333333333
 20
900.31813333333332
 11
1591.3744666666666
 21
905.67440000000011
  0
LINE
  8
_0-1_LAYER004
  6
DASHED1
 62
    2
 10
1575.7640000000001
 20
891.53273333333334
 11
1594.0564666666664
 21
899.57106666666675
  0
LINE
  8
_0-1_LAYER004
  6
CONTINUOUS
 62
    3
 10
1490.5067333333332
 20
905.47426666666661
 11
1995.3091333333332
 21
1132.6356000000001
  0
CIRCLE
  8
_0-1_LAYER004
  6
CONTINUOUS
 62
    3
 10
1498.0138666666664
 20
909.66340000000002
 40
0.8699479999999999
  0
CIRCLE
  8
_0-1_LAYER004
  6
CONTINUOUS
 62
    3
 10
1589.2060000000001
 20
950.69993333333332
 40
0.8699479999999999
  0
CIRCLE
  8
_0-1_LAYER004
  6
CONTINUOUS
 62
    3
 10
1680.3981333333334
 20
991.73646666666673
 40
0.8699479999999999
  0
CIRCLE
  8
_0-1_LAYER004
  6
CONTINUOUS
 62
    3
 10
1771.5902666666668
 20
1032.7729333333334
 40
0.8699479999999999
  0
CIRCLE
  8
_0-1_LAYER004
  6
CONTINUOUS
 62
    3
 10
1862.7824000000001
 20
1073.8094666666666
 40
0.8699479999999999
  0
CIRCLE
  8
_0-1_LAYER004
  6
CONTINUOUS
 62
    3
 10
1953.9745333333331
 20
1114.8459333333333
 40
0.8699479999999999
  0
LINE
  8
_0-1_LAYER004
  6
DASHED1
 62
    2
 10
1958.8391999999999
 20
1063.7234666666668
 11
1956.1571999999999
 21
1069.8268
  0
LINE
  8
_0-1_LAYER004
  6
DASHED1
 62
    2
 10
1926.0983333333331
 20
1105.1363333333334
 11
1943.9680666666666
 21
1064.4705999999999
  0
LINE
  8
_0-1_LAYER004
  6
DASHED1
 62
    2
 10
1919.9949333333334
 20
1102.4543333333331
 11
1940.5467333333331
 21
1055.6852000000001
  0
LINE
  8
_0-1_LAYER004
  6
DASHED1
 62
    2
 10
1943.9680666666666
 20
1064.4705999999999
 11
1956.1571999999999
 21
1069.8268
  0
LINE
  8
_0-1_LAYER004
  6
DASHED1
 62
    2
 10
1940.5467333333331
 20
1055.6852000000001
 11
1958.8391999999999
 21
1063.7234666666668
  0
LINE
  8
_0-1_LAYER004
  6
DASHED1
 62
    2
 10
1926.0983333333331
 20
1105.1363333333334
 11
1919.9949333333334
 21
1102.4543333333331
  0
LINE
  8
_0-1_LAYER004
  6
DASHED1
 62
    2
 10
1561.3155999999999
 20
940.9839333333332
 11
1555.2121999999999
 21
938.30193333333341
  0
LINE
  8
_0-1_LAYER004
  6
DASHED1
 62
    2
 10
1365.7579333333333
 20
899.57106666666675
 11
1368.4399333333336
 21
905.67440000000011
  0
LINE
  8
_0-1_LAYER004
  6
DASHED1
 62
    2
 10
1398.4988666666666
 20
940.9839333333332
 11
1380.6290666666666
 21
900.31813333333332
  0
LINE
  8
_0-1_LAYER004
  6
DASHED1
 62
    2
 10
1404.6021999999998
 20
938.30193333333341
 11
1384.0504666666666
 21
891.53273333333334
  0
LINE
  8
_0-1_LAYER004
  6
DASHED1
 62
    2
 10
1380.6290666666666
 20
900.31813333333332
 11
1368.4399333333336
 21
905.67440000000011
  0
LINE
  8
_0-1_LAYER004
  6
DASHED1
 62
    2
 10
1384.0504666666666
 20
891.53273333333334
 11
1365.7579333333333
 21
899.57106666666675
  0
LINE
  8
_0-1_LAYER004
  6
CONTINUOUS
 62
    3
 10
1469.3076666666666
 20
905.47426666666661
 11
974.69086666666669
 21
1128.0520666666666
  0
CIRCLE
  8
_0-1_LAYER004
  6
CONTINUOUS
 62
    3
 10
1461.8005333333335
 20
909.66340000000002
 40
0.8699479999999999
  0
CIRCLE
  8
_0-1_LAYER004
  6
CONTINUOUS
 62
    3
 10
1370.6084000000001
 20
950.69993333333332
 40
0.8699479999999999
  0
CIRCLE
  8
_0-1_LAYER004
  6
CONTINUOUS
 62
    3
 10
1279.4162666666666
 20
991.73646666666673
 40
0.8699479999999999
  0
CIRCLE
  8
_0-1_LAYER004
  6
CONTINUOUS
 62
    3
 10
1188.2241333333334
 20
1032.7729333333334
 40
0.8699479999999999
  0
CIRCLE
  8
_0-1_LAYER004
  6
CONTINUOUS
 62
    3
 10
1097.0320000000002
 20
1073.8094666666666
 40
0.8699479999999999
  0
CIRCLE
  8
_0-1_LAYER004
  6
CONTINUOUS
 62
    3
 10
1005.8398666666667
 20
1114.8459333333333
 40
0.8699479999999999
  0
LINE
  8
_0-1_LAYER004
  6
DASHED1
 62
    2
 10
1000.9752000000001
 20
1063.7234666666668
 11
1003.6572
 21
1069.8268
  0
LINE
  8
_0-1_LAYER004
  6
DASHED1
 62
    2
 10
1033.7161333333333
 20
1105.1363333333334
 11
1015.8463333333334
 21
1064.4705999999999
  0
LINE
  8
_0-1_LAYER004
  6
DASHED1
 62
    2
 10
1039.8194666666668
 20
1102.4543333333331
 11
1019.2677333333334
 21
1055.6852000000001
  0
LINE
  8
_0-1_LAYER004
  6
DASHED1
 62
    2
 10
1015.8463333333334
 20
1064.4705999999999
 11
1003.6572
 21
1069.8268
  0
LINE
  8
_0-1_LAYER004
  6
DASHED1
 62
    2
 10
1019.2677333333334
 20
1055.6852000000001
 11
1000.9752000000001
 21
1063.7234666666668
  0
LINE
  8
_0-1_LAYER004
  6
DASHED1
 62
    2
 10
1033.7161333333333
 20
1105.1363333333334
 11
1039.8194666666668
 21
1102.4543333333331
  0
LINE
  8
_0-1_LAYER004
  6
DASHED1
 62
    2
 10
1398.4988666666666
 20
940.9839333333332
 11
1404.6021999999998
 21
938.30193333333341
  0
LINE
  8
_0-1_LAYER004
  6
CONTINUOUS
 62
    2
 10
1022.6779333333334
 20
1063.3032000000001
 11
1021.3838000000001
 21
1068.1328000000001
  0
LINE
  8
_0-1_LAYER004
  6
CONTINUOUS
 62
    2
 10
1021.3838000000001
 20
1068.1328000000001
 11
1024.9193333333333
 21
1064.5972666666667
  0
LINE
  8
_0-1_LAYER004
  6
CONTINUOUS
 62
    2
 10
1230.7187999999999
 20
1007.7084
 11
1234.2543333333333
 21
1011.2439333333333
  0
LINE
  8
_0-1_LAYER004
  6
CONTINUOUS
 62
    2
 10
1234.2543333333333
 20
1011.2439333333333
 11
1232.9602666666667
 21
1006.4143333333334
  0
LINE
  8
_0-0_LAYER001
  6
CONTINUOUS
 62
    2
 10
1790.5026
 20
1104.4575333333335
 11
1791.7966666666666
 21
1099.6278666666667
  0
LINE
  8
_0-0_LAYER001
  6
CONTINUOUS
 62
    2
 10
1791.7966666666666
 20
1099.6278666666667
 11
1788.2611333333334
 21
1103.1634000000001
  0
LINE
  8
_0-0_LAYER001
  6
CONTINUOUS
 62
    2
 10
1791.7966666666666
 20
1099.6278666666667
 11
1752.8112000000001
 21
1167.1527333333333
  0
LINE
  8
_0-0_LAYER001
  6
CONTINUOUS
 62
    2
 10
1752.8112000000001
 20
1167.1527333333333
 11
1725.8112000000001
 21
1167.1527333333333
  0
LINE
  8
_0-0_LAYER001
  6
CONTINUOUS
 62
    2
 10
1721.2260666666668
 20
1030.8841333333335
 11
1721.2260666666668
 21
1035.8841333333335
  0
LINE
  8
_0-0_LAYER001
  6
CONTINUOUS
 62
    2
 10
1721.2260666666668
 20
1035.8841333333335
 11
1723.7260666666668
 21
1031.5540000000001
  0
LINE
  8
_0-2_ADD_LINE
  6
CONTINUOUS
 62
    7
 10
1479.9071999999999
 20
780.6697333333334
 11
1479.9071999999999
 21
921.39819999999986
  0
LINE
  8
_0-2_ADD_LINE
  6
CONTINUOUS
 62
    7
 10
1678.2521999999999
 20
1077.4710666666667
 11
1592.1169999999997
 21
1077.4710666666667
  0
LINE
  8
_0-2_ADD_LINE
  6
CONTINUOUS
 62
    7
 10
1592.1169999999997
 20
1077.4710666666667
 11
1567.1666666666667
 21
984.35506666666674
  0
LINE
  8
_0-2_ADD_LINE
  6
CONTINUOUS
 62
    7
 10
1567.1666666666667
 20
984.35506666666674
 11
1569.6666666666667
 21
988.68520000000001
  0
LINE
  8
_0-2_ADD_LINE
  6
CONTINUOUS
 62
    7
 10
1567.1666666666667
 20
984.35506666666674
 11
1567.1666666666667
 21
989.35506666666674
  0
LINE
  8
_0-2_ADD_LINE
  6
CONTINUOUS
 62
    7
 10
1560.1563333333334
 20
986.75259999999992
 11
1584.4733999999999
 21
997.69526666666661
  0
LINE
  8
_0-2_ADD_LINE
  6
CONTINUOUS
 62
    7
 10
1584.4733999999999
 20
997.69526666666661
 11
1595.4165222640445
 21
973.37742459820993
  0
LINE
  8
_0-2_ADD_LINE
  6
CONTINUOUS
 62
    7
 10
1595.4165222640445
 20
973.37742459820993
 11
1571.0994000000001
 21
962.43473333333327
  0
LINE
  8
_0-2_ADD_LINE
  6
CONTINUOUS
 62
    7
 10
1571.0994000000001
 20
962.43473333333327
 11
1560.1563333333334
 21
986.75259999999992
  0
LINE
  8
_0-2_ADD_LINE
  6
CONTINUOUS
 62
    7
 10
1595.4164976666434
 20
973.37741352939315
 11
1560.1563333333334
 21
986.75259999999992
  0
LINE
  8
_0-2_ADD_LINE
  6
CONTINUOUS
 62
    7
 10
1571.0994000000001
 20
962.43473333333327
 11
1584.4733999999999
 21
997.69526666666661
  0
LINE
  8
_0-2_ADD_LINE
  6
CONTINUOUS
 62
    7
 10
1572.9582
 20
995.3922
 11
1580.1733333333334
 21
996.85673333333341
  0
LINE
  8
_0-2_ADD_LINE
  6
CONTINUOUS
 62
    7
 10
1580.1733333333334
 20
996.85673333333341
 11
1558.8607333333332
 21
987.2661333333333
  0
LINE
  8
_0-2_ADD_LINE
  6
CONTINUOUS
 62
    7
 10
1558.8607333333332
 20
987.2661333333333
 11
1558.8607333333332
 21
958.02386666666678
  0
LINE
  8
_0-2_ADD_LINE
  6
CONTINUOUS
 62
    7
 10
1558.8607333333332
 20
958.02386666666678
 11
1479.9071999999999
 21
922.49479999999994
  0
LINE
  8
_0-2_ADD_LINE
  6
CONTINUOUS
 62
    7
 10
1479.9071999999999
 20
922.49479999999994
 11
1400.9537333333333
 21
958.02386666666678
  0
LINE
  8
_0-2_ADD_LINE
  6
CONTINUOUS
 62
    7
 10
1400.9537333333333
 20
958.02386666666678
 11
1400.9537333333333
 21
987.2661333333333
  0
LINE
  8
_0-2_ADD_LINE
  6
CONTINUOUS
 62
    7
 10
1400.9537333333333
 20
987.2661333333333
 11
1379.6410666666668
 21
996.85673333333341
  0
LINE
  8
_0-2_ADD_LINE
  6
CONTINUOUS
 62
    7
 10
1379.6410666666668
 20
996.85673333333341
 11
1386.8561999999999
 21
995.3922
  0
LINE
  8
_0-2_ADD_LINE
  6
CONTINUOUS
 62
    7
 10
1375.3409999999999
 20
997.69526666666661
 11
1399.6580666666669
 21
986.75259999999992
  0
LINE
  8
_0-2_ADD_LINE
  6
CONTINUOUS
 62
    7
 10
1399.6580666666669
 20
986.75259999999992
 11
1388.7149999999999
 21
962.43473333333327
  0
LINE
  8
_0-2_ADD_LINE
  6
CONTINUOUS
 62
    7
 10
1388.7149999999999
 20
962.43473333333327
 11
1364.3978741972853
 21
973.37741673456549
  0
LINE
  8
_0-2_ADD_LINE
  6
CONTINUOUS
 62
    7
 10
1364.3978741972853
 20
973.37741673456549
 11
1375.3409999999999
 21
997.69526666666661
  0
LINE
  8
_0-2_ADD_LINE
  6
CONTINUOUS
 62
    7
 10
1375.3409999999999
 20
997.69526666666661
 11
1388.7149999999999
 21
962.43473333333327
  0
LINE
  8
_0-2_ADD_LINE
  6
CONTINUOUS
 62
    7
 10
1399.6580666666669
 20
986.75259999999992
 11
1364.3978741972853
 21
973.37741673456549
  0
LINE
  8
_0-2_ADD_LINE
  6
CONTINUOUS
 62
    7
 10
1432.7713333333331
 20
944.02460000000008
 11
1432.7713333333331
 21
949.02460000000008
  0
LINE
  8
_0-2_ADD_LINE
  6
CONTINUOUS
 62
    7
 10
1432.7713333333331
 20
944.02460000000008
 11
1430.2713333333331
 21
948.35473333333323
  0
LINE
  8
_0-2_ADD_LINE
  6
CONTINUOUS
 62
    7
 10
1232.4086000000002
 20
1044.7184666666667
 11
1228.4664
 21
1035.5282666666667
  0
LINE
  8
_0-2_ADD_LINE
  6
CONTINUOUS
 62
    7
 10
1228.4664
 20
1035.5282666666667
 11
1246.8466666666668
 21
1027.6438666666668
  0
LINE
  8
_0-2_ADD_LINE
  6
CONTINUOUS
 62
    7
 10
1246.8466666666668
 20
1027.6438666666668
 11
1250.7889333333333
 21
1036.8339999999998
  0
LINE
  8
_0-2_ADD_LINE
  6
CONTINUOUS
 62
    7
 10
1250.7889333333333
 20
1036.8339999999998
 11
1232.4086000000002
 21
1044.7184666666667
  0
LINE
  8
_0-2_ADD_LINE
  6
CONTINUOUS
 62
    7
 10
1232.4086000000002
 20
1044.7184666666667
 11
1246.8466666666668
 21
1027.6438666666668
  0
LINE
  8
_0-2_ADD_LINE
  6
CONTINUOUS
 62
    7
 10
1063.5811333333334
 20
1121.0991999999999
 11
1059.6389333333334
 21
1111.9090000000001
  0
LINE
  8
_0-2_ADD_LINE
  6
CONTINUOUS
 62
    7
 10
1059.6389333333334
 20
1111.9090000000001
 11
1078.0192000000002
 21
1104.0246
  0
LINE
  8
_0-2_ADD_LINE
  6
CONTINUOUS
 62
    7
 10
1078.0192000000002
 20
1104.0246
 11
1081.9614666666666
 21
1113.2147333333335
  0
LINE
  8
_0-2_ADD_LINE
  6
CONTINUOUS
 62
    7
 10
1081.9614666666666
 20
1113.2147333333335
 11
1063.5811333333334
 21
1121.0991999999999
  0
LINE
  8
_0-2_ADD_LINE
  6
CONTINUOUS
 62
    7
 10
1063.5811333333334
 20
1121.0991999999999
 11
1078.0192000000002
 21
1104.0246
  0
LINE
  8
_0-2_ADD_LINE
  6
CONTINUOUS
 62
    7
 10
982.4348
 20
1145.2608666666667
 11
1479.9071999999999
 21
921.39819999999986
  0
LINE
  8
_0-2_ADD_LINE
  6
CONTINUOUS
 62
    7
 10
1479.9071999999999
 20
921.39819999999986
 11
1987.5651333333331
 21
1149.8444
  0
LINE
  8
_0-2_ADD_LINE
  6
CONTINUOUS
 62
    7
 10
1988.2490666666667
 20
1148.3245333333332
 11
1479.9071999999999
 21
919.57053333333329
  0
LINE
  8
_0-2_ADD_LINE
  6
CONTINUOUS
 62
    7
 10
1479.9071999999999
 20
919.57053333333329
 11
981.75086666666652
 21
1143.741
  0
LINE
  8
_0-2_ADD_LINE
  6
CONTINUOUS
 62
    7
 10
970.80780000000004
 20
1119.4231333333335
 11
1479.9071999999999
 21
890.32826666666665
  0
LINE
  8
_0-2_ADD_LINE
  6
CONTINUOUS
 62
    7
 10
1479.9071999999999
 20
890.32826666666665
 11
1999.1921333333332
 21
1124.0065999999999
  0
LINE
  8
_0-2_ADD_LINE
  6
CONTINUOUS
 62
    7
 10
1919.9949333333334
 20
1102.4543333333331
 11
1926.0983333333331
 21
1105.1363333333334
  0
LINE
  8
_0-2_ADD_LINE
  6
CONTINUOUS
 62
    7
 10
1926.0983333333331
 20
1105.1363333333334
 11
1943.9680666666666
 21
1064.4705999999999
  0
LINE
  8
_0-2_ADD_LINE
  6
CONTINUOUS
 62
    7
 10
1943.9680666666666
 20
1064.4705999999999
 11
1956.1571999999999
 21
1069.8268
  0
LINE
  8
_0-2_ADD_LINE
  6
CONTINUOUS
 62
    7
 10
1956.1571999999999
 20
1069.8268
 11
1958.8391999999999
 21
1063.7234666666668
  0
LINE
  8
_0-2_ADD_LINE
  6
CONTINUOUS
 62
    7
 10
1958.8391999999999
 20
1063.7234666666668
 11
1940.5467333333331
 21
1055.6852000000001
  0
LINE
  8
_0-2_ADD_LINE
  6
CONTINUOUS
 62
    7
 10
1940.5467333333331
 20
1055.6852000000001
 11
1919.9949333333334
 21
1102.4543333333331
  0
LINE
  8
_0-2_ADD_LINE
  6
CONTINUOUS
 62
    7
 10
1877.8530000000001
 20
1113.2147333333335
 11
1881.7951999999996
 21
1104.0246
  0
LINE
  8
_0-2_ADD_LINE
  6
CONTINUOUS
 62
    7
 10
1881.7951999999996
 20
1104.0246
 11
1900.1755333333335
 21
1111.9090000000001
  0
LINE
  8
_0-2_ADD_LINE
  6
CONTINUOUS
 62
    7
 10
1900.1755333333335
 20
1111.9090000000001
 11
1896.2332666666669
 21
1121.0991999999999
  0
LINE
  8
_0-2_ADD_LINE
  6
CONTINUOUS
 62
    7
 10
1896.2332666666669
 20
1121.0991999999999
 11
1877.8530000000001
 21
1113.2147333333335
  0
LINE
  8
_0-2_ADD_LINE
  6
CONTINUOUS
 62
    7
 10
1896.2332666666669
 20
1121.0991999999999
 11
1881.7951999999996
 21
1104.0246
  0
LINE
  8
_0-2_ADD_LINE
  6
CONTINUOUS
 62
    7
 10
1791.7966666666666
 20
1099.6278666666667
 11
1790.5026
 21
1104.4575333333335
  0
LINE
  8
_0-2_ADD_LINE
  6
CONTINUOUS
 62
    7
 10
1791.7966666666666
 20
1099.6278666666667
 11
1788.2611333333334
 21
1103.1634000000001
  0
LINE
  8
_0-2_ADD_LINE
  6
CONTINUOUS
 62
    7
 10
1791.7966666666666
 20
1099.6278666666667
 11
1752.8112000000001
 21
1167.1527333333333
  0
LINE
  8
_0-2_ADD_LINE
  6
CONTINUOUS
 62
    7
 10
1752.8112000000001
 20
1167.1527333333333
 11
1725.8112000000001
 21
1167.1527333333333
  0
LINE
  8
_0-2_ADD_LINE
  6
CONTINUOUS
 62
    7
 10
1731.3480666666669
 20
1035.5282666666667
 11
1727.4058666666667
 21
1044.7184666666667
  0
LINE
  8
_0-2_ADD_LINE
  6
CONTINUOUS
 62
    7
 10
1727.4058666666667
 20
1044.7184666666667
 11
1709.0255333333334
 21
1036.8339999999998
  0
LINE
  8
_0-2_ADD_LINE
  6
CONTINUOUS
 62
    7
 10
1709.0255333333334
 20
1036.8339999999998
 11
1712.9677333333334
 21
1027.6438666666668
  0
LINE
  8
_0-2_ADD_LINE
  6
CONTINUOUS
 62
    7
 10
1712.9677333333334
 20
1027.6438666666668
 11
1731.3480666666669
 21
1035.5282666666667
  0
LINE
  8
_0-2_ADD_LINE
  6
CONTINUOUS
 62
    7
 10
1712.9677333333334
 20
1027.6438666666668
 11
1727.4058666666667
 21
1044.7184666666667
  0
LINE
  8
_0-2_ADD_LINE
  6
CONTINUOUS
 62
    7
 10
1721.2260666666668
 20
1031.1863488487093
 11
1721.2260666666668
 21
1035.8841333333335
  0
LINE
  8
_0-2_ADD_LINE
  6
CONTINUOUS
 62
    7
 10
1721.2260666666668
 20
1035.8841333333335
 11
1723.3999485666766
 21
1032.118853942148
  0
LINE
  8
_0-2_ADD_LINE
  6
CONTINUOUS
 62
    7
 10
1723.3999485666766
 20
1032.118853942148
 11
1721.2260666666668
 21
1035.8841333333335
  0
LINE
  8
_0-2_ADD_LINE
  6
CONTINUOUS
 62
    7
 10
1780.1355333333333
 20
816.03093333333334
 11
1948.9128000000001
 21
816.03093333333334
  0
LINE
  8
_0-2_ADD_LINE
  6
CONTINUOUS
 62
    7
 10
1555.2121999999999
 20
938.30193333333341
 11
1561.3155999999999
 21
940.9839333333332
  0
LINE
  8
_0-2_ADD_LINE
  6
CONTINUOUS
 62
    7
 10
1561.3155999999999
 20
940.9839333333332
 11
1579.1853333333333
 21
900.31813333333332
  0
LINE
  8
_0-2_ADD_LINE
  6
CONTINUOUS
 62
    7
 10
1579.1853333333333
 20
900.31813333333332
 11
1591.3744666666666
 21
905.67440000000011
  0
LINE
  8
_0-2_ADD_LINE
  6
CONTINUOUS
 62
    7
 10
1591.3744666666666
 20
905.67440000000011
 11
1594.0564666666664
 21
899.57106666666675
  0
LINE
  8
_0-2_ADD_LINE
  6
CONTINUOUS
 62
    7
 10
1594.0564666666664
 20
899.57106666666675
 11
1575.7640000000001
 21
891.53273333333334
  0
LINE
  8
_0-2_ADD_LINE
  6
CONTINUOUS
 62
    7
 10
1575.7640000000001
 20
891.53273333333334
 11
1555.2121999999999
 21
938.30193333333341
  0
LINE
  8
_0-2_ADD_LINE
  6
CONTINUOUS
 62
    7
 10
1732.7716073768033
 20
846.84835296161236
 11
1662.6462841052648
 21
1002.6819911805874
  0
LINE
  8
_0-2_ADD_LINE
  6
CONTINUOUS
 62
    7
 10
1662.6462841052648
 20
1002.6819911805874
 11
1479.9785999999999
 21
920.48146666666662
  0
LINE
  8
_0-2_ADD_LINE
  6
CONTINUOUS
 62
    7
 10
1479.9785999999999
 20
920.48146666666662
 11
1297.1678666666667
 21
1002.6821333333334
  0
LINE
  8
_0-2_ADD_LINE
  6
CONTINUOUS
 62
    7
 10
1297.1678666666667
 20
1002.6821333333334
 11
1227.971
 21
848.91086666666661
  0
LINE
  8
_0-2_ADD_LINE
  6
CONTINUOUS
 62
    7
 10
1227.971
 20
848.91086666666661
 11
1227.287
 21
847.39099999999996
  0
LINE
  8
_0-2_ADD_LINE
  6
CONTINUOUS
 62
    7
 10
1227.971
 20
848.91086666666661
 11
1410.3552666666667
 21
766.83793333333347
  0
LINE
  8
_0-2_ADD_LINE
  6
CONTINUOUS
 62
    7
 10
1409.6713333333335
 20
765.31806666666682
 11
1424.0340666666666
 21
797.2353333333333
  0
LINE
  8
_0-2_ADD_LINE
  6
CONTINUOUS
 62
    7
 10
1536.2433999999998
 20
796.20626666666681
 11
1550.6061999999999
 21
764.28906666666671
  0
LINE
  8
_0-2_ADD_LINE
  6
CONTINUOUS
 62
    7
 10
1549.9222475200156
 20
765.80895471733606
 11
1732.3065263829244
 21
847.88186353898311
  0
LINE
  8
_0-2_ADD_LINE
  6
CONTINUOUS
 62
    7
 10
1581.9827394412719
 20
826.60373944127173
 11
1781.3619862887704
 21
1025.9829862887702
  0
LINE
  8
_0-2_ADD_LINE
  6
CONTINUOUS
 62
    7
 10
1564.840795968259
 20
818.88986263492541
 11
1764.22
 21
1018.2690666666667
  0
LINE
  8
_0-2_ADD_LINE
  6
CONTINUOUS
 62
    7
 10
1798.5039999999999
 20
1033.6968666666667
 11
1599.1246666666666
 21
834.31759999999997
  0
LINE
  8
_0-2_ADD_LINE
  6
CONTINUOUS
 62
    7
 10
1941.9645220716609
 20
988.59558873837318
 11
2023.4559333333334
 21
1070.0870666666667
  0
LINE
  8
_0-2_ADD_LINE
  6
CONTINUOUS
 62
    7
 10
2026.3819333333333
 20
1063.5849333333335
 11
1959.1064666666668
 21
996.30946666666659
  0
LINE
  8
_0-2_ADD_LINE
  6
CONTINUOUS
 62
    7
 10
1976.2485302297739
 20
1004.0233968965207
 11
2029.3078666666668
 21
1057.0828000000001
  0
LINE
  8
_0-2_ADD_LINE
  6
CONTINUOUS
 62
    7
 10
2040.2286666666666
 20
1032.8144666666667
 11
1479.9071999999999
 21
780.6697333333334
  0
LINE
  8
_0-2_ADD_LINE
  6
CONTINUOUS
 62
    7
 10
1479.9071999999999
 20
780.6697333333334
 11
929.77126666666663
 21
1028.2310000000002
  0
LINE
  8
_0-2_ADD_LINE
  6
CONTINUOUS
 62
    7
 10
1033.7161333333333
 20
1105.1363333333334
 11
1039.8194666666668
 21
1102.4543333333331
  0
LINE
  8
_0-2_ADD_LINE
  6
CONTINUOUS
 62
    7
 10
1039.8194666666668
 20
1102.4543333333331
 11
1019.2677333333334
 21
1055.6852000000001
  0
LINE
  8
_0-2_ADD_LINE
  6
CONTINUOUS
 62
    7
 10
1019.2677333333334
 20
1055.6852000000001
 11
1000.9752000000001
 21
1063.7234666666668
  0
LINE
  8
_0-2_ADD_LINE
  6
CONTINUOUS
 62
    7
 10
1000.9752000000001
 20
1063.7234666666668
 11
1003.6572
 21
1069.8268
  0
LINE
  8
_0-2_ADD_LINE
  6
CONTINUOUS
 62
    7
 10
1003.6572
 20
1069.8268
 11
1015.8463333333334
 21
1064.4705999999999
  0
LINE
  8
_0-2_ADD_LINE
  6
CONTINUOUS
 62
    7
 10
1015.8463333333334
 20
1064.4705999999999
 11
1033.7161333333333
 21
1105.1363333333334
  0
LINE
  8
_0-2_ADD_LINE
  6
CONTINUOUS
 62
    7
 10
1021.3838000000001
 20
1068.1328000000001
 11
1022.6542103528991
 21
1063.3917322272091
  0
LINE
  8
_0-2_ADD_LINE
  6
CONTINUOUS
 62
    7
 10
1021.3838000000001
 20
1068.1328000000001
 11
1024.9193333333333
 21
1064.5972666666667
  0
LINE
  8
_0-2_ADD_LINE
  6
CONTINUOUS
 62
    7
 10
1230.7187999999999
 20
1007.7084
 11
1234.2543333333333
 21
1011.2439333333333
  0
LINE
  8
_0-2_ADD_LINE
  6
CONTINUOUS
 62
    7
 10
1234.2543333333333
 20
1011.2439333333333
 11
1232.9602666666667
 21
1006.4143333333334
  0
LINE
  8
_0-2_ADD_LINE
  6
CONTINUOUS
 62
    7
 10
1460.1814000000002
 20
965.23366666666675
 11
1446.0376563753255
 21
996.66464572686073
  0
LINE
  8
_0-2_ADD_LINE
  6
CONTINUOUS
 62
    7
 10
1446.5027333333333
 20
995.63113333333331
 11
1537.6949333333332
 21
1036.6672666666666
  0
LINE
  8
_0-2_ADD_LINE
  6
CONTINUOUS
 62
    7
 10
1537.2298572201203
 20
1037.7007794403485
 11
1551.3736666666668
 21
1006.2698
  0
LINE
  8
_0-2_ADD_LINE
  6
CONTINUOUS
 62
    7
 10
1475.0265333333334
 20
1054.5280666666665
 11
1452.7702584450694
 21
1103.9865133249023
  0
LINE
  8
_0-2_ADD_LINE
  6
CONTINUOUS
 62
    7
 10
1453.2353333333333
 20
1102.953
 11
1623.4608000000003
 21
1179.5542666666668
  0
LINE
  8
_0-2_ADD_LINE
  6
CONTINUOUS
 62
    7
 10
1645.2519333333335
 20
1131.1293333333333
 11
1617.5241917784028
 21
1192.7467133249024
  0
LINE
  8
_0-2_ADD_LINE
  6
CONTINUOUS
 62
    7
 10
1617.9892666666669
 20
1191.7131999999999
 11
1788.2146480546608
 21
1268.3144582912819
  0
LINE
  8
_0-2_ADD_LINE
  6
CONTINUOUS
 62
    7
 10
1801.8934666666667
 20
1237.9170666666666
 11
1782.2780584450695
 21
1281.5069133249021
  0
LINE
  8
_0-2_ADD_LINE
  6
CONTINUOUS
 62
    7
 10
1782.7431333333334
 20
1280.4733999999999
 11
1905.4933333333333
 21
1335.7108666666668
  0
LINE
  8
_0-2_ADD_LINE
  6
CONTINUOUS
 62
    7
 10
1681.7287999999999
 20
1147.5438666666669
 11
1674.4243246893404
 21
1163.7761131348268
  0
LINE
  8
_0-2_ADD_LINE
  6
CONTINUOUS
 62
    7
 10
1674.8894
 20
1162.7426
 11
1468.1871400052823
 21
1069.726736335708
  0
LINE
  8
_0-2_ADD_LINE
  6
CONTINUOUS
 62
    7
 10
1520.6228666666666
 20
1075.0464000000002
 11
1513.0995333333335
 21
1091.7649333333334
  0
LINE
  8
_0-0_LAYER001
  6
CONTINUOUS
 62
    2
 10
983.56593333333331
 20
1004.0233333333333
 11
930.50653333333321
 21
1057.0828000000001
  0
LINE
  8
_0-0_LAYER001
  6
CONTINUOUS
 62
    2
 10
1000.7079333333331
 20
996.30946666666659
 11
933.43246666666641
 21
1063.5849333333335
  0
LINE
  8
_0-0_LAYER001
  6
CONTINUOUS
 62
    2
 10
1017.8499333333332
 20
988.59553333333326
 11
936.35846666666657
 21
1070.0870666666667
  0
LINE
  8
_0-0_LAYER001
  6
CONTINUOUS
 62
    2
 10
1360.6897333333334
 20
834.31759999999997
 11
1161.3104000000001
 21
1033.6968666666667
  0
LINE
  8
_0-0_LAYER001
  6
CONTINUOUS
 62
    2
 10
1377.831733333333
 20
826.60366666666675
 11
1178.4523999999997
 21
1025.9829999999999
  0
LINE
  8
_0-0_LAYER001
  6
CONTINUOUS
 62
    2
 10
1394.9736666666663
 20
818.88980000000004
 11
1195.5944
 21
1018.2690666666667
  0
LINE
  8
_0-2_ADD_LINE
  6
CONTINUOUS
 62
    7
 10
1398.4988666666666
 20
940.9839333333332
 11
1404.6021999999998
 21
938.30193333333341
  0
LINE
  8
_0-2_ADD_LINE
  6
CONTINUOUS
 62
    7
 10
1404.6021999999998
 20
938.30193333333341
 11
1384.0504666666666
 21
891.53273333333334
  0
LINE
  8
_0-2_ADD_LINE
  6
CONTINUOUS
 62
    7
 10
1384.0504666666666
 20
891.53273333333334
 11
1365.7579333333333
 21
899.57106666666675
  0
LINE
  8
_0-2_ADD_LINE
  6
CONTINUOUS
 62
    7
 10
1365.7579333333333
 20
899.57106666666675
 11
1368.4399333333336
 21
905.67440000000011
  0
LINE
  8
_0-2_ADD_LINE
  6
CONTINUOUS
 62
    7
 10
1368.4399333333336
 20
905.67440000000011
 11
1380.6290666666666
 21
900.31813333333332
  0
LINE
  8
_0-2_ADD_LINE
  6
CONTINUOUS
 62
    7
 10
1380.6290666666666
 20
900.31813333333332
 11
1398.4988666666666
 21
940.9839333333332
  0
LINE
  8
_0-2_ADD_LINE
  6
CONTINUOUS
 62
    7
 10
1394.9736666666663
 20
818.88980000000004
 11
1195.5944
 21
1018.2690666666667
  0
LINE
  8
_0-2_ADD_LINE
  6
CONTINUOUS
 62
    7
 10
1178.4523999999997
 20
1025.9829999999999
 11
1377.8316522373611
 21
826.6037477626387
  0
LINE
  8
_0-2_ADD_LINE
  6
CONTINUOUS
 62
    7
 10
1360.6897073668929
 20
834.31762596643171
 11
1161.3104000000001
 21
1033.6968666666667
  0
LINE
  8
_0-2_ADD_LINE
  6
CONTINUOUS
 62
    7
 10
936.35846666666657
 20
1070.0870666666667
 11
1017.8498402607165
 21
988.59562640602621
  0
LINE
  8
_0-2_ADD_LINE
  6
CONTINUOUS
 62
    7
 10
1000.7078953901253
 20
996.30950460987435
 11
933.43246666666641
 21
1063.5849333333335
  0
LINE
  8
_0-2_ADD_LINE
  6
CONTINUOUS
 62
    7
 10
930.50653333333321
 20
1057.0828000000001
 11
983.56582930775085
 21
1004.0234373590464
  0
TEXT
  8
_0-0_LAYER001
 62
    7
 10
1479.8463242115647
 20
1018.9068240233712
 40
20
 41
1
 50
24.227545999999997
  1
150
  0
TEXT
  8
_0-0_LAYER001
 62
    7
 10
1485.1665346041154
 20
1078.759190939566
 40
20
 41
1
 50
24.227692999999999
  1
75
  0
TEXT
  8
_0-0_LAYER001
 62
    7
 10
1563.6396378942372
 20
1118.6607688836957
 40
20
 41
1
 50
24.227693000000023
  1
206
  0
TEXT
  8
_0-0_LAYER001
 62
    7
 10
1510.4375339687308
 20
1143.9317682483113
 40
20
 41
1
 50
24.227693000000016
  1
280
  0
TEXT
  8
_0-0_LAYER001
 62
    7
 10
1692.6547399135904
 20
1237.0354501179477
 40
20
 41
1
 50
24.227693000000002
  1
280
  0
TEXT
  8
_0-0_LAYER001
 62
    7
 10
1834.9703679143201
 20
1316.8386060062073
 40
20
 41
1
 50
24.227693000000002
  1
280
  0
TEXT
  8
_0-0_LAYER001
 62
    7
 10
1316.4459798858843
 20
812.6035371704512
 40
20
 41
1
 50
-24.227755000000005
  1
300
  0
TEXT
  8
_0-0_LAYER001
 62
    7
 10
1618.5062144002054
 20
803.66096443811944
 40
20
 41
1
 50
24.227754999999991
  1
300
  0
TEXT
  8
_0-0_LAYER001
 62
    7
 10
1373.325187261983
 20
729.80753686484593
 40
15
 41
1
 50
0
  1
この範囲ルーフィング２枚葺き
  0
TEXT
  8
_0-0_LAYER001
 62
    7
 10
1091.4732806675681
 20
1171.8375761686555
 40
20
 41
1
 50
0
  1
谷樋カラー鋼板0.35ｍｍ以上
  0
TEXT
  8
_0-0_LAYER001
 62
    7
 10
1777.7979811689763
 20
849.4043838338979
 40
20
 41
1
 50
0
  1
瓦桟：１５ｘ３０以上
  0
LINE
  8
_0-2_ADD_LINE
  6
CONTINUOUS
 62
    7
 10
1772.4880847574661
 20
845.35970263203069
 11
2021.4163147768406
 21
845.35970263203069
  0
LINE
  8
_0-2_ADD_LINE
  6
CONTINUOUS
 62
    7
 10
1948.9128000000001
 20
816.03093333333334
 11
2074.8730886231742
 21
816.03093333333334
  0
LINE
  8
_0-0_LAYER001
  6
CONTINUOUS
 62
    2
 10
1721.2260666666668
 20
1035.8841333333335
 11
1787.7081560216491
 21
787.76951077048352
  0
LINE
  8
_0-2_ADD_LINE
  6
CONTINUOUS
 62
    7
 10
1721.2260666666668
 20
1035.8841333333335
 11
1787.7081560216491
 21
787.76951077048352
  0
LINE
  8
_0-2_ADD_LINE
  6
CONTINUOUS
 62
    7
 10
1787.7081560216491
 20
787.76951077048352
 11
2116.0927696613116
 21
787.76951077048352
  0
TEXT
  8
_0-0_LAYER001
 62
    7
 10
1792.7758965184244
 20
791.58090002758627
 40
20
 41
1
 50
0
  1
パーライト系モルタルｔ＝４０
  0
LINE
  8
_0-2_ADD_LINE
  6
CONTINUOUS
 62
    7
 10
1725.8112000000001
 20
1167.1527333333333
 11
1704.5400167961623
 21
1167.1527333333333
  0
TEXT
  8
_0-0_LAYER001
 62
    7
 10
1587.5543810799934
 20
1082.4905410083784
 40
20
 41
1
 50
0
  1
桟木：40x40
  0
LINE
  8
_0-0_LAYER001
  6
CONTINUOUS
 62
    2
 10
1432.7713333333331
 20
944.02460000000008
 11
1373.4748555132164
 21
1165.3218652661756
  0
LINE
  8
_0-2_ADD_LINE
  6
CONTINUOUS
 62
    7
 10
1432.7713333333331
 20
944.02460000000008
 11
1373.4748555132164
 21
1165.3218652661756
  0
LINE
  8
_0-2_ADD_LINE
  6
CONTINUOUS
 62
    7
 10
1094.8880698423122
 20
1165.3218652661756
 11
1373.4748555132164
 21
1165.3218652661756
  0
TEXT
  8
_0-1_LAYER004
 62
    7
 10
1038.029636653308
 20
1036.3369102725021
 40
20
 41
1
 50
0
  1
アンカー
  0
TEXT
  8
_0-1_LAYER004
 62
    7
 10
1115.4200476684578
 20
971.02159884836863
 40
20
 41
1
 50
0
  1
溶接金網
  0
LINE
  8
_0-1_LAYER004
  6
CONTINUOUS
 62
    2
 10
1234.2543333333333
 20
1011.2439333333333
 11
1207.2293177229362
 21
964.43518088963265
  0
LINE
  8
_0-2_ADD_LINE
  6
CONTINUOUS
 62
    7
 10
1234.2543333333333
 20
1011.2439333333333
 11
1207.2293177229362
 21
964.43518088963265
  0
LINE
  8
_0-2_ADD_LINE
  6
CONTINUOUS
 62
    7
 10
1119.8109929742818
 20
964.43518088963265
 11
1207.2293177229362
 21
964.43518088963265
  0
LINE
  8
_0-1_LAYER004
  6
CONTINUOUS
 62
    2
 10
1021.3838000000001
 20
1068.1328000000001
 11
1041.9594358194554
 21
1032.4948331299061
  0
LINE
  8
_0-2_ADD_LINE
  6
CONTINUOUS
 62
    7
 10
1021.3838000000001
 20
1068.1328000000001
 11
1041.9594358194554
 21
1032.4948331299061
  0
LINE
  8
_0-2_ADD_LINE
  6
CONTINUOUS
 62
    7
 10
1041.9594358194554
 20
1032.4948331299061
 11
1131.3372244020702
 21
1032.4948331299061
  0
TEXT
  8
_0-0_LAYER001
 62
    7
 10
1781.0998493688021
 20
818.58694730219077
 40
20
 41
1
 50
0
  1
下葺材：ルーフィング
  0
ENDSEC
  0
EOF
