  0
SECTION
  2
HEADER
  9
$ACADVER
  1
AC1009
  9
$INSBASE
 10
0
 20
0
 30
0
  9
$EXTMIN
 10
0
 20
0
  9
$EXTMAX
 10
2970
 20
2100
  9
$LIMMIN
 10
0
 20
0
  9
$LIMMAX
 10
2970
 20
2100
  9
$LTSCALE
 40
10
  0
ENDSEC
  0
SECTION
  2
TABLES
  0
TABLE
  2
LTYPE
 70
     9
  0
LTYPE
  2
CONTINUOUS
 70
    64
  3
実線
 72
    65
 73
     0
 40
0.0
  0
LTYPE
  2
DASHED1
 70
    64
  3
--  --  --  --  --  --  --  --  
 72
    65
 73
     2
 40
2.5
 49
1.25
 49
-1.25
  0
LTYPE
  2
DASHED2
 70
    64
  3
----    ----    ----    ----    
 72
    65
 73
     2
 40
5.0
 49
2.5
 49
-2.5
  0
LTYPE
  2
DASHED3
 70
    64
  3
------  ------  ------  ------  
 72
    65
 73
     2
 40
5.0
 49
3.75
 49
-1.25
  0
LTYPE
  2
CENTER1
 70
    64
  3
----- - ----- - ----- - ----- - 
 72
    65
 73
     4
 40
10.0
 49
6.25
 49
-1.25
 49
1.25
 49
-1.25
  0
LTYPE
  2
CENTER2
 70
    64
  3
----------  --  ----------  --  
 72
    65
 73
     4
 40
20.0
 49
12.5
 49
-2.5
 49
2.5
 49
-2.5
  0
LTYPE
  2
PHANTOM1
 70
    64
  3
--- - - --- - - --- - - --- - - 
 72
    65
 73
     6
 40
10.0
 49
3.25
 49
-1.25
 49
1.25
 49
-1.25
 49
1.25
 49
-1.25
  0
LTYPE
  2
PHANTOM2
 70
    64
  3
--------  -  -  --------  -  -  
 72
    65
 73
     6
 40
20.0
 49
10.0
 49
-2.5
 49
1.25
 49
-2.5
 49
1.25
 49
-2.5
  0
LTYPE
  2
DOT
 70
    64
  3
-   -   -   -   -   -   -   -   
 72
    65
 73
     2
 40
2.5
 49
0.625
 49
-1.875
  0
LTYPE
  2
DUMMY
 70
    64
  3
ダミー
 72
    65
 73
     0
 40
0.0
  0
LTYPE
  2
RAND1
 70
    64
  3
ランダム線1
 72
    65
 73
     4
 40
10.0
 49
1.0
 49
-2.0
 49
3.0
 49
-4.0
  0
LTYPE
  2
RAND2
 70
    64
  3
ランダム線2
 72
    65
 73
     4
 40
14.0
 49
2.0
 49
-3.0
 49
4.0
 49
-5.0
  0
LTYPE
  2
RAND3
 70
    64
  3
ランダム線3
 72
    65
 73
     4
 40
18.0
 49
3.0
 49
-4.0
 49
5.0
 49
-6.0
  0
LTYPE
  2
RAND4
 70
    64
  3
ランダム線4
 72
    65
 73
     4
 40
22.0
 49
4.0
 49
-5.0
 49
6.0
 49
-7.0
  0
LTYPE
  2
RAND5
 70
    64
  3
ランダム線5
 72
    65
 73
     4
 40
26.0
 49
5.0
 49
-6.0
 49
7.0
 49
-8.0
  0
LTYPE
  2
LONG1
 70
    64
  3
----------  --  ----------  --  
 72
    65
 73
     4
 40
40.0
 49
32.5
 49
-2.5
 49
2.5
 49
-2.5
  0
LTYPE
  2
LONG2
 70
    64
  3
--------  -  -  --------  -  -  
 72
    65
 73
     6
 40
40.0
 49
30.0
 49
-2.5
 49
1.25
 49
-2.5
 49
1.25
 49
-2.5
  0
LTYPE
  2
LONG3
 70
    64
  3
+++++++++++++++..+++++++++++++++
 72
    65
 73
     2
 40
40.0
 49
37.5
 49
-2.5
  0
LTYPE
  2
LONG4
 70
    64
  3
+++++++++++++++..+++++++++++++++
 72
    65
 73
     2
 40
80.0
 49
75.0
 49
-5.0
  0
LTYPE
  2
LONG5
 70
    64
  3
----------  --  ----------  --  
 72
    65
 73
     4
 40
60.0
 49
37.5
 49
-7.5
 49
7.5
 49
-7.5
  0
LTYPE
  2
dashed
 70
   64
  3
-------   -------------   ------
 72
   65
 73
    2
 40
7.5
 49
6
 49
-1.5
  0
LTYPE
  2
dashed_spaced
 70
   64
  3
----        --------        ----
 72
   65
 73
    2
 40
12
 49
6
 49
-6
  0
LTYPE
  2
long_dashed_dotted
 70
   64
  3
------------- --- --------------
 72
   65
 73
    4
 40
15.25
 49
12
 49
-1.5
 49
0.25
 49
-1.5
  0
LTYPE
  2
long_dashed_double-dotted
 70
   64
  3
----------- --- --- ------------
 72
   65
 73
    6
 40
17
 49
12
 49
-1.5
 49
0.25
 49
-1.5
 49
0.25
 49
-1.5
  0
LTYPE
  2
long_dashed_triplicate-dotted
 70
   64
  3
--------- --- --- --- ----------
 72
   65
 73
    8
 40
18.75
 49
12
 49
-1.5
 49
0.25
 49
-1.5
 49
0.25
 49
-1.5
 49
0.25
 49
-1.5
  0
LTYPE
  2
dotted
 70
   64
  3
   -       -       -       -    
 72
   65
 73
    2
 40
1.75
 49
0.25
 49
-1.5
  0
LTYPE
  2
chain
 70
   64
  3
-------------- -- --------------
 72
   65
 73
    4
 40
18.5
 49
12
 49
-1.5
 49
3.5
 49
-1.5
  0
LTYPE
  2
chain_double_dash
 70
   64
  3
------------ -- -- -------------
 72
   65
 73
    6
 40
23.5
 49
12
 49
-1.5
 49
3.5
 49
-1.5
 49
3.5
 49
-1.5
  0
LTYPE
  2
dashed_dotted
 70
   64
  3
-----------     -     ----------
 72
   65
 73
    4
 40
9.25
 49
6
 49
-1.5
 49
0.25
 49
-1.5
  0
LTYPE
  2
double-dashed_dotted
 70
   64
  3
------   -----------   -   -----
 72
   65
 73
    6
 40
16.75
 49
6
 49
-1.5
 49
6
 49
-1.5
 49
0.25
 49
-1.5
  0
LTYPE
  2
dashed_double-dotted
 70
   64
  3
---------    -    -    ---------
 72
   65
 73
    6
 40
11
 49
6
 49
-1.5
 49
0.25
 49
-1.5
 49
0.25
 49
-1.5
  0
LTYPE
  2
double-dashed_double-dotted
 70
   64
  3
-----   ---------   -   -   ----
 72
   65
 73
    8
 40
18.5
 49
6
 49
-1.5
 49
6
 49
-1.5
 49
0.25
 49
-1.5
 49
0.25
 49
-1.5
  0
LTYPE
  2
dashed_triplicate-dotted
 70
   64
  3
-------    -    -    -    ------
 72
   65
 73
    8
 40
12.75
 49
6
 49
-1.5
 49
0.25
 49
-1.5
 49
0.25
 49
-1.5
 49
0.25
 49
-1.5
  0
LTYPE
  2
double-dashed_triplicate-dotted
 70
   64
  3
-----  ---------  -  -  -  -----
 72
   65
 73
   10
 40
20.25
 49
6
 49
-1.5
 49
6
 49
-1.5
 49
0.25
 49
-1.5
 49
0.25
 49
-1.5
 49
0.25
 49
-1.5
  0
LTYPE
  2
undefined
 70
   64
  3
--------------------------------
 72
   65
 73
    0
 40
0
  0
ENDTAB
  0
TABLE
  2
STYLE
  5
3
100
AcDbSymbolTable
 70
     1
  0
STYLE
  5
10
100
AcDbSymbolTableRecord
100
AcDbTextStyleTableRecord
  2
STANDARD
 70
     0
 40
0.0
 41
1.0
 50
0.0
 71
     0
 42
0.2
  3
txt
  4
bigfont.shx
  0
STYLE
  5
26
100
AcDbSymbolTableRecord
100
AcDbTextStyleTableRecord
  2
TATEGAKI
 70
    68
 40
0.0
 41
1.0
 50
0.0
 71
     0
 42
1.0
  3
txt
  4
bigfont.shx
  0
ENDTAB
  0
TABLE
  2
LAYER
 70
    4
  0
LAYER
  2
_0-0_1
 70
   64
 62
    7
  6
CONTINUOUS
  0
LAYER
  2
_0-1_2
 70
   64
 62
    7
  6
CONTINUOUS
  0
LAYER
  2
_0-2_ADD_LINE
 70
   64
 62
    7
  6
CONTINUOUS
  0
LAYER
  2
ADD_LINE
 70
   64
 62
    7
  6
CONTINUOUS
  0
ENDTAB
  0
ENDSEC
  0
SECTION
  2
BLOCKS
  0
ENDSEC
  0
SECTION
  2
ENTITIES
  0
LINE
  8
_0-0_1
  6
CONTINUOUS
 62
    2
 10
1224.1392000000001
 20
1038.7826666666665
 11
1952.8465999999999
 21
1038.7826666666665
  0
LINE
  8
_0-0_1
  6
CONTINUOUS
 62
    2
 10
1224.1392000000001
 20
1038.7826666666665
 11
1224.1392000000001
 21
945.44933333333336
  0
LINE
  8
_0-0_1
  6
CONTINUOUS
 62
    2
 10
1224.1392000000001
 20
945.44933333333336
 11
1230.8058666666668
 21
945.44933333333336
  0
LINE
  8
_0-0_1
  6
CONTINUOUS
 62
    2
 10
1230.8058666666668
 20
945.44933333333336
 11
1230.8058666666668
 21
938.78266666666661
  0
LINE
  8
_0-0_1
  6
DASHED1
 62
    2
 10
1230.8058666666668
 20
1038.7826666666665
 11
1230.8058666666668
 21
945.44933333333336
  0
LINE
  8
_0-0_1
  6
CONTINUOUS
 62
    2
 10
1224.1392000000001
 20
1038.7826666666665
 11
1224.1392000000001
 21
1065.4493333333332
  0
LINE
  8
_0-0_1
  6
CONTINUOUS
 62
    2
 10
1203.1722
 20
1207.0496000000001
 11
1203.1722
 21
1172.0496000000001
  0
CIRCLE
  8
_0-0_1
  6
CONTINUOUS
 62
    2
 10
1203.1722
 20
1205.3829333333333
 40
1.1333333333333331
  0
LINE
  8
_0-0_1
  6
CONTINUOUS
 62
    2
 10
1203.1722
 20
1205.3829333333333
 11
1301.2303999999999
 21
1205.3829333333333
  0
CIRCLE
  8
_0-0_1
  6
CONTINUOUS
 62
    2
 10
1301.2303999999999
 20
1205.3829333333333
 40
1.1333333333333331
  0
LINE
  8
_0-0_1
  6
CONTINUOUS
 62
    2
 10
1301.2303999999999
 20
1207.0496000000001
 11
1301.2303999999999
 21
1172.0496000000001
  0
LINE
  8
_0-0_1
  6
CONTINUOUS
 62
    2
 10
1230.8058666666668
 20
938.78266666666661
 11
1952.8465999999999
 21
938.78266666666661
  0
LINE
  8
_0-0_1
  6
DASHED1
 62
    2
 10
1230.8058666666668
 20
945.44933333333336
 11
1952.8465999999999
 21
945.44933333333336
  0
LINE
  8
_0-0_1
  6
CONTINUOUS
 62
    2
 10
1224.1392000000001
 20
1065.4493333333332
 11
1952.8465999999999
 21
1065.4493333333332
  0
LINE
  8
_0-0_1
  6
DASHED3
 62
    2
 10
1224.1392000000001
 20
1066.4493333333332
 11
1952.8465999999999
 21
1066.4493333333332
  0
LINE
  8
_0-0_1
  6
CONTINUOUS
 62
    2
 10
1289.1930666666667
 20
1077.4493333333335
 11
1952.8465999999999
 21
1077.4493333333335
  0
LINE
  8
_0-0_1
  6
CONTINUOUS
 62
    2
 10
1289.1930666666667
 20
1067.4493333333335
 11
1952.8465999999999
 21
1067.4493333333335
  0
LINE
  8
_0-0_1
  6
CONTINUOUS
 62
    1
 10
1947.393133333333
 20
1038.7826666666665
 11
1952.8465999999999
 21
1044.2360666666668
  0
LINE
  8
_0-0_1
  6
CONTINUOUS
 62
    1
 10
1940.3220666666664
 20
1038.7826666666665
 11
1952.8465999999999
 21
1051.3071333333332
  0
LINE
  8
_0-0_1
  6
CONTINUOUS
 62
    1
 10
1933.251
 20
1038.7826666666665
 11
1952.8465999999999
 21
1058.3782666666666
  0
LINE
  8
_0-0_1
  6
CONTINUOUS
 62
    1
 10
1926.1799333333329
 20
1038.7826666666665
 11
1952.8465999999999
 21
1065.4493333333332
  0
LINE
  8
_0-0_1
  6
CONTINUOUS
 62
    1
 10
1919.1088666666667
 20
1038.7826666666665
 11
1945.7755333333332
 21
1065.4493333333332
  0
LINE
  8
_0-0_1
  6
CONTINUOUS
 62
    1
 10
1912.0378000000001
 20
1038.7826666666665
 11
1938.7044666666666
 21
1065.4493333333332
  0
LINE
  8
_0-0_1
  6
CONTINUOUS
 62
    1
 10
1904.9667333333332
 20
1038.7826666666665
 11
1931.6334000000002
 21
1065.4493333333332
  0
LINE
  8
_0-0_1
  6
CONTINUOUS
 62
    1
 10
1897.8956666666663
 20
1038.7826666666665
 11
1924.5623333333333
 21
1065.4493333333332
  0
LINE
  8
_0-0_1
  6
CONTINUOUS
 62
    1
 10
1890.8245999999997
 20
1038.7826666666665
 11
1917.4912666666664
 21
1065.4493333333332
  0
LINE
  8
_0-0_1
  6
CONTINUOUS
 62
    1
 10
1883.7535333333333
 20
1038.7826666666665
 11
1910.4201999999998
 21
1065.4493333333332
  0
LINE
  8
_0-0_1
  6
CONTINUOUS
 62
    1
 10
1876.6824666666666
 20
1038.7826666666665
 11
1903.3491333333336
 21
1065.4493333333332
  0
LINE
  8
_0-0_1
  6
CONTINUOUS
 62
    1
 10
1869.6114
 20
1038.7826666666665
 11
1896.2780666666667
 21
1065.4493333333332
  0
LINE
  8
_0-0_1
  6
CONTINUOUS
 62
    1
 10
1862.5403333333334
 20
1038.7826666666665
 11
1889.2070000000001
 21
1065.4493333333332
  0
LINE
  8
_0-0_1
  6
CONTINUOUS
 62
    1
 10
1855.4692666666665
 20
1038.7826666666665
 11
1882.1359333333335
 21
1065.4493333333332
  0
LINE
  8
_0-0_1
  6
CONTINUOUS
 62
    1
 10
1848.3981999999996
 20
1038.7826666666665
 11
1875.0648666666666
 21
1065.4493333333332
  0
LINE
  8
_0-0_1
  6
CONTINUOUS
 62
    1
 10
1841.327133333333
 20
1038.7826666666665
 11
1867.9937999999997
 21
1065.4493333333332
  0
LINE
  8
_0-0_1
  6
CONTINUOUS
 62
    1
 10
1834.2560666666668
 20
1038.7826666666665
 11
1860.9227333333333
 21
1065.4493333333332
  0
LINE
  8
_0-0_1
  6
CONTINUOUS
 62
    1
 10
1827.1849999999999
 20
1038.7826666666665
 11
1853.8516666666669
 21
1065.4493333333332
  0
LINE
  8
_0-0_1
  6
CONTINUOUS
 62
    1
 10
1820.1139333333333
 20
1038.7826666666665
 11
1846.7806
 21
1065.4493333333332
  0
LINE
  8
_0-0_1
  6
CONTINUOUS
 62
    1
 10
1813.0428666666667
 20
1038.7826666666665
 11
1839.7095333333334
 21
1065.4493333333332
  0
LINE
  8
_0-0_1
  6
CONTINUOUS
 62
    1
 10
1805.9717999999998
 20
1038.7826666666665
 11
1832.6384666666668
 21
1065.4493333333332
  0
LINE
  8
_0-0_1
  6
CONTINUOUS
 62
    1
 10
1798.9007333333334
 20
1038.7826666666665
 11
1825.5673999999999
 21
1065.4493333333332
  0
LINE
  8
_0-0_1
  6
CONTINUOUS
 62
    1
 10
1791.8296666666665
 20
1038.7826666666665
 11
1818.496333333333
 21
1065.4493333333332
  0
LINE
  8
_0-0_1
  6
CONTINUOUS
 62
    1
 10
1784.7586000000001
 20
1038.7826666666665
 11
1811.4252666666666
 21
1065.4493333333332
  0
LINE
  8
_0-0_1
  6
CONTINUOUS
 62
    1
 10
1777.6875333333332
 20
1038.7826666666665
 11
1804.3542000000002
 21
1065.4493333333332
  0
LINE
  8
_0-0_1
  6
CONTINUOUS
 62
    1
 10
1770.6164666666666
 20
1038.7826666666665
 11
1797.2831333333334
 21
1065.4493333333332
  0
LINE
  8
_0-0_1
  6
CONTINUOUS
 62
    1
 10
1763.5454
 20
1038.7826666666665
 11
1790.2120666666667
 21
1065.4493333333332
  0
LINE
  8
_0-0_1
  6
CONTINUOUS
 62
    1
 10
1756.4743333333331
 20
1038.7826666666665
 11
1783.1410000000001
 21
1065.4493333333332
  0
LINE
  8
_0-0_1
  6
CONTINUOUS
 62
    1
 10
1749.4032666666667
 20
1038.7826666666665
 11
1776.0699333333332
 21
1065.4493333333332
  0
LINE
  8
_0-0_1
  6
CONTINUOUS
 62
    1
 10
1742.3322000000003
 20
1038.7826666666665
 11
1768.9988666666668
 21
1065.4493333333332
  0
LINE
  8
_0-0_1
  6
CONTINUOUS
 62
    1
 10
1735.2611333333334
 20
1038.7826666666665
 11
1761.9277999999999
 21
1065.4493333333332
  0
LINE
  8
_0-0_1
  6
CONTINUOUS
 62
    1
 10
1728.1900666666666
 20
1038.7826666666665
 11
1754.8567333333335
 21
1065.4493333333332
  0
LINE
  8
_0-0_1
  6
CONTINUOUS
 62
    1
 10
1721.1189999999999
 20
1038.7826666666665
 11
1747.7856666666667
 21
1065.4493333333332
  0
LINE
  8
_0-0_1
  6
CONTINUOUS
 62
    1
 10
1714.0479333333333
 20
1038.7826666666665
 11
1740.7146
 21
1065.4493333333332
  0
LINE
  8
_0-0_1
  6
CONTINUOUS
 62
    1
 10
1706.9768666666664
 20
1038.7826666666665
 11
1733.6435333333334
 21
1065.4493333333332
  0
LINE
  8
_0-0_1
  6
CONTINUOUS
 62
    1
 10
1699.9058000000002
 20
1038.7826666666665
 11
1726.5724666666667
 21
1065.4493333333332
  0
LINE
  8
_0-0_1
  6
CONTINUOUS
 62
    1
 10
1692.8347333333336
 20
1038.7826666666665
 11
1719.5014000000001
 21
1065.4493333333332
  0
LINE
  8
_0-0_1
  6
CONTINUOUS
 62
    1
 10
1685.7636666666667
 20
1038.7826666666665
 11
1712.4303333333332
 21
1065.4493333333332
  0
LINE
  8
_0-0_1
  6
CONTINUOUS
 62
    1
 10
1678.6925999999999
 20
1038.7826666666665
 11
1705.3592666666668
 21
1065.4493333333332
  0
LINE
  8
_0-0_1
  6
CONTINUOUS
 62
    1
 10
1671.6215333333332
 20
1038.7826666666665
 11
1698.2882
 21
1065.4493333333332
  0
LINE
  8
_0-0_1
  6
CONTINUOUS
 62
    1
 10
1664.5504666666666
 20
1038.7826666666665
 11
1691.2171333333333
 21
1065.4493333333332
  0
LINE
  8
_0-0_1
  6
CONTINUOUS
 62
    1
 10
1657.4793333333332
 20
1038.7826666666665
 11
1684.1460000000002
 21
1065.4493333333332
  0
LINE
  8
_0-0_1
  6
CONTINUOUS
 62
    1
 10
1650.4082666666668
 20
1038.7826666666665
 11
1677.0749333333333
 21
1065.4493333333332
  0
LINE
  8
_0-0_1
  6
CONTINUOUS
 62
    1
 10
1643.3371999999999
 20
1038.7826666666665
 11
1670.0038666666665
 21
1065.4493333333332
  0
LINE
  8
_0-0_1
  6
CONTINUOUS
 62
    1
 10
1636.2661333333333
 20
1038.7826666666665
 11
1662.9327999999998
 21
1065.4493333333332
  0
LINE
  8
_0-0_1
  6
CONTINUOUS
 62
    1
 10
1629.1950666666667
 20
1038.7826666666665
 11
1655.8617333333336
 21
1065.4493333333332
  0
LINE
  8
_0-0_1
  6
CONTINUOUS
 62
    1
 10
1622.124
 20
1038.7826666666665
 11
1648.7906666666668
 21
1065.4493333333332
  0
LINE
  8
_0-0_1
  6
CONTINUOUS
 62
    1
 10
1615.0529333333334
 20
1038.7826666666665
 11
1641.7196000000001
 21
1065.4493333333332
  0
LINE
  8
_0-0_1
  6
CONTINUOUS
 62
    1
 10
1607.9818666666665
 20
1038.7826666666665
 11
1634.6485333333335
 21
1065.4493333333332
  0
LINE
  8
_0-0_1
  6
CONTINUOUS
 62
    1
 10
1600.9108000000001
 20
1038.7826666666665
 11
1627.5774666666666
 21
1065.4493333333332
  0
LINE
  8
_0-0_1
  6
CONTINUOUS
 62
    1
 10
1593.8397333333332
 20
1038.7826666666665
 11
1620.5063999999998
 21
1065.4493333333332
  0
LINE
  8
_0-0_1
  6
CONTINUOUS
 62
    1
 10
1586.7686666666666
 20
1038.7826666666665
 11
1613.4353333333331
 21
1065.4493333333332
  0
LINE
  8
_0-0_1
  6
CONTINUOUS
 62
    1
 10
1579.6976
 20
1038.7826666666665
 11
1606.3642666666669
 21
1065.4493333333332
  0
LINE
  8
_0-0_1
  6
CONTINUOUS
 62
    1
 10
1572.6265333333333
 20
1038.7826666666665
 11
1599.2932000000001
 21
1065.4493333333332
  0
LINE
  8
_0-0_1
  6
CONTINUOUS
 62
    1
 10
1565.5554666666667
 20
1038.7826666666665
 11
1592.2221333333334
 21
1065.4493333333332
  0
LINE
  8
_0-0_1
  6
CONTINUOUS
 62
    1
 10
1558.4844000000001
 20
1038.7826666666665
 11
1585.1510666666668
 21
1065.4493333333332
  0
LINE
  8
_0-0_1
  6
CONTINUOUS
 62
    1
 10
1551.4133333333334
 20
1038.7826666666665
 11
1578.0799999999999
 21
1065.4493333333332
  0
LINE
  8
_0-0_1
  6
CONTINUOUS
 62
    1
 10
1544.3422666666665
 20
1038.7826666666665
 11
1571.0089333333331
 21
1065.4493333333332
  0
LINE
  8
_0-0_1
  6
CONTINUOUS
 62
    1
 10
1537.2712000000001
 20
1038.7826666666665
 11
1563.9378666666667
 21
1065.4493333333332
  0
LINE
  8
_0-0_1
  6
CONTINUOUS
 62
    1
 10
1530.2001333333333
 20
1038.7826666666665
 11
1556.8668
 21
1065.4493333333332
  0
LINE
  8
_0-0_1
  6
CONTINUOUS
 62
    1
 10
1523.1290666666666
 20
1038.7826666666665
 11
1549.7957333333334
 21
1065.4493333333332
  0
LINE
  8
_0-0_1
  6
CONTINUOUS
 62
    1
 10
1516.058
 20
1038.7826666666665
 11
1542.7246666666667
 21
1065.4493333333332
  0
LINE
  8
_0-0_1
  6
CONTINUOUS
 62
    1
 10
1508.9869333333334
 20
1038.7826666666665
 11
1535.6536000000001
 21
1065.4493333333332
  0
LINE
  8
_0-0_1
  6
CONTINUOUS
 62
    1
 10
1501.9158666666667
 20
1038.7826666666665
 11
1528.5825333333332
 21
1065.4493333333332
  0
LINE
  8
_0-0_1
  6
CONTINUOUS
 62
    1
 10
1494.8447999999999
 20
1038.7826666666665
 11
1521.5114666666664
 21
1065.4493333333332
  0
LINE
  8
_0-0_1
  6
CONTINUOUS
 62
    1
 10
1487.7737333333334
 20
1038.7826666666665
 11
1514.4404
 21
1065.4493333333332
  0
LINE
  8
_0-0_1
  6
CONTINUOUS
 62
    1
 10
1480.7026666666666
 20
1038.7826666666665
 11
1507.3693333333333
 21
1065.4493333333332
  0
LINE
  8
_0-0_1
  6
CONTINUOUS
 62
    1
 10
1473.6315999999999
 20
1038.7826666666665
 11
1500.2982666666667
 21
1065.4493333333332
  0
LINE
  8
_0-0_1
  6
CONTINUOUS
 62
    1
 10
1466.5605333333333
 20
1038.7826666666665
 11
1493.2272
 21
1065.4493333333332
  0
LINE
  8
_0-0_1
  6
CONTINUOUS
 62
    1
 10
1459.4894666666667
 20
1038.7826666666665
 11
1486.1561333333334
 21
1065.4493333333332
  0
LINE
  8
_0-0_1
  6
CONTINUOUS
 62
    1
 10
1452.4184
 20
1038.7826666666665
 11
1479.0850666666665
 21
1065.4493333333332
  0
LINE
  8
_0-0_1
  6
CONTINUOUS
 62
    1
 10
1445.3473333333332
 20
1038.7826666666665
 11
1472.0140000000001
 21
1065.4493333333332
  0
LINE
  8
_0-0_1
  6
CONTINUOUS
 62
    1
 10
1438.2762666666665
 20
1038.7826666666665
 11
1464.9429333333333
 21
1065.4493333333332
  0
LINE
  8
_0-0_1
  6
CONTINUOUS
 62
    1
 10
1431.2051999999999
 20
1038.7826666666665
 11
1457.8718666666666
 21
1065.4493333333332
  0
LINE
  8
_0-0_1
  6
CONTINUOUS
 62
    1
 10
1424.1341333333332
 20
1038.7826666666665
 11
1450.8008
 21
1065.4493333333332
  0
LINE
  8
_0-0_1
  6
CONTINUOUS
 62
    1
 10
1417.0630666666666
 20
1038.7826666666665
 11
1443.7297333333333
 21
1065.4493333333332
  0
LINE
  8
_0-0_1
  6
CONTINUOUS
 62
    1
 10
1409.992
 20
1038.7826666666665
 11
1436.6586666666667
 21
1065.4493333333332
  0
LINE
  8
_0-0_1
  6
CONTINUOUS
 62
    1
 10
1402.9209333333333
 20
1038.7826666666665
 11
1429.5876000000001
 21
1065.4493333333332
  0
LINE
  8
_0-0_1
  6
CONTINUOUS
 62
    1
 10
1395.8498666666665
 20
1038.7826666666665
 11
1422.5165333333334
 21
1065.4493333333332
  0
LINE
  8
_0-0_1
  6
CONTINUOUS
 62
    1
 10
1388.7788
 20
1038.7826666666665
 11
1415.4454666666666
 21
1065.4493333333332
  0
LINE
  8
_0-0_1
  6
CONTINUOUS
 62
    1
 10
1381.7077333333332
 20
1038.7826666666665
 11
1408.3743999999999
 21
1065.4493333333332
  0
LINE
  8
_0-0_1
  6
CONTINUOUS
 62
    1
 10
1374.6366666666665
 20
1038.7826666666665
 11
1401.3033333333333
 21
1065.4493333333332
  0
LINE
  8
_0-0_1
  6
CONTINUOUS
 62
    1
 10
1367.5656000000001
 20
1038.7826666666665
 11
1394.2322666666666
 21
1065.4493333333332
  0
LINE
  8
_0-0_1
  6
CONTINUOUS
 62
    1
 10
1360.4945333333333
 20
1038.7826666666665
 11
1387.1612
 21
1065.4493333333332
  0
LINE
  8
_0-0_1
  6
CONTINUOUS
 62
    1
 10
1353.4234666666666
 20
1038.7826666666665
 11
1380.0901333333334
 21
1065.4493333333332
  0
LINE
  8
_0-0_1
  6
CONTINUOUS
 62
    1
 10
1346.3524000000002
 20
1038.7826666666665
 11
1373.0190666666667
 21
1065.4493333333332
  0
LINE
  8
_0-0_1
  6
CONTINUOUS
 62
    1
 10
1339.2813333333334
 20
1038.7826666666665
 11
1365.9479999999999
 21
1065.4493333333332
  0
LINE
  8
_0-0_1
  6
CONTINUOUS
 62
    1
 10
1332.2102666666665
 20
1038.7826666666665
 11
1358.8769333333335
 21
1065.4493333333332
  0
LINE
  8
_0-0_1
  6
CONTINUOUS
 62
    1
 10
1325.1392000000001
 20
1038.7826666666665
 11
1351.8058666666666
 21
1065.4493333333332
  0
LINE
  8
_0-0_1
  6
CONTINUOUS
 62
    1
 10
1318.0681333333334
 20
1038.7826666666665
 11
1344.7348
 21
1065.4493333333332
  0
LINE
  8
_0-0_1
  6
CONTINUOUS
 62
    1
 10
1310.9970666666666
 20
1038.7826666666665
 11
1337.6637333333333
 21
1065.4493333333332
  0
LINE
  8
_0-0_1
  6
CONTINUOUS
 62
    1
 10
1303.9259999999999
 20
1038.7826666666665
 11
1330.5926666666664
 21
1065.4493333333332
  0
LINE
  8
_0-0_1
  6
CONTINUOUS
 62
    1
 10
1296.8549333333335
 20
1038.7826666666665
 11
1323.5216
 21
1065.4493333333332
  0
LINE
  8
_0-0_1
  6
CONTINUOUS
 62
    1
 10
1289.7838666666667
 20
1038.7826666666665
 11
1316.4505333333332
 21
1065.4493333333332
  0
LINE
  8
_0-0_1
  6
CONTINUOUS
 62
    1
 10
1282.7127999999998
 20
1038.7826666666665
 11
1309.3794666666668
 21
1065.4493333333332
  0
LINE
  8
_0-0_1
  6
CONTINUOUS
 62
    1
 10
1275.6417333333334
 20
1038.7826666666665
 11
1302.3083999999999
 21
1065.4493333333332
  0
LINE
  8
_0-0_1
  6
CONTINUOUS
 62
    1
 10
1268.5706666666667
 20
1038.7826666666665
 11
1295.2373333333333
 21
1065.4493333333332
  0
LINE
  8
_0-0_1
  6
CONTINUOUS
 62
    1
 10
1261.4995999999999
 20
1038.7826666666665
 11
1288.1662666666666
 21
1065.4493333333332
  0
LINE
  8
_0-0_1
  6
CONTINUOUS
 62
    1
 10
1254.4285333333335
 20
1038.7826666666665
 11
1281.0952
 21
1065.4493333333332
  0
LINE
  8
_0-0_1
  6
CONTINUOUS
 62
    1
 10
1247.3574666666668
 20
1038.7826666666665
 11
1274.0241333333333
 21
1065.4493333333332
  0
LINE
  8
_0-0_1
  6
CONTINUOUS
 62
    1
 10
1240.2863333333335
 20
1038.7826666666665
 11
1266.953
 21
1065.4493333333332
  0
LINE
  8
_0-0_1
  6
CONTINUOUS
 62
    1
 10
1233.2152666666666
 20
1038.7826666666665
 11
1259.8819333333333
 21
1065.4493333333332
  0
LINE
  8
_0-0_1
  6
CONTINUOUS
 62
    1
 10
1226.1442000000002
 20
1038.7826666666665
 11
1252.8108666666667
 21
1065.4493333333332
  0
LINE
  8
_0-0_1
  6
CONTINUOUS
 62
    1
 10
1224.1392000000001
 20
1043.8486666666668
 11
1245.7398000000001
 21
1065.4493333333332
  0
LINE
  8
_0-0_1
  6
CONTINUOUS
 62
    1
 10
1224.1392000000001
 20
1050.9197333333332
 11
1238.6687333333334
 21
1065.4493333333332
  0
LINE
  8
_0-0_1
  6
CONTINUOUS
 62
    1
 10
1224.1392000000001
 20
1057.9908
 11
1231.5976666666668
 21
1065.4493333333332
  0
LINE
  8
_0-0_1
  6
CONTINUOUS
 62
    1
 10
1224.1392000000001
 20
1065.0618666666667
 11
1224.5266000000001
 21
1065.4493333333332
  0
LINE
  8
_0-0_1
  6
CONTINUOUS
 62
    1
 10
1224.1392000000001
 20
1044.6235333333334
 11
1229.9800666666667
 21
1038.7826666666665
  0
LINE
  8
_0-0_1
  6
CONTINUOUS
 62
    1
 10
1224.1392000000001
 20
1051.6946
 11
1237.0511333333334
 21
1038.7826666666665
  0
LINE
  8
_0-0_1
  6
CONTINUOUS
 62
    1
 10
1224.1392000000001
 20
1058.7656666666667
 11
1244.1222
 21
1038.7826666666665
  0
LINE
  8
_0-0_1
  6
CONTINUOUS
 62
    1
 10
1224.5266000000001
 20
1065.4493333333332
 11
1251.1932666666667
 21
1038.7826666666665
  0
LINE
  8
_0-0_1
  6
CONTINUOUS
 62
    1
 10
1231.5976666666668
 20
1065.4493333333332
 11
1258.2643333333335
 21
1038.7826666666665
  0
LINE
  8
_0-0_1
  6
CONTINUOUS
 62
    1
 10
1238.6687333333334
 20
1065.4493333333332
 11
1265.3353999999999
 21
1038.7826666666665
  0
LINE
  8
_0-0_1
  6
CONTINUOUS
 62
    1
 10
1245.7398000000001
 20
1065.4493333333332
 11
1272.4064666666666
 21
1038.7826666666665
  0
LINE
  8
_0-0_1
  6
CONTINUOUS
 62
    1
 10
1252.8108666666667
 20
1065.4493333333332
 11
1279.4775333333334
 21
1038.7826666666665
  0
LINE
  8
_0-0_1
  6
CONTINUOUS
 62
    1
 10
1259.8819333333333
 20
1065.4493333333332
 11
1286.5485999999999
 21
1038.7826666666665
  0
LINE
  8
_0-0_1
  6
CONTINUOUS
 62
    1
 10
1266.953
 20
1065.4493333333332
 11
1293.6196666666665
 21
1038.7826666666665
  0
LINE
  8
_0-0_1
  6
CONTINUOUS
 62
    1
 10
1274.0241333333333
 20
1065.4493333333332
 11
1300.6907999999999
 21
1038.7826666666665
  0
LINE
  8
_0-0_1
  6
CONTINUOUS
 62
    1
 10
1281.0952
 20
1065.4493333333332
 11
1307.7618666666667
 21
1038.7826666666665
  0
LINE
  8
_0-0_1
  6
CONTINUOUS
 62
    1
 10
1288.1662666666666
 20
1065.4493333333332
 11
1314.8329333333334
 21
1038.7826666666665
  0
LINE
  8
_0-0_1
  6
CONTINUOUS
 62
    1
 10
1295.2373333333333
 20
1065.4493333333332
 11
1321.904
 21
1038.7826666666665
  0
LINE
  8
_0-0_1
  6
CONTINUOUS
 62
    1
 10
1302.3083999999999
 20
1065.4493333333332
 11
1328.9750666666669
 21
1038.7826666666665
  0
LINE
  8
_0-0_1
  6
CONTINUOUS
 62
    1
 10
1309.3794666666668
 20
1065.4493333333332
 11
1336.0461333333333
 21
1038.7826666666665
  0
LINE
  8
_0-0_1
  6
CONTINUOUS
 62
    1
 10
1316.4505333333332
 20
1065.4493333333332
 11
1343.1172000000001
 21
1038.7826666666665
  0
LINE
  8
_0-0_1
  6
CONTINUOUS
 62
    1
 10
1323.5216
 20
1065.4493333333332
 11
1350.1882666666666
 21
1038.7826666666665
  0
LINE
  8
_0-0_1
  6
CONTINUOUS
 62
    1
 10
1330.5926666666664
 20
1065.4493333333332
 11
1357.2593333333334
 21
1038.7826666666665
  0
LINE
  8
_0-0_1
  6
CONTINUOUS
 62
    1
 10
1337.6637333333333
 20
1065.4493333333332
 11
1364.3304000000001
 21
1038.7826666666665
  0
LINE
  8
_0-0_1
  6
CONTINUOUS
 62
    1
 10
1344.7348
 20
1065.4493333333332
 11
1371.4014666666667
 21
1038.7826666666665
  0
LINE
  8
_0-0_1
  6
CONTINUOUS
 62
    1
 10
1351.8058666666666
 20
1065.4493333333332
 11
1378.4725333333336
 21
1038.7826666666665
  0
LINE
  8
_0-0_1
  6
CONTINUOUS
 62
    1
 10
1358.8769333333335
 20
1065.4493333333332
 11
1385.5436
 21
1038.7826666666665
  0
LINE
  8
_0-0_1
  6
CONTINUOUS
 62
    1
 10
1365.9479999999999
 20
1065.4493333333332
 11
1392.6146666666668
 21
1038.7826666666665
  0
LINE
  8
_0-0_1
  6
CONTINUOUS
 62
    1
 10
1373.0190666666667
 20
1065.4493333333332
 11
1399.6857333333335
 21
1038.7826666666665
  0
LINE
  8
_0-0_1
  6
CONTINUOUS
 62
    1
 10
1380.0901333333334
 20
1065.4493333333332
 11
1406.7568000000001
 21
1038.7826666666665
  0
LINE
  8
_0-0_1
  6
CONTINUOUS
 62
    1
 10
1387.1612
 20
1065.4493333333332
 11
1413.8278666666668
 21
1038.7826666666665
  0
LINE
  8
_0-0_1
  6
CONTINUOUS
 62
    1
 10
1394.2322666666666
 20
1065.4493333333332
 11
1420.8989333333334
 21
1038.7826666666665
  0
LINE
  8
_0-0_1
  6
CONTINUOUS
 62
    1
 10
1401.3033333333333
 20
1065.4493333333332
 11
1427.97
 21
1038.7826666666665
  0
LINE
  8
_0-0_1
  6
CONTINUOUS
 62
    1
 10
1408.3743999999999
 20
1065.4493333333332
 11
1435.0410666666667
 21
1038.7826666666665
  0
LINE
  8
_0-0_1
  6
CONTINUOUS
 62
    1
 10
1415.4454666666666
 20
1065.4493333333332
 11
1442.1121333333335
 21
1038.7826666666665
  0
LINE
  8
_0-0_1
  6
CONTINUOUS
 62
    1
 10
1422.5165333333334
 20
1065.4493333333332
 11
1449.1832000000002
 21
1038.7826666666665
  0
LINE
  8
_0-0_1
  6
CONTINUOUS
 62
    1
 10
1429.5876000000001
 20
1065.4493333333332
 11
1456.2542666666668
 21
1038.7826666666665
  0
LINE
  8
_0-0_1
  6
CONTINUOUS
 62
    1
 10
1436.6586666666667
 20
1065.4493333333332
 11
1463.3253333333332
 21
1038.7826666666665
  0
LINE
  8
_0-0_1
  6
CONTINUOUS
 62
    1
 10
1443.7297333333333
 20
1065.4493333333332
 11
1470.3963999999999
 21
1038.7826666666665
  0
LINE
  8
_0-0_1
  6
CONTINUOUS
 62
    1
 10
1450.8008
 20
1065.4493333333332
 11
1477.4674666666667
 21
1038.7826666666665
  0
LINE
  8
_0-0_1
  6
CONTINUOUS
 62
    1
 10
1457.8718666666666
 20
1065.4493333333332
 11
1484.5385333333334
 21
1038.7826666666665
  0
LINE
  8
_0-0_1
  6
CONTINUOUS
 62
    1
 10
1464.9429333333333
 20
1065.4493333333332
 11
1491.6096000000002
 21
1038.7826666666665
  0
LINE
  8
_0-0_1
  6
CONTINUOUS
 62
    1
 10
1472.0140000000001
 20
1065.4493333333332
 11
1498.6806666666669
 21
1038.7826666666665
  0
LINE
  8
_0-0_1
  6
CONTINUOUS
 62
    1
 10
1479.0850666666665
 20
1065.4493333333332
 11
1505.751733333333
 21
1038.7826666666665
  0
LINE
  8
_0-0_1
  6
CONTINUOUS
 62
    1
 10
1486.1561333333334
 20
1065.4493333333332
 11
1512.8227999999999
 21
1038.7826666666665
  0
LINE
  8
_0-0_1
  6
CONTINUOUS
 62
    1
 10
1493.2272
 20
1065.4493333333332
 11
1519.8938666666666
 21
1038.7826666666665
  0
LINE
  8
_0-0_1
  6
CONTINUOUS
 62
    1
 10
1500.2982666666667
 20
1065.4493333333332
 11
1526.9649333333334
 21
1038.7826666666665
  0
LINE
  8
_0-0_1
  6
CONTINUOUS
 62
    1
 10
1507.3693333333333
 20
1065.4493333333332
 11
1534.0360000000001
 21
1038.7826666666665
  0
LINE
  8
_0-0_1
  6
CONTINUOUS
 62
    1
 10
1514.4404
 20
1065.4493333333332
 11
1541.1070666666669
 21
1038.7826666666665
  0
LINE
  8
_0-0_1
  6
CONTINUOUS
 62
    1
 10
1521.5114666666664
 20
1065.4493333333332
 11
1548.1781333333331
 21
1038.7826666666665
  0
LINE
  8
_0-0_1
  6
CONTINUOUS
 62
    1
 10
1528.5825333333332
 20
1065.4493333333332
 11
1555.2491999999997
 21
1038.7826666666665
  0
LINE
  8
_0-0_1
  6
CONTINUOUS
 62
    1
 10
1535.6536000000001
 20
1065.4493333333332
 11
1562.3202666666666
 21
1038.7826666666665
  0
LINE
  8
_0-0_1
  6
CONTINUOUS
 62
    1
 10
1542.7246666666667
 20
1065.4493333333332
 11
1569.3913333333333
 21
1038.7826666666665
  0
LINE
  8
_0-0_1
  6
CONTINUOUS
 62
    1
 10
1549.7957333333334
 20
1065.4493333333332
 11
1576.4624000000001
 21
1038.7826666666665
  0
LINE
  8
_0-0_1
  6
CONTINUOUS
 62
    1
 10
1556.8668
 20
1065.4493333333332
 11
1583.5334666666668
 21
1038.7826666666665
  0
LINE
  8
_0-0_1
  6
CONTINUOUS
 62
    1
 10
1563.9378666666667
 20
1065.4493333333332
 11
1590.6045333333336
 21
1038.7826666666665
  0
LINE
  8
_0-0_1
  6
CONTINUOUS
 62
    1
 10
1571.0089333333331
 20
1065.4493333333332
 11
1597.6756
 21
1038.7826666666665
  0
LINE
  8
_0-0_1
  6
CONTINUOUS
 62
    1
 10
1578.0799999999999
 20
1065.4493333333332
 11
1604.7466666666664
 21
1038.7826666666665
  0
LINE
  8
_0-0_1
  6
CONTINUOUS
 62
    1
 10
1585.1510666666668
 20
1065.4493333333332
 11
1611.8177333333333
 21
1038.7826666666665
  0
LINE
  8
_0-0_1
  6
CONTINUOUS
 62
    1
 10
1592.2221333333334
 20
1065.4493333333332
 11
1618.8887999999999
 21
1038.7826666666665
  0
LINE
  8
_0-0_1
  6
CONTINUOUS
 62
    1
 10
1599.2932000000001
 20
1065.4493333333332
 11
1625.9598666666668
 21
1038.7826666666665
  0
LINE
  8
_0-0_1
  6
CONTINUOUS
 62
    1
 10
1606.3642666666669
 20
1065.4493333333332
 11
1633.0309333333335
 21
1038.7826666666665
  0
LINE
  8
_0-0_1
  6
CONTINUOUS
 62
    1
 10
1613.4353333333331
 20
1065.4493333333332
 11
1640.1019999999999
 21
1038.7826666666665
  0
LINE
  8
_0-0_1
  6
CONTINUOUS
 62
    1
 10
1620.5063999999998
 20
1065.4493333333332
 11
1647.1730666666667
 21
1038.7826666666665
  0
LINE
  8
_0-0_1
  6
CONTINUOUS
 62
    1
 10
1627.5774666666666
 20
1065.4493333333332
 11
1654.2441333333331
 21
1038.7826666666665
  0
LINE
  8
_0-0_1
  6
CONTINUOUS
 62
    1
 10
1634.6485333333335
 20
1065.4493333333332
 11
1661.3152
 21
1038.7826666666665
  0
LINE
  8
_0-0_1
  6
CONTINUOUS
 62
    1
 10
1641.7196000000001
 20
1065.4493333333332
 11
1668.3862666666666
 21
1038.7826666666665
  0
LINE
  8
_0-0_1
  6
CONTINUOUS
 62
    1
 10
1648.7906666666668
 20
1065.4493333333332
 11
1675.4573333333335
 21
1038.7826666666665
  0
LINE
  8
_0-0_1
  6
CONTINUOUS
 62
    1
 10
1655.8617333333336
 20
1065.4493333333332
 11
1682.5284000000001
 21
1038.7826666666665
  0
LINE
  8
_0-0_1
  6
CONTINUOUS
 62
    1
 10
1662.9327999999998
 20
1065.4493333333332
 11
1689.5994666666666
 21
1038.7826666666665
  0
LINE
  8
_0-0_1
  6
CONTINUOUS
 62
    1
 10
1670.0038666666665
 20
1065.4493333333332
 11
1696.6705333333334
 21
1038.7826666666665
  0
LINE
  8
_0-0_1
  6
CONTINUOUS
 62
    1
 10
1677.0749333333333
 20
1065.4493333333332
 11
1703.7415999999998
 21
1038.7826666666665
  0
LINE
  8
_0-0_1
  6
CONTINUOUS
 62
    1
 10
1684.1460000000002
 20
1065.4493333333332
 11
1710.8126666666667
 21
1038.7826666666665
  0
LINE
  8
_0-0_1
  6
CONTINUOUS
 62
    1
 10
1691.2171333333333
 20
1065.4493333333332
 11
1717.8837999999998
 21
1038.7826666666665
  0
LINE
  8
_0-0_1
  6
CONTINUOUS
 62
    1
 10
1698.2882
 20
1065.4493333333332
 11
1724.9548666666667
 21
1038.7826666666665
  0
LINE
  8
_0-0_1
  6
CONTINUOUS
 62
    1
 10
1705.3592666666668
 20
1065.4493333333332
 11
1732.0259333333333
 21
1038.7826666666665
  0
LINE
  8
_0-0_1
  6
CONTINUOUS
 62
    1
 10
1712.4303333333332
 20
1065.4493333333332
 11
1739.0970000000002
 21
1038.7826666666665
  0
LINE
  8
_0-0_1
  6
CONTINUOUS
 62
    1
 10
1719.5014000000001
 20
1065.4493333333332
 11
1746.1680666666666
 21
1038.7826666666665
  0
LINE
  8
_0-0_1
  6
CONTINUOUS
 62
    1
 10
1726.5724666666667
 20
1065.4493333333332
 11
1753.2391333333335
 21
1038.7826666666665
  0
LINE
  8
_0-0_1
  6
CONTINUOUS
 62
    1
 10
1733.6435333333334
 20
1065.4493333333332
 11
1760.3101999999999
 21
1038.7826666666665
  0
LINE
  8
_0-0_1
  6
CONTINUOUS
 62
    1
 10
1740.7146
 20
1065.4493333333332
 11
1767.3812666666665
 21
1038.7826666666665
  0
LINE
  8
_0-0_1
  6
CONTINUOUS
 62
    1
 10
1747.7856666666667
 20
1065.4493333333332
 11
1774.4523333333334
 21
1038.7826666666665
  0
LINE
  8
_0-0_1
  6
CONTINUOUS
 62
    1
 10
1754.8567333333335
 20
1065.4493333333332
 11
1781.5234
 21
1038.7826666666665
  0
LINE
  8
_0-0_1
  6
CONTINUOUS
 62
    1
 10
1761.9277999999999
 20
1065.4493333333332
 11
1788.5944666666669
 21
1038.7826666666665
  0
LINE
  8
_0-0_1
  6
CONTINUOUS
 62
    1
 10
1768.9988666666668
 20
1065.4493333333332
 11
1795.6655333333333
 21
1038.7826666666665
  0
LINE
  8
_0-0_1
  6
CONTINUOUS
 62
    1
 10
1776.0699333333332
 20
1065.4493333333332
 11
1802.7365999999997
 21
1038.7826666666665
  0
LINE
  8
_0-0_1
  6
CONTINUOUS
 62
    1
 10
1783.1410000000001
 20
1065.4493333333332
 11
1809.8076666666666
 21
1038.7826666666665
  0
LINE
  8
_0-0_1
  6
CONTINUOUS
 62
    1
 10
1790.2120666666667
 20
1065.4493333333332
 11
1816.8787333333332
 21
1038.7826666666665
  0
LINE
  8
_0-0_1
  6
CONTINUOUS
 62
    1
 10
1797.2831333333334
 20
1065.4493333333332
 11
1823.9498000000001
 21
1038.7826666666665
  0
LINE
  8
_0-0_1
  6
CONTINUOUS
 62
    1
 10
1804.3542000000002
 20
1065.4493333333332
 11
1831.0208666666665
 21
1038.7826666666665
  0
LINE
  8
_0-0_1
  6
CONTINUOUS
 62
    1
 10
1811.4252666666666
 20
1065.4493333333332
 11
1838.0919333333331
 21
1038.7826666666665
  0
LINE
  8
_0-0_1
  6
CONTINUOUS
 62
    1
 10
1818.496333333333
 20
1065.4493333333332
 11
1845.163
 21
1038.7826666666665
  0
LINE
  8
_0-0_1
  6
CONTINUOUS
 62
    1
 10
1825.5673999999999
 20
1065.4493333333332
 11
1852.2340666666664
 21
1038.7826666666665
  0
LINE
  8
_0-0_1
  6
CONTINUOUS
 62
    1
 10
1832.6384666666668
 20
1065.4493333333332
 11
1859.3051333333333
 21
1038.7826666666665
  0
LINE
  8
_0-0_1
  6
CONTINUOUS
 62
    1
 10
1839.7095333333334
 20
1065.4493333333332
 11
1866.3761999999999
 21
1038.7826666666665
  0
LINE
  8
_0-0_1
  6
CONTINUOUS
 62
    1
 10
1846.7806
 20
1065.4493333333332
 11
1873.4472666666668
 21
1038.7826666666665
  0
LINE
  8
_0-0_1
  6
CONTINUOUS
 62
    1
 10
1853.8516666666669
 20
1065.4493333333332
 11
1880.5183333333332
 21
1038.7826666666665
  0
LINE
  8
_0-0_1
  6
CONTINUOUS
 62
    1
 10
1860.9227333333333
 20
1065.4493333333332
 11
1887.5893999999998
 21
1038.7826666666665
  0
LINE
  8
_0-0_1
  6
CONTINUOUS
 62
    1
 10
1867.9937999999997
 20
1065.4493333333332
 11
1894.6604666666667
 21
1038.7826666666665
  0
LINE
  8
_0-0_1
  6
CONTINUOUS
 62
    1
 10
1875.0648666666666
 20
1065.4493333333332
 11
1901.7315333333331
 21
1038.7826666666665
  0
LINE
  8
_0-0_1
  6
CONTINUOUS
 62
    1
 10
1882.1359333333335
 20
1065.4493333333332
 11
1908.8026
 21
1038.7826666666665
  0
LINE
  8
_0-0_1
  6
CONTINUOUS
 62
    1
 10
1889.2070000000001
 20
1065.4493333333332
 11
1915.8736666666664
 21
1038.7826666666665
  0
LINE
  8
_0-0_1
  6
CONTINUOUS
 62
    1
 10
1896.2780666666667
 20
1065.4493333333332
 11
1922.9447333333335
 21
1038.7826666666665
  0
LINE
  8
_0-0_1
  6
CONTINUOUS
 62
    1
 10
1903.3491333333336
 20
1065.4493333333332
 11
1930.0157999999999
 21
1038.7826666666665
  0
LINE
  8
_0-0_1
  6
CONTINUOUS
 62
    1
 10
1910.4201999999998
 20
1065.4493333333332
 11
1937.0868666666663
 21
1038.7826666666665
  0
LINE
  8
_0-0_1
  6
CONTINUOUS
 62
    1
 10
1917.4912666666664
 20
1065.4493333333332
 11
1944.1579333333332
 21
1038.7826666666665
  0
LINE
  8
_0-0_1
  6
CONTINUOUS
 62
    1
 10
1924.5623333333333
 20
1065.4493333333332
 11
1951.2289999999998
 21
1038.7826666666665
  0
LINE
  8
_0-0_1
  6
CONTINUOUS
 62
    1
 10
1931.6334000000002
 20
1065.4493333333332
 11
1952.8465999999999
 21
1044.2360666666668
  0
LINE
  8
_0-0_1
  6
CONTINUOUS
 62
    1
 10
1938.7044666666666
 20
1065.4493333333332
 11
1952.8465999999999
 21
1051.3071333333332
  0
LINE
  8
_0-0_1
  6
CONTINUOUS
 62
    1
 10
1945.7755333333332
 20
1065.4493333333332
 11
1952.8465999999999
 21
1058.3782666666666
  0
LINE
  8
_0-0_1
  6
CONTINUOUS
 62
    2
 10
1203.1722
 20
1242.6167999999998
 11
1203.1722
 21
1207.6168
  0
CIRCLE
  8
_0-0_1
  6
CONTINUOUS
 62
    2
 10
1203.1722
 20
1240.9501333333333
 40
1.1333333333333331
  0
LINE
  8
_0-0_1
  6
CONTINUOUS
 62
    2
 10
1203.1722
 20
1240.9501333333333
 11
1230.6644000000001
 21
1240.9501333333333
  0
CIRCLE
  8
_0-0_1
  6
CONTINUOUS
 62
    2
 10
1230.6644000000001
 20
1240.9501333333333
 40
1.1333333333333331
  0
LINE
  8
_0-0_1
  6
CONTINUOUS
 62
    2
 10
1230.6644000000001
 20
1242.6167999999998
 11
1230.6644000000001
 21
1207.6168
  0
CIRCLE
  8
_0-0_1
  6
CONTINUOUS
 62
    2
 10
1230.6644000000001
 20
1240.9501333333333
 40
1.1333333333333331
  0
LINE
  8
_0-0_1
  6
CONTINUOUS
 62
    2
 10
1230.6644000000001
 20
1240.9501333333333
 11
1435.9977333333334
 21
1240.9501333333333
  0
CIRCLE
  8
_0-0_1
  6
CONTINUOUS
 62
    2
 10
1435.9977333333334
 20
1240.9501333333333
 40
1.1333333333333331
  0
LINE
  8
_0-0_1
  6
CONTINUOUS
 62
    2
 10
1435.9977333333334
 20
1242.6167999999998
 11
1435.9977333333334
 21
1207.6168
  0
CIRCLE
  8
_0-0_1
  6
CONTINUOUS
 62
    2
 10
1435.9977333333334
 20
1240.9501333333333
 40
1.1333333333333331
  0
LINE
  8
_0-0_1
  6
CONTINUOUS
 62
    2
 10
1435.9977333333334
 20
1240.9501333333333
 11
1641.3310666666666
 21
1240.9501333333333
  0
CIRCLE
  8
_0-0_1
  6
CONTINUOUS
 62
    2
 10
1641.3310666666666
 20
1240.9501333333333
 40
1.1333333333333331
  0
LINE
  8
_0-0_1
  6
CONTINUOUS
 62
    2
 10
1641.3310666666666
 20
1242.6167999999998
 11
1641.3310666666666
 21
1207.6168
  0
CIRCLE
  8
_0-0_1
  6
CONTINUOUS
 62
    2
 10
1641.3310666666666
 20
1240.9501333333333
 40
1.1333333333333331
  0
LINE
  8
_0-0_1
  6
CONTINUOUS
 62
    2
 10
1641.3310666666666
 20
1240.9501333333333
 11
1846.6643999999999
 21
1240.9501333333333
  0
CIRCLE
  8
_0-0_1
  6
CONTINUOUS
 62
    2
 10
1846.6643999999999
 20
1240.9501333333333
 40
1.1333333333333331
  0
LINE
  8
_0-0_1
  6
CONTINUOUS
 62
    2
 10
1846.6643999999999
 20
1242.6167999999998
 11
1846.6643999999999
 21
1207.6168
  0
LINE
  8
_0-0_1
  6
CONTINUOUS
 62
    2
 10
1135.0414000000001
 20
1118.1885333333332
 11
1170.0414000000001
 21
1118.1885333333332
  0
CIRCLE
  8
_0-0_1
  6
CONTINUOUS
 62
    2
 10
1136.708066666667
 20
1118.1885333333332
 40
1.1333333333333331
  0
LINE
  8
_0-0_1
  6
CONTINUOUS
 62
    2
 10
1136.708066666667
 20
1118.1885333333332
 11
1136.708066666667
 21
1056.9274666666665
  0
CIRCLE
  8
_0-0_1
  6
CONTINUOUS
 62
    2
 10
1136.708066666667
 20
1056.9274666666665
 40
1.1333333333333331
  0
LINE
  8
_0-0_1
  6
CONTINUOUS
 62
    2
 10
1135.0414000000001
 20
1056.9274666666665
 11
1170.0414000000001
 21
1056.9274666666665
  0
LINE
  8
_0-0_1
  6
CONTINUOUS
 62
    2
 10
1203.1722
 20
904.40539999999999
 11
1203.1722
 21
936.32306666666659
  0
CIRCLE
  8
_0-0_1
  6
CONTINUOUS
 62
    2
 10
1203.1722
 20
906.07206666666661
 40
1.1333333333333331
  0
LINE
  8
_0-0_1
  6
CONTINUOUS
 62
    2
 10
1203.1722
 20
906.07206666666661
 11
1224.1392000000001
 21
906.07206666666661
  0
CIRCLE
  8
_0-0_1
  6
CONTINUOUS
 62
    2
 10
1224.1392000000001
 20
906.07206666666661
 40
1.1333333333333331
  0
LINE
  8
_0-0_1
  6
CONTINUOUS
 62
    2
 10
1224.1392000000001
 20
904.40539999999999
 11
1224.1392000000001
 21
936.32306666666659
  0
LINE
  8
_0-0_1
  6
CONTINUOUS
 62
    2
 10
1755.8098
 20
938.78266666666661
 11
1855.8098
 21
1038.7826666666665
  0
LINE
  8
_0-0_1
  6
CONTINUOUS
 62
    2
 10
1548.3917999999999
 20
938.78266666666661
 11
1648.3917999999999
 21
1038.7826666666665
  0
LINE
  8
_0-0_1
  6
CONTINUOUS
 62
    2
 10
1340.9738000000002
 20
938.78266666666661
 11
1440.9738000000002
 21
1038.7826666666665
  0
LINE
  8
_0-0_1
  6
CONTINUOUS
 62
    2
 10
1230.8058666666668
 20
1036.0326666666667
 11
1233.5558000000001
 21
1038.7826666666665
  0
LINE
  8
_0-0_1
  6
CONTINUOUS
 62
    2
 10
1746.3817333333332
 20
938.78266666666661
 11
1846.3817333333332
 21
1038.7826666666665
  0
LINE
  8
_0-0_1
  6
CONTINUOUS
 62
    2
 10
1538.9637333333335
 20
938.78266666666661
 11
1638.9637333333335
 21
1038.7826666666665
  0
LINE
  8
_0-0_1
  6
CONTINUOUS
 62
    2
 10
1331.5457333333334
 20
938.78266666666661
 11
1431.5457333333334
 21
1038.7826666666665
  0
LINE
  8
_0-0_1
  6
CONTINUOUS
 62
    2
 10
1944.3715999999999
 20
938.78266666666661
 11
1951.2289999999998
 21
945.64006666666671
  0
LINE
  8
_0-0_1
  6
CONTINUOUS
 62
    2
 10
1736.9536000000003
 20
938.78266666666661
 11
1836.9535999999998
 21
1038.7826666666665
  0
LINE
  8
_0-0_1
  6
CONTINUOUS
 62
    2
 10
1529.5355999999997
 20
938.78266666666661
 11
1629.5355999999997
 21
1038.7826666666665
  0
LINE
  8
_0-0_1
  6
CONTINUOUS
 62
    2
 10
1322.1176666666668
 20
938.78266666666661
 11
1422.1176666666668
 21
1038.7826666666665
  0
LINE
  8
_0-0_1
  6
CONTINUOUS
 62
    3
 10
1255.4704000000002
 20
1078.6974
 11
1215.4704000000002
 21
1092.8732666666665
  0
LINE
  8
_0-0_1
  6
CONTINUOUS
 62
    3
 10
1255.4704000000002
 20
1067.4493333333335
 11
1215.4749333333334
 21
1067.4493333333335
  0
LINE
  8
_0-0_1
  6
CONTINUOUS
 62
    3
 10
1255.4704000000002
 20
1078.6974
 11
1255.4704000000002
 21
1067.4493333333335
  0
LINE
  8
_0-0_1
  6
CONTINUOUS
 62
    2
 10
1216.4582
 20
1071.2098666666666
 11
1219.9937333333335
 21
1074.7453999999998
  0
LINE
  8
_0-0_1
  6
CONTINUOUS
 62
    2
 10
1219.9937333333335
 20
1074.7453999999998
 11
1218.6996000000001
 21
1069.9157333333333
  0
LINE
  8
_0-0_1
  6
CONTINUOUS
 62
    2
 10
1219.9937333333335
 20
1074.7453999999998
 11
1180.6692
 21
1006.6333333333334
  0
LINE
  8
_0-0_1
  6
CONTINUOUS
 62
    2
 10
1180.6692
 20
1006.6333333333334
 11
1016.6692
 21
1006.6333333333334
  0
LINE
  8
_0-1_2
  6
CONTINUOUS
 62
    3
 10
1249.2753333333335
 20
1047.7716
 11
1953.3307333333332
 21
1047.7716
  0
CIRCLE
  8
_0-1_2
  6
CONTINUOUS
 62
    3
 10
1252.9242666666667
 20
1048.5884000000001
 40
0.8699479999999999
  0
CIRCLE
  8
_0-1_2
  6
CONTINUOUS
 62
    3
 10
1352.9242666666667
 20
1048.5884000000001
 40
0.8699479999999999
  0
CIRCLE
  8
_0-1_2
  6
CONTINUOUS
 62
    3
 10
1452.9242666666667
 20
1048.5884000000001
 40
0.8699479999999999
  0
CIRCLE
  8
_0-1_2
  6
CONTINUOUS
 62
    3
 10
1552.9242666666667
 20
1048.5884000000001
 40
0.8699479999999999
  0
CIRCLE
  8
_0-1_2
  6
CONTINUOUS
 62
    3
 10
1752.9242666666664
 20
1048.5884000000001
 40
0.8699479999999999
  0
CIRCLE
  8
_0-1_2
  6
CONTINUOUS
 62
    3
 10
1852.9242666666664
 20
1048.5884000000001
 40
0.8699479999999999
  0
CIRCLE
  8
_0-1_2
  6
CONTINUOUS
 62
    3
 10
1652.9242666666664
 20
1048.5884000000001
 40
0.8699479999999999
  0
LINE
  8
_0-1_2
  6
DASHED1
 62
    2
 10
1309.4407999999999
 20
1050.8909999999998
 11
1302.7741333333333
 21
1050.8909999999998
  0
LINE
  8
_0-1_2
  6
DASHED1
 62
    2
 10
1323.6875333333332
 20
1014.8785333333333
 11
1323.6875333333332
 21
1008.2118666666668
  0
LINE
  8
_0-1_2
  6
DASHED1
 62
    2
 10
1309.4407999999999
 20
1050.8909999999998
 11
1309.4407999999999
 21
1014.8785333333333
  0
LINE
  8
_0-1_2
  6
DASHED1
 62
    2
 10
1302.7741333333333
 20
1050.8909999999998
 11
1302.7741333333333
 21
1008.2118666666668
  0
LINE
  8
_0-1_2
  6
DASHED1
 62
    2
 10
1309.4407999999999
 20
1014.8785333333333
 11
1323.6875333333332
 21
1014.8785333333333
  0
LINE
  8
_0-1_2
  6
DASHED1
 62
    2
 10
1302.7741333333333
 20
1008.2118666666668
 11
1323.6875333333332
 21
1008.2118666666668
  0
LINE
  8
_0-1_2
  6
DASHED1
 62
    2
 10
1709.4407999999999
 20
1050.8909999999998
 11
1702.7741333333333
 21
1050.8909999999998
  0
LINE
  8
_0-1_2
  6
DASHED1
 62
    2
 10
1723.6875333333332
 20
1014.8785333333333
 11
1723.6875333333332
 21
1008.2118666666668
  0
LINE
  8
_0-1_2
  6
DASHED1
 62
    2
 10
1709.4407999999999
 20
1050.8909999999998
 11
1709.4407999999999
 21
1014.8785333333333
  0
LINE
  8
_0-1_2
  6
DASHED1
 62
    2
 10
1702.7741333333333
 20
1050.8909999999998
 11
1702.7741333333333
 21
1008.2118666666668
  0
LINE
  8
_0-1_2
  6
DASHED1
 62
    2
 10
1709.4407999999999
 20
1014.8785333333333
 11
1723.6875333333332
 21
1014.8785333333333
  0
LINE
  8
_0-1_2
  6
DASHED1
 62
    2
 10
1702.7741333333333
 20
1008.2118666666668
 11
1723.6875333333332
 21
1008.2118666666668
  0
LINE
  8
_0-1_2
  6
CONTINUOUS
 62
    2
 10
1311.6853333333333
 20
1006.8869333333333
 11
1310.3912666666668
 21
1011.7165333333334
  0
LINE
  8
_0-1_2
  6
CONTINUOUS
 62
    2
 10
1310.3912666666668
 20
1011.7165333333334
 11
1313.9268000000002
 21
1008.181
  0
LINE
  8
_0-1_2
  6
CONTINUOUS
 62
    2
 10
1310.3912666666668
 20
1011.7165333333334
 11
1326.8101333333334
 21
983.2782666666667
  0
LINE
  8
_0-1_2
  6
CONTINUOUS
 62
    2
 10
1326.8101333333334
 20
983.2782666666667
 11
1366.8101333333334
 21
983.2782666666667
  0
LINE
  8
_0-1_2
  6
CONTINUOUS
 62
    2
 10
1400.7002666666667
 20
1042.7545333333335
 11
1399.4061999999999
 21
1047.5841999999998
  0
LINE
  8
_0-1_2
  6
CONTINUOUS
 62
    2
 10
1399.4061999999999
 20
1047.5841999999998
 11
1402.9417333333333
 21
1044.0486000000001
  0
LINE
  8
_0-1_2
  6
CONTINUOUS
 62
    2
 10
1399.4061999999999
 20
1047.5841999999998
 11
1424.3812666666665
 21
1004.3260666666667
  0
LINE
  8
_0-1_2
  6
CONTINUOUS
 62
    2
 10
1424.3812666666665
 20
1004.3260666666667
 11
1464.3812666666665
 21
1004.3260666666667
  0
LINE
  8
_0-0_1
  6
CONTINUOUS
 62
    2
 10
1586.8044666666669
 20
1063.5696666666668
 11
1586.8044666666669
 21
1068.5696666666668
  0
LINE
  8
_0-0_1
  6
CONTINUOUS
 62
    2
 10
1586.8044666666669
 20
1068.5696666666668
 11
1589.3044666666669
 21
1064.2395333333334
  0
LINE
  8
_0-0_1
  6
CONTINUOUS
 62
    2
 10
1634.9823333333334
 20
888.76733333333334
 11
1771.5308000000002
 21
888.76733333333334
  0
LINE
  8
_0-0_1
  6
CONTINUOUS
 62
    2
 10
1870.6238666666668
 20
1107.4634666666668
 11
1870.6238666666668
 21
1102.4654
  0
LINE
  8
_0-0_1
  6
CONTINUOUS
 62
    2
 10
1871.4667333333332
 20
1108.7946666666667
 11
1871.4667333333332
 21
1102.4654
  0
LINE
  8
_0-0_1
  6
CONTINUOUS
 62
    2
 10
1871.4667333333332
 20
1108.7946666666667
 11
1846.6643999999999
 21
1108.7946666666667
  0
LINE
  8
_0-0_1
  6
CONTINUOUS
 62
    2
 10
1870.6238666666668
 20
1107.4634666666668
 11
1845.3310666666664
 21
1107.4634666666668
  0
LINE
  8
_0-0_1
  6
CONTINUOUS
 62
    2
 10
1665.2905333333333
 20
1107.4634666666668
 11
1665.2905333333333
 21
1102.4654
  0
LINE
  8
_0-0_1
  6
CONTINUOUS
 62
    2
 10
1666.1333999999999
 20
1108.7946666666667
 11
1666.1333999999999
 21
1102.4654
  0
LINE
  8
_0-0_1
  6
CONTINUOUS
 62
    2
 10
1666.1333999999999
 20
1108.7946666666667
 11
1641.3310666666666
 21
1108.7946666666667
  0
LINE
  8
_0-0_1
  6
CONTINUOUS
 62
    2
 10
1665.2905333333333
 20
1107.4634666666668
 11
1639.9977333333334
 21
1107.4634666666668
  0
LINE
  8
_0-0_1
  6
CONTINUOUS
 62
    2
 10
1459.9572000000001
 20
1107.4634666666668
 11
1459.9572000000001
 21
1102.4654
  0
LINE
  8
_0-0_1
  6
CONTINUOUS
 62
    2
 10
1460.8000666666667
 20
1108.7946666666667
 11
1460.8000666666667
 21
1102.4654
  0
LINE
  8
_0-0_1
  6
CONTINUOUS
 62
    2
 10
1460.8000666666667
 20
1108.7946666666667
 11
1435.9977333333334
 21
1108.7946666666667
  0
LINE
  8
_0-0_1
  6
CONTINUOUS
 62
    2
 10
1459.9572000000001
 20
1107.4634666666668
 11
1434.6644000000001
 21
1107.4634666666668
  0
LINE
  8
_0-0_1
  6
CONTINUOUS
 62
    2
 10
1944.8996666666665
 20
1102.4654
 11
1871.4667333333332
 21
1102.4654
  0
LINE
  8
_0-0_1
  6
CONTINUOUS
 62
    2
 10
1870.6238666666668
 20
1102.4654
 11
1666.1333999999999
 21
1102.4654
  0
LINE
  8
_0-0_1
  6
CONTINUOUS
 62
    2
 10
1665.2905333333333
 20
1102.4654
 11
1460.8000666666667
 21
1102.4654
  0
LINE
  8
_0-0_1
  6
CONTINUOUS
 62
    2
 10
1459.9572000000001
 20
1102.4654
 11
1302.6110666666668
 21
1102.4654
  0
LINE
  8
_0-0_1
  6
CONTINUOUS
 62
    2
 10
1407.7139999999999
 20
1122.1066666666666
 11
1407.7139999999999
 21
1120.1098666666667
  0
LINE
  8
_0-0_1
  6
CONTINUOUS
 62
    2
 10
1357.7940000000001
 20
1120.1098666666667
 11
1407.7139999999999
 21
1120.1098666666667
  0
LINE
  8
_0-0_1
  6
CONTINUOUS
 62
    2
 10
1302.6110666666668
 20
1120.1098666666667
 11
1357.7940000000001
 21
1120.1098666666667
  0
LINE
  8
_0-0_1
  6
CONTINUOUS
 62
    2
 10
1434.6644000000001
 20
1122.1066666666666
 11
1407.7139999999999
 21
1122.1066666666666
  0
LINE
  8
_0-0_1
  6
CONTINUOUS
 62
    2
 10
1434.6644000000001
 20
1122.1066666666666
 11
1434.6644000000001
 21
1107.4634666666668
  0
LINE
  8
_0-0_1
  6
CONTINUOUS
 62
    2
 10
1613.0473333333334
 20
1122.1066666666666
 11
1613.0473333333334
 21
1120.1098666666667
  0
LINE
  8
_0-0_1
  6
CONTINUOUS
 62
    2
 10
1563.1273333333331
 20
1120.1098666666667
 11
1613.0473333333334
 21
1120.1098666666667
  0
LINE
  8
_0-0_1
  6
CONTINUOUS
 62
    2
 10
1462.6217333333334
 20
1120.1098666666667
 11
1563.1273333333331
 21
1120.1098666666667
  0
LINE
  8
_0-0_1
  6
CONTINUOUS
 62
    2
 10
1462.6217333333334
 20
1122.1066666666666
 11
1462.6217333333334
 21
1120.1098666666667
  0
LINE
  8
_0-0_1
  6
CONTINUOUS
 62
    2
 10
1462.6217333333334
 20
1122.1066666666666
 11
1435.9977333333334
 21
1122.1066666666666
  0
LINE
  8
_0-0_1
  6
CONTINUOUS
 62
    2
 10
1435.9977333333334
 20
1122.1066666666666
 11
1435.9977333333334
 21
1108.7946666666667
  0
LINE
  8
_0-0_1
  6
CONTINUOUS
 62
    2
 10
1639.9977333333334
 20
1122.1066666666666
 11
1639.9977333333334
 21
1107.4634666666668
  0
LINE
  8
_0-0_1
  6
CONTINUOUS
 62
    2
 10
1639.9977333333334
 20
1122.1066666666666
 11
1639.9977333333334
 21
1108.7946666666667
  0
LINE
  8
_0-0_1
  6
CONTINUOUS
 62
    2
 10
1818.3806666666667
 20
1122.1066666666666
 11
1818.3806666666667
 21
1120.1098666666667
  0
LINE
  8
_0-0_1
  6
CONTINUOUS
 62
    2
 10
1768.4606666666664
 20
1120.1098666666667
 11
1818.3806666666667
 21
1120.1098666666667
  0
LINE
  8
_0-0_1
  6
CONTINUOUS
 62
    2
 10
1667.9550666666669
 20
1120.1098666666667
 11
1768.4606666666664
 21
1120.1098666666667
  0
LINE
  8
_0-0_1
  6
CONTINUOUS
 62
    2
 10
1667.9550666666669
 20
1122.1066666666666
 11
1667.9550666666669
 21
1120.1098666666667
  0
LINE
  8
_0-0_1
  6
CONTINUOUS
 62
    2
 10
1667.9550666666669
 20
1122.1066666666666
 11
1641.3310666666666
 21
1122.1066666666666
  0
LINE
  8
_0-0_1
  6
CONTINUOUS
 62
    2
 10
1641.3310666666666
 20
1122.1066666666666
 11
1641.3310666666666
 21
1108.7946666666667
  0
LINE
  8
_0-0_1
  6
CONTINUOUS
 62
    2
 10
1845.3310666666664
 20
1122.1066666666666
 11
1818.3806666666667
 21
1122.1066666666666
  0
LINE
  8
_0-0_1
  6
CONTINUOUS
 62
    2
 10
1845.3310666666664
 20
1122.1066666666666
 11
1845.3310666666664
 21
1107.4634666666668
  0
LINE
  8
_0-0_1
  6
CONTINUOUS
 62
    2
 10
1845.3310666666664
 20
1122.1066666666666
 11
1845.3310666666664
 21
1108.7946666666667
  0
LINE
  8
_0-0_1
  6
CONTINUOUS
 62
    2
 10
1873.2884000000001
 20
1120.1098666666667
 11
1944.8996666666665
 21
1120.1098666666667
  0
LINE
  8
_0-0_1
  6
CONTINUOUS
 62
    2
 10
1873.2884000000001
 20
1122.1066666666666
 11
1873.2884000000001
 21
1120.1098666666667
  0
LINE
  8
_0-0_1
  6
CONTINUOUS
 62
    2
 10
1873.2884000000001
 20
1122.1066666666666
 11
1846.6643999999999
 21
1122.1066666666666
  0
LINE
  8
_0-0_1
  6
CONTINUOUS
 62
    2
 10
1846.6643999999999
 20
1122.1066666666666
 11
1846.6643999999999
 21
1108.7946666666667
  0
LINE
  8
_0-0_1
  6
CONTINUOUS
 62
    2
 10
1296.8002666666666
 20
1137.5281333333332
 11
1201.9676666666667
 21
1137.5281333333332
  0
ARC
  8
_0-0_1
  6
CONTINUOUS
 62
    2
 10
1296.8002666666666
 20
1134.3025333333333
 40
3.2255999999999996
 50
0
 51
90
  0
LINE
  8
_0-0_1
  6
CONTINUOUS
 62
    2
 10
1300.0258666666668
 20
1120.1098666666667
 11
1300.0258666666668
 21
1134.3025333333333
  0
LINE
  8
_0-0_1
  6
CONTINUOUS
 62
    2
 10
1300.0258666666668
 20
1120.1098666666667
 11
1294.8649333333333
 21
1120.1098666666667
  0
LINE
  8
_0-0_1
  6
CONTINUOUS
 62
    2
 10
1294.8649333333333
 20
1121.4001333333335
 11
1294.8649333333333
 21
1120.1098666666667
  0
LINE
  8
_0-0_1
  6
CONTINUOUS
 62
    2
 10
1212.9346666666668
 20
1121.4001333333335
 11
1294.8649333333333
 21
1121.4001333333335
  0
LINE
  8
_0-0_1
  6
CONTINUOUS
 62
    2
 10
1201.9676666666667
 20
1079.4926666666668
 11
1201.9676666666667
 21
1137.5281333333332
  0
ARC
  8
_0-0_1
  6
CONTINUOUS
 62
    2
 10
1205.1932666666667
 20
1079.4926666666668
 40
3.2255999999999996
 50
180
 51
231.20250999999996
  0
LINE
  8
_0-0_1
  6
CONTINUOUS
 62
    2
 10
1212.9346666666668
 20
1121.4001333333335
 11
1212.9346666666668
 21
1118.2325333333333
  0
ARC
  8
_0-0_1
  6
CONTINUOUS
 62
    4
 10
1632.0349333333334
 20
1076.7677333333334
 40
3.9935999999999998
 50
199.47121999999999
 51
344.27760999999998
  0
LINE
  8
_0-0_1
  6
CONTINUOUS
 62
    4
 10
1624.3486666666668
 20
1086.0861333333335
 11
1628.3422666666665
 21
1075.2468000000001
  0
LINE
  8
_0-0_1
  6
CONTINUOUS
 62
    4
 10
1476.6132000000002
 20
1086.0861333333335
 11
1472.8209999999999
 21
1075.6855333333333
  0
LINE
  8
_0-0_1
  6
CONTINUOUS
 62
    4
 10
1636.759066666667
 20
1078.0989333333334
 11
1635.8791333333331
 21
1075.6855333333333
  0
LINE
  8
_0-0_1
  6
CONTINUOUS
 62
    4
 10
1460.8000666666667
 20
1087.4173333333333
 11
1435.9977333333334
 21
1087.4173333333333
  0
LINE
  8
_0-0_1
  6
CONTINUOUS
 62
    4
 10
1460.8000666666667
 20
1087.4173333333333
 11
1465.2841333333333
 21
1075.2468000000001
  0
LINE
  8
_0-0_1
  6
CONTINUOUS
 62
    4
 10
1624.3486666666668
 20
1086.0861333333335
 11
1597.7246666666667
 21
1086.0861333333335
  0
LINE
  8
_0-0_1
  6
CONTINUOUS
 62
    4
 10
1592.3998666666666
 20
1086.0861333333335
 11
1561.1166666666668
 21
1086.0861333333335
  0
LINE
  8
_0-0_1
  6
CONTINUOUS
 62
    4
 10
1555.7918666666669
 20
1086.0861333333335
 11
1520.5150666666666
 21
1086.0861333333335
  0
LINE
  8
_0-0_1
  6
CONTINUOUS
 62
    4
 10
1515.190266666667
 20
1086.0861333333335
 11
1476.6132000000002
 21
1086.0861333333335
  0
LINE
  8
_0-0_1
  6
CONTINUOUS
 62
    4
 10
1613.0473333333334
 20
1100.7293333333334
 11
1613.0473333333334
 21
1098.7325333333333
  0
LINE
  8
_0-0_1
  6
CONTINUOUS
 62
    4
 10
1563.1273333333331
 20
1098.7325333333333
 11
1613.0473333333334
 21
1098.7325333333333
  0
LINE
  8
_0-0_1
  6
CONTINUOUS
 62
    4
 10
1462.6217333333334
 20
1098.7325333333333
 11
1563.1273333333331
 21
1098.7325333333333
  0
LINE
  8
_0-0_1
  6
CONTINUOUS
 62
    4
 10
1462.6217333333334
 20
1100.7293333333334
 11
1462.6217333333334
 21
1098.7325333333333
  0
LINE
  8
_0-0_1
  6
CONTINUOUS
 62
    4
 10
1462.6217333333334
 20
1100.7293333333334
 11
1435.9977333333334
 21
1100.7293333333334
  0
LINE
  8
_0-0_1
  6
CONTINUOUS
 62
    4
 10
1515.190266666667
 20
1086.0861333333335
 11
1515.190266666667
 21
1078.7645333333332
  0
LINE
  8
_0-0_1
  6
CONTINUOUS
 62
    4
 10
1520.5150666666666
 20
1078.7645333333332
 11
1515.190266666667
 21
1078.7645333333332
  0
LINE
  8
_0-0_1
  6
CONTINUOUS
 62
    4
 10
1520.5150666666666
 20
1086.0861333333335
 11
1520.5150666666666
 21
1078.7645333333332
  0
LINE
  8
_0-0_1
  6
CONTINUOUS
 62
    4
 10
1555.7918666666669
 20
1086.0861333333335
 11
1555.7918666666669
 21
1078.7645333333332
  0
LINE
  8
_0-0_1
  6
CONTINUOUS
 62
    4
 10
1561.1166666666668
 20
1078.7645333333332
 11
1555.7918666666669
 21
1078.7645333333332
  0
LINE
  8
_0-0_1
  6
CONTINUOUS
 62
    4
 10
1561.1166666666668
 20
1086.0861333333335
 11
1561.1166666666668
 21
1078.7645333333332
  0
LINE
  8
_0-0_1
  6
CONTINUOUS
 62
    4
 10
1592.3998666666666
 20
1086.0861333333335
 11
1592.3998666666666
 21
1078.7645333333332
  0
LINE
  8
_0-0_1
  6
CONTINUOUS
 62
    4
 10
1597.7246666666667
 20
1078.7645333333332
 11
1592.3998666666666
 21
1078.7645333333332
  0
LINE
  8
_0-0_1
  6
CONTINUOUS
 62
    4
 10
1597.7246666666667
 20
1078.7645333333332
 11
1597.7246666666667
 21
1086.0861333333335
  0
LINE
  8
_0-0_1
  6
CONTINUOUS
 62
    4
 10
1435.9977333333334
 20
1100.7293333333334
 11
1435.9977333333334
 21
1087.4173333333333
  0
ARC
  8
_0-0_1
  6
CONTINUOUS
 62
    4
 10
1468.9272666666666
 20
1076.7677333333334
 40
3.9935999999999998
 50
199.47121999999999
 51
344.27760999999998
  0
LINE
  8
_0-0_1
  6
CONTINUOUS
 62
    4
 10
1639.9977333333334
 20
1100.7293333333334
 11
1613.0473333333334
 21
1100.7293333333334
  0
LINE
  8
_0-0_1
  6
CONTINUOUS
 62
    4
 10
1639.9977333333334
 20
1100.7293333333334
 11
1639.9977333333334
 21
1086.0861333333335
  0
LINE
  8
_0-0_1
  6
CONTINUOUS
 62
    4
 10
1639.9977333333334
 20
1100.7293333333334
 11
1639.9977333333334
 21
1087.4173333333333
  0
LINE
  8
_0-0_1
  6
CONTINUOUS
 62
    4
 10
1665.9977333333334
 20
1078.0989333333334
 11
1636.759066666667
 21
1078.0989333333334
  0
LINE
  8
_0-0_1
  6
CONTINUOUS
 62
    4
 10
1665.9977333333334
 20
1078.0989333333334
 11
1665.9977333333334
 21
1086.0861333333335
  0
LINE
  8
_0-0_1
  6
CONTINUOUS
 62
    4
 10
1665.9977333333334
 20
1086.0861333333335
 11
1639.9977333333334
 21
1086.0861333333335
  0
ARC
  8
_0-0_1
  6
CONTINUOUS
 62
    4
 10
1837.3682666666668
 20
1076.7677333333334
 40
3.9935999999999998
 50
199.47121999999999
 51
344.27760999999998
  0
LINE
  8
_0-0_1
  6
CONTINUOUS
 62
    4
 10
1829.6820000000002
 20
1086.0861333333335
 11
1833.6755999999996
 21
1075.2468000000001
  0
LINE
  8
_0-0_1
  6
CONTINUOUS
 62
    4
 10
1681.9465333333335
 20
1086.0861333333335
 11
1678.1543333333332
 21
1075.6855333333333
  0
LINE
  8
_0-0_1
  6
CONTINUOUS
 62
    4
 10
1842.0924000000002
 20
1078.0989333333334
 11
1841.2124666666664
 21
1075.6855333333333
  0
LINE
  8
_0-0_1
  6
CONTINUOUS
 62
    4
 10
1666.1333999999999
 20
1087.4173333333333
 11
1641.3310666666666
 21
1087.4173333333333
  0
LINE
  8
_0-0_1
  6
CONTINUOUS
 62
    4
 10
1666.1333999999999
 20
1087.4173333333333
 11
1670.6174666666666
 21
1075.2468000000001
  0
LINE
  8
_0-0_1
  6
CONTINUOUS
 62
    4
 10
1829.6820000000002
 20
1086.0861333333335
 11
1803.058
 21
1086.0861333333335
  0
LINE
  8
_0-0_1
  6
CONTINUOUS
 62
    4
 10
1797.7332000000001
 20
1086.0861333333335
 11
1766.45
 21
1086.0861333333335
  0
LINE
  8
_0-0_1
  6
CONTINUOUS
 62
    4
 10
1761.1252000000002
 20
1086.0861333333335
 11
1725.8483999999999
 21
1086.0861333333335
  0
LINE
  8
_0-0_1
  6
CONTINUOUS
 62
    4
 10
1720.5236000000002
 20
1086.0861333333335
 11
1681.9465333333335
 21
1086.0861333333335
  0
LINE
  8
_0-0_1
  6
CONTINUOUS
 62
    4
 10
1818.3806666666667
 20
1100.7293333333334
 11
1818.3806666666667
 21
1098.7325333333333
  0
LINE
  8
_0-0_1
  6
CONTINUOUS
 62
    4
 10
1768.4606666666664
 20
1098.7325333333333
 11
1818.3806666666667
 21
1098.7325333333333
  0
LINE
  8
_0-0_1
  6
CONTINUOUS
 62
    4
 10
1667.9550666666669
 20
1098.7325333333333
 11
1769.932
 21
1098.7325333333333
  0
LINE
  8
_0-0_1
  6
CONTINUOUS
 62
    4
 10
1667.9550666666669
 20
1100.7293333333334
 11
1667.9550666666669
 21
1098.7325333333333
  0
LINE
  8
_0-0_1
  6
CONTINUOUS
 62
    4
 10
1667.9550666666669
 20
1100.7293333333334
 11
1641.3310666666666
 21
1100.7293333333334
  0
LINE
  8
_0-0_1
  6
CONTINUOUS
 62
    4
 10
1720.5236000000002
 20
1086.0861333333335
 11
1720.5236000000002
 21
1078.7645333333332
  0
LINE
  8
_0-0_1
  6
CONTINUOUS
 62
    4
 10
1725.8483999999999
 20
1078.7645333333332
 11
1720.5236000000002
 21
1078.7645333333332
  0
LINE
  8
_0-0_1
  6
CONTINUOUS
 62
    4
 10
1725.8483999999999
 20
1086.0861333333335
 11
1725.8483999999999
 21
1078.7645333333332
  0
LINE
  8
_0-0_1
  6
CONTINUOUS
 62
    4
 10
1761.1252000000002
 20
1086.0861333333335
 11
1761.1252000000002
 21
1078.7645333333332
  0
LINE
  8
_0-0_1
  6
CONTINUOUS
 62
    4
 10
1766.45
 20
1078.7645333333332
 11
1761.1252000000002
 21
1078.7645333333332
  0
LINE
  8
_0-0_1
  6
CONTINUOUS
 62
    4
 10
1766.45
 20
1086.0861333333335
 11
1766.45
 21
1078.7645333333332
  0
LINE
  8
_0-0_1
  6
CONTINUOUS
 62
    4
 10
1797.7332000000001
 20
1086.0861333333335
 11
1797.7332000000001
 21
1078.7645333333332
  0
LINE
  8
_0-0_1
  6
CONTINUOUS
 62
    4
 10
1803.058
 20
1078.7645333333332
 11
1797.7332000000001
 21
1078.7645333333332
  0
LINE
  8
_0-0_1
  6
CONTINUOUS
 62
    4
 10
1803.058
 20
1078.7645333333332
 11
1803.058
 21
1086.0861333333335
  0
LINE
  8
_0-0_1
  6
CONTINUOUS
 62
    4
 10
1641.3310666666666
 20
1100.7293333333334
 11
1641.3310666666666
 21
1087.4173333333333
  0
ARC
  8
_0-0_1
  6
CONTINUOUS
 62
    4
 10
1674.2606000000001
 20
1076.7677333333334
 40
3.9935999999999998
 50
199.47121999999999
 51
344.27760999999998
  0
LINE
  8
_0-0_1
  6
CONTINUOUS
 62
    4
 10
1845.3310666666664
 20
1100.7293333333334
 11
1818.3806666666667
 21
1100.7293333333334
  0
LINE
  8
_0-0_1
  6
CONTINUOUS
 62
    4
 10
1845.3310666666664
 20
1100.7293333333334
 11
1845.3310666666664
 21
1086.0861333333335
  0
LINE
  8
_0-0_1
  6
CONTINUOUS
 62
    4
 10
1845.3310666666664
 20
1100.7293333333334
 11
1845.3310666666664
 21
1087.4173333333333
  0
LINE
  8
_0-0_1
  6
CONTINUOUS
 62
    4
 10
1871.3310666666666
 20
1078.0989333333334
 11
1842.0924000000002
 21
1078.0989333333334
  0
LINE
  8
_0-0_1
  6
CONTINUOUS
 62
    4
 10
1871.3310666666666
 20
1078.0989333333334
 11
1871.3310666666666
 21
1086.0861333333335
  0
LINE
  8
_0-0_1
  6
CONTINUOUS
 62
    4
 10
1871.3310666666666
 20
1086.0861333333335
 11
1845.3310666666664
 21
1086.0861333333335
  0
LINE
  8
_0-0_1
  6
CONTINUOUS
 62
    4
 10
1887.2798666666665
 20
1086.0861333333335
 11
1883.4876666666664
 21
1075.6855333333333
  0
LINE
  8
_0-0_1
  6
CONTINUOUS
 62
    4
 10
1871.4667333333332
 20
1087.4173333333333
 11
1846.6643999999999
 21
1087.4173333333333
  0
LINE
  8
_0-0_1
  6
CONTINUOUS
 62
    4
 10
1871.4667333333332
 20
1087.4173333333333
 11
1875.9508000000001
 21
1075.2468000000001
  0
LINE
  8
_0-0_1
  6
CONTINUOUS
 62
    4
 10
1944.8996666666665
 20
1086.0861333333335
 11
1931.1817333333329
 21
1086.0861333333335
  0
LINE
  8
_0-0_1
  6
CONTINUOUS
 62
    4
 10
1925.8569333333332
 20
1086.0861333333335
 11
1887.2798666666665
 21
1086.0861333333335
  0
LINE
  8
_0-0_1
  6
CONTINUOUS
 62
    4
 10
1873.2884000000001
 20
1098.7325333333333
 11
1944.8996666666665
 21
1098.7325333333333
  0
LINE
  8
_0-0_1
  6
CONTINUOUS
 62
    4
 10
1873.2884000000001
 20
1100.7293333333334
 11
1873.2884000000001
 21
1098.7325333333333
  0
LINE
  8
_0-0_1
  6
CONTINUOUS
 62
    4
 10
1873.2884000000001
 20
1100.7293333333334
 11
1846.6643999999999
 21
1100.7293333333334
  0
LINE
  8
_0-0_1
  6
CONTINUOUS
 62
    4
 10
1925.8569333333332
 20
1086.0861333333335
 11
1925.8569333333332
 21
1078.7645333333332
  0
LINE
  8
_0-0_1
  6
CONTINUOUS
 62
    4
 10
1931.1817333333329
 20
1078.7645333333332
 11
1925.8569333333332
 21
1078.7645333333332
  0
LINE
  8
_0-0_1
  6
CONTINUOUS
 62
    4
 10
1931.1817333333329
 20
1086.0861333333335
 11
1931.1817333333329
 21
1078.7645333333332
  0
LINE
  8
_0-0_1
  6
CONTINUOUS
 62
    4
 10
1846.6643999999999
 20
1100.7293333333334
 11
1846.6643999999999
 21
1087.4173333333333
  0
ARC
  8
_0-0_1
  6
CONTINUOUS
 62
    4
 10
1879.5939333333331
 20
1076.7677333333334
 40
3.9935999999999998
 50
199.47121999999999
 51
344.27760999999998
  0
LINE
  8
_0-0_1
  6
CONTINUOUS
 62
    2
 10
1291.0001999999999
 20
1102.0605333333333
 11
1291.0001999999999
 21
1098.7325333333333
  0
LINE
  8
_0-0_1
  6
CONTINUOUS
 62
    2
 10
1275.4804666666666
 20
1102.0605333333333
 11
1275.4804666666666
 21
1098.7325333333333
  0
LINE
  8
_0-0_1
  6
CONTINUOUS
 62
    2
 10
1275.4804666666666
 20
1098.7339333333332
 11
1291.0001999999999
 21
1098.7339333333332
  0
LINE
  8
_0-0_1
  6
CONTINUOUS
 62
    2
 10
1275.4804666666666
 20
1099.5652
 11
1291.0001999999999
 21
1099.5652
  0
LINE
  8
_0-0_1
  6
CONTINUOUS
 62
    2
 10
1275.4804666666666
 20
1100.3965333333333
 11
1291.0001999999999
 21
1100.3965333333333
  0
LINE
  8
_0-0_1
  6
CONTINUOUS
 62
    2
 10
1275.4804666666666
 20
1101.2277999999999
 11
1291.0001999999999
 21
1101.2277999999999
  0
LINE
  8
_0-0_1
  6
CONTINUOUS
 62
    2
 10
1275.4804666666666
 20
1102.0591333333332
 11
1291.0001999999999
 21
1102.0591333333332
  0
LINE
  8
_0-0_1
  6
CONTINUOUS
 62
    3
 10
1215.4704000000002
 20
1067.4493333333335
 11
1215.4704000000002
 21
1092.8732666666665
  0
ARC
  8
_0-0_1
  6
CONTINUOUS
 62
    2
 10
1215.4704000000002
 20
1091.4536000000001
 40
9.4964219999999973
 50
270
 51
348.58625999999998
  0
ARC
  8
_0-0_1
  6
CONTINUOUS
 62
    2
 10
1215.4704000000002
 20
1087.0944
 40
11.872693999999999
 50
270
 51
7.7941339999999837
  0
ARC
  8
_0-0_1
  6
CONTINUOUS
 62
    2
 10
1216.3289333333335
 20
1090.963
 40
21.694656666666667
 50
267.74394000000007
 51
344.48695000000004
  0
ARC
  8
_0-0_1
  6
CONTINUOUS
 62
    2
 10
1215.4704000000002
 20
1086.9802
 40
27.997027999999993
 50
315.76470999999998
 51
351.92912999999999
  0
ARC
  8
_0-0_1
  6
CONTINUOUS
 62
    2
 10
1211.8608666666669
 20
1079.1617333333334
 40
35.579040666666664
 50
341.46271000000002
 51
3.8850330000000159
  0
ARC
  8
_0-0_1
  6
CONTINUOUS
 62
    4
 10
1426.7016000000001
 20
1076.7677333333334
 40
3.9935999999999998
 50
199.47121999999999
 51
344.27760999999998
  0
LINE
  8
_0-0_1
  6
CONTINUOUS
 62
    4
 10
1419.0153333333333
 20
1086.0861333333335
 11
1423.0089333333333
 21
1075.2468000000001
  0
LINE
  8
_0-0_1
  6
CONTINUOUS
 62
    4
 10
1271.2798666666665
 20
1086.0861333333335
 11
1267.4876666666669
 21
1075.6855333333333
  0
LINE
  8
_0-0_1
  6
CONTINUOUS
 62
    4
 10
1431.4257333333333
 20
1078.0989333333334
 11
1430.5458000000001
 21
1075.6855333333333
  0
LINE
  8
_0-0_1
  6
CONTINUOUS
 62
    4
 10
1255.4667333333334
 20
1087.4173333333333
 11
1230.6644000000001
 21
1087.4173333333333
  0
LINE
  8
_0-0_1
  6
CONTINUOUS
 62
    4
 10
1255.4667333333334
 20
1087.4173333333333
 11
1259.9508000000001
 21
1075.2468000000001
  0
LINE
  8
_0-0_1
  6
CONTINUOUS
 62
    4
 10
1419.0153333333333
 20
1086.0861333333335
 11
1392.3913333333335
 21
1086.0861333333335
  0
LINE
  8
_0-0_1
  6
CONTINUOUS
 62
    4
 10
1387.0665333333332
 20
1086.0861333333335
 11
1355.7833333333333
 21
1086.0861333333335
  0
LINE
  8
_0-0_1
  6
CONTINUOUS
 62
    4
 10
1350.4585333333332
 20
1086.0861333333335
 11
1315.1817333333333
 21
1086.0861333333335
  0
LINE
  8
_0-0_1
  6
CONTINUOUS
 62
    4
 10
1309.8569333333332
 20
1086.0861333333335
 11
1271.2798666666665
 21
1086.0861333333335
  0
LINE
  8
_0-0_1
  6
CONTINUOUS
 62
    4
 10
1407.7139999999999
 20
1100.7293333333334
 11
1407.7139999999999
 21
1098.7325333333333
  0
LINE
  8
_0-0_1
  6
CONTINUOUS
 62
    4
 10
1357.7940000000001
 20
1098.7325333333333
 11
1407.7139999999999
 21
1098.7325333333333
  0
LINE
  8
_0-0_1
  6
CONTINUOUS
 62
    4
 10
1257.2884000000001
 20
1098.7325333333333
 11
1357.7940000000001
 21
1098.7325333333333
  0
LINE
  8
_0-0_1
  6
CONTINUOUS
 62
    4
 10
1257.2884000000001
 20
1100.7293333333334
 11
1257.2884000000001
 21
1098.7325333333333
  0
LINE
  8
_0-0_1
  6
CONTINUOUS
 62
    4
 10
1257.2884000000001
 20
1100.7293333333334
 11
1230.6644000000001
 21
1100.7293333333334
  0
LINE
  8
_0-0_1
  6
CONTINUOUS
 62
    4
 10
1309.8569333333332
 20
1086.0861333333335
 11
1309.8569333333332
 21
1078.7645333333332
  0
LINE
  8
_0-0_1
  6
CONTINUOUS
 62
    4
 10
1315.1817333333333
 20
1078.7645333333332
 11
1309.8569333333332
 21
1078.7645333333332
  0
LINE
  8
_0-0_1
  6
CONTINUOUS
 62
    4
 10
1315.1817333333333
 20
1086.0861333333335
 11
1315.1817333333333
 21
1078.7645333333332
  0
LINE
  8
_0-0_1
  6
CONTINUOUS
 62
    4
 10
1350.4585333333332
 20
1086.0861333333335
 11
1350.4585333333332
 21
1078.7645333333332
  0
LINE
  8
_0-0_1
  6
CONTINUOUS
 62
    4
 10
1355.7833333333333
 20
1078.7645333333332
 11
1350.4585333333332
 21
1078.7645333333332
  0
LINE
  8
_0-0_1
  6
CONTINUOUS
 62
    4
 10
1355.7833333333333
 20
1086.0861333333335
 11
1355.7833333333333
 21
1078.7645333333332
  0
LINE
  8
_0-0_1
  6
CONTINUOUS
 62
    4
 10
1387.0665333333332
 20
1086.0861333333335
 11
1387.0665333333332
 21
1078.7645333333332
  0
LINE
  8
_0-0_1
  6
CONTINUOUS
 62
    4
 10
1392.3913333333335
 20
1078.7645333333332
 11
1387.0665333333332
 21
1078.7645333333332
  0
LINE
  8
_0-0_1
  6
CONTINUOUS
 62
    4
 10
1392.3913333333335
 20
1078.7645333333332
 11
1392.3913333333335
 21
1086.0861333333335
  0
LINE
  8
_0-0_1
  6
CONTINUOUS
 62
    4
 10
1230.6644000000001
 20
1100.7293333333334
 11
1230.6644000000001
 21
1087.4173333333333
  0
ARC
  8
_0-0_1
  6
CONTINUOUS
 62
    4
 10
1263.5939333333336
 20
1076.7677333333334
 40
3.9935999999999998
 50
199.47121999999999
 51
344.27760999999998
  0
LINE
  8
_0-0_1
  6
CONTINUOUS
 62
    4
 10
1459.9572000000001
 20
1086.0861333333335
 11
1434.6644000000001
 21
1086.0861333333335
  0
LINE
  8
_0-0_1
  6
CONTINUOUS
 62
    4
 10
1434.6644000000001
 20
1100.7293333333334
 11
1407.7139999999999
 21
1100.7293333333334
  0
LINE
  8
_0-0_1
  6
CONTINUOUS
 62
    4
 10
1434.6644000000001
 20
1100.7293333333334
 11
1434.6644000000001
 21
1086.0861333333335
  0
LINE
  8
_0-0_1
  6
CONTINUOUS
 62
    4
 10
1459.9572000000001
 20
1078.0989333333334
 11
1431.4257333333333
 21
1078.0989333333334
  0
LINE
  8
_0-0_1
  6
CONTINUOUS
 62
    4
 10
1459.9572000000001
 20
1086.0861333333335
 11
1459.9572000000001
 21
1078.0989333333334
  0
LINE
  8
_0-0_1
  6
CONTINUOUS
 62
    2
 10
1289.1930666666667
 20
1077.4493333333335
 11
1289.1930666666667
 21
1067.4493333333335
  0
LINE
  8
_0-0_1
  6
CONTINUOUS
 62
    4
 10
1298.0047999999999
 20
1118.1885333333332
 11
1203.1722
 21
1118.1885333333332
  0
ARC
  8
_0-0_1
  6
CONTINUOUS
 62
    4
 10
1298.0047999999999
 20
1114.9629333333335
 40
3.2255999999999996
 50
0
 51
90
  0
LINE
  8
_0-0_1
  6
CONTINUOUS
 62
    4
 10
1301.2303999999999
 20
1100.7702666666667
 11
1301.2303999999999
 21
1114.9629333333335
  0
LINE
  8
_0-0_1
  6
CONTINUOUS
 62
    4
 10
1301.2303999999999
 20
1100.7702666666667
 11
1296.0694666666666
 21
1100.7702666666667
  0
LINE
  8
_0-0_1
  6
CONTINUOUS
 62
    4
 10
1296.0694666666666
 20
1102.0605333333333
 11
1296.0694666666666
 21
1100.7702666666667
  0
LINE
  8
_0-0_1
  6
CONTINUOUS
 62
    4
 10
1214.1392000000001
 20
1102.0605333333333
 11
1296.0694666666666
 21
1102.0605333333333
  0
LINE
  8
_0-0_1
  6
CONTINUOUS
 62
    4
 10
1203.1722
 20
1060.1530666666665
 11
1203.1722
 21
1118.1885333333332
  0
ARC
  8
_0-0_1
  6
CONTINUOUS
 62
    4
 10
1206.3978
 20
1060.1530666666665
 40
3.2255999999999996
 50
180
 51
270
  0
LINE
  8
_0-0_1
  6
CONTINUOUS
 62
    4
 10
1214.1392000000001
 20
1056.9274666666665
 11
1206.3978
 21
1056.9274666666665
  0
LINE
  8
_0-0_1
  6
CONTINUOUS
 62
    4
 10
1214.1392000000001
 20
1102.0605333333333
 11
1214.1392000000001
 21
1056.9274666666665
  0
LINE
  8
_0-0_1
  6
CONTINUOUS
 62
    4
 10
1434.6644000000001
 20
1100.7293333333334
 11
1434.6644000000001
 21
1087.4173333333333
  0
LINE
  8
_0-0_1
  6
DASHED1
 62
    1
 10
1218.1574666666668
 20
1085.8485333333333
 11
1220.9950000000001
 21
1086.6088
  0
LINE
  8
_0-0_1
  6
DASHED1
 62
    1
 10
1216.5287333333335
 20
1117.6285333333335
 11
1216.5287333333335
 21
1118.1885333333332
  0
LINE
  8
_0-0_1
  6
DASHED1
 62
    1
 10
1216.5287333333335
 20
1118.1885333333332
 11
1222.1037333333334
 21
1118.1885333333332
  0
LINE
  8
_0-0_1
  6
DASHED1
 62
    1
 10
1222.1037333333334
 20
1117.6285333333335
 11
1222.1037333333334
 21
1118.1885333333332
  0
LINE
  8
_0-0_1
  6
DASHED1
 62
    1
 10
1216.5287333333335
 20
1117.6285333333335
 11
1222.1037333333334
 21
1117.6285333333335
  0
LINE
  8
_0-0_1
  6
DASHED1
 62
    1
 10
1220.155
 20
1117.6285333333335
 11
1220.155
 21
1086.2685333333334
  0
LINE
  8
_0-0_1
  6
DASHED1
 62
    1
 10
1219.3150000000001
 20
1081.2285333333332
 11
1220.155
 21
1086.2685333333334
  0
LINE
  8
_0-0_1
  6
DASHED1
 62
    1
 10
1218.4750000000001
 20
1086.2685333333334
 11
1218.4750000000001
 21
1117.6285333333335
  0
LINE
  8
_0-0_1
  6
DASHED1
 62
    1
 10
1219.3150000000001
 20
1081.2285333333332
 11
1218.4750000000001
 21
1086.2685333333334
  0
LINE
  8
_0-0_1
  6
DASHED1
 62
    1
 10
1217.915
 20
1104.8235333333334
 11
1220.7150000000001
 21
1105.5737999999999
  0
LINE
  8
_0-0_1
  6
DASHED1
 62
    1
 10
1217.915
 20
1103.7035333333333
 11
1220.7150000000001
 21
1104.4538
  0
LINE
  8
_0-0_1
  6
DASHED1
 62
    1
 10
1217.915
 20
1102.5835333333334
 11
1220.7150000000001
 21
1103.3338000000001
  0
LINE
  8
_0-0_1
  6
DASHED1
 62
    1
 10
1217.915
 20
1101.4635333333333
 11
1220.7150000000001
 21
1102.2138
  0
LINE
  8
_0-0_1
  6
DASHED1
 62
    1
 10
1217.915
 20
1100.3435333333332
 11
1220.7150000000001
 21
1101.0937999999999
  0
LINE
  8
_0-0_1
  6
DASHED1
 62
    1
 10
1217.915
 20
1099.2235333333333
 11
1220.7150000000001
 21
1099.9738
  0
LINE
  8
_0-0_1
  6
DASHED1
 62
    1
 10
1217.915
 20
1098.1035333333332
 11
1220.7150000000001
 21
1098.8537999999999
  0
LINE
  8
_0-0_1
  6
DASHED1
 62
    1
 10
1217.915
 20
1096.9835333333333
 11
1220.7150000000001
 21
1097.7338
  0
LINE
  8
_0-0_1
  6
DASHED1
 62
    1
 10
1217.915
 20
1095.8635333333334
 11
1220.7150000000001
 21
1096.6137999999999
  0
LINE
  8
_0-0_1
  6
DASHED1
 62
    1
 10
1217.915
 20
1094.7435333333333
 11
1220.7150000000001
 21
1095.4938
  0
LINE
  8
_0-0_1
  6
DASHED1
 62
    1
 10
1217.915
 20
1093.6235333333334
 11
1220.7150000000001
 21
1094.3738000000001
  0
LINE
  8
_0-0_1
  6
DASHED1
 62
    1
 10
1217.915
 20
1092.5035333333333
 11
1220.7150000000001
 21
1093.2538
  0
LINE
  8
_0-0_1
  6
DASHED1
 62
    1
 10
1217.915
 20
1091.3835333333332
 11
1220.7150000000001
 21
1092.1338000000001
  0
LINE
  8
_0-0_1
  6
DASHED1
 62
    1
 10
1217.915
 20
1090.2635333333333
 11
1220.7150000000001
 21
1091.0138000000002
  0
LINE
  8
_0-0_1
  6
DASHED1
 62
    1
 10
1217.915
 20
1089.1435333333334
 11
1220.7150000000001
 21
1089.8938000000001
  0
LINE
  8
_0-0_1
  6
DASHED1
 62
    1
 10
1217.915
 20
1088.0235333333333
 11
1220.7150000000001
 21
1088.7737999999999
  0
LINE
  8
_0-0_1
  6
DASHED1
 62
    1
 10
1217.915
 20
1086.9035333333334
 11
1220.7150000000001
 21
1087.6538
  0
LINE
  8
_0-0_1
  6
DASHED1
 62
    1
 10
1235.5122000000001
 20
1073.0724
 11
1234.7518666666667
 21
1075.9099333333334
  0
LINE
  8
_0-0_1
  6
DASHED1
 62
    1
 10
1203.7322000000001
 20
1071.4436666666668
 11
1203.1722
 21
1071.4436666666668
  0
LINE
  8
_0-0_1
  6
DASHED1
 62
    1
 10
1203.1722
 20
1071.4436666666668
 11
1203.1722
 21
1077.0186666666668
  0
LINE
  8
_0-0_1
  6
DASHED1
 62
    1
 10
1203.7322000000001
 20
1077.0186666666668
 11
1203.1722
 21
1077.0186666666668
  0
LINE
  8
_0-0_1
  6
DASHED1
 62
    1
 10
1203.7322000000001
 20
1071.4436666666668
 11
1203.7322000000001
 21
1077.0186666666668
  0
LINE
  8
_0-0_1
  6
DASHED1
 62
    1
 10
1203.7322000000001
 20
1075.0699333333334
 11
1235.0922
 21
1075.0699333333334
  0
LINE
  8
_0-0_1
  6
DASHED1
 62
    1
 10
1240.1322
 20
1074.2299333333333
 11
1235.0922
 21
1075.0699333333334
  0
LINE
  8
_0-0_1
  6
DASHED1
 62
    1
 10
1235.0922
 20
1073.3899333333334
 11
1203.7322000000001
 21
1073.3899333333334
  0
LINE
  8
_0-0_1
  6
DASHED1
 62
    1
 10
1240.1322
 20
1074.2299333333333
 11
1235.0922
 21
1073.3899333333334
  0
LINE
  8
_0-0_1
  6
DASHED1
 62
    1
 10
1216.5371333333333
 20
1072.8299333333332
 11
1215.7868666666668
 21
1075.6299333333332
  0
LINE
  8
_0-0_1
  6
DASHED1
 62
    1
 10
1217.6571333333334
 20
1072.8299333333332
 11
1216.9068666666667
 21
1075.6299333333332
  0
LINE
  8
_0-0_1
  6
DASHED1
 62
    1
 10
1218.7771333333333
 20
1072.8299333333332
 11
1218.0268666666666
 21
1075.6299333333332
  0
LINE
  8
_0-0_1
  6
DASHED1
 62
    1
 10
1219.8971333333334
 20
1072.8299333333332
 11
1219.1468666666667
 21
1075.6299333333332
  0
LINE
  8
_0-0_1
  6
DASHED1
 62
    1
 10
1221.0171333333333
 20
1072.8299333333332
 11
1220.2668666666668
 21
1075.6299333333332
  0
LINE
  8
_0-0_1
  6
DASHED1
 62
    1
 10
1222.1371333333334
 20
1072.8299333333332
 11
1221.3868666666667
 21
1075.6299333333332
  0
LINE
  8
_0-0_1
  6
DASHED1
 62
    1
 10
1223.2571333333335
 20
1072.8299333333332
 11
1222.5068666666666
 21
1075.6299333333332
  0
LINE
  8
_0-0_1
  6
DASHED1
 62
    1
 10
1224.3771333333334
 20
1072.8299333333332
 11
1223.6268666666667
 21
1075.6299333333332
  0
LINE
  8
_0-0_1
  6
DASHED1
 62
    1
 10
1225.4971333333333
 20
1072.8299333333332
 11
1224.7468666666668
 21
1075.6299333333332
  0
LINE
  8
_0-0_1
  6
DASHED1
 62
    1
 10
1226.6171333333334
 20
1072.8299333333332
 11
1225.8668666666667
 21
1075.6299333333332
  0
LINE
  8
_0-0_1
  6
DASHED1
 62
    1
 10
1227.7371333333335
 20
1072.8299333333332
 11
1226.9868666666666
 21
1075.6299333333332
  0
LINE
  8
_0-0_1
  6
DASHED1
 62
    1
 10
1228.8571333333334
 20
1072.8299333333332
 11
1228.1068666666667
 21
1075.6299333333332
  0
LINE
  8
_0-0_1
  6
DASHED1
 62
    1
 10
1229.9771333333333
 20
1072.8299333333332
 11
1229.2268666666669
 21
1075.6299333333332
  0
LINE
  8
_0-0_1
  6
DASHED1
 62
    1
 10
1231.0971333333334
 20
1072.8299333333332
 11
1230.3468666666665
 21
1075.6299333333332
  0
LINE
  8
_0-0_1
  6
DASHED1
 62
    1
 10
1232.2171333333335
 20
1072.8299333333332
 11
1231.4668666666666
 21
1075.6299333333332
  0
LINE
  8
_0-0_1
  6
DASHED1
 62
    1
 10
1233.3371333333334
 20
1072.8299333333332
 11
1232.5868666666668
 21
1075.6299333333332
  0
LINE
  8
_0-0_1
  6
DASHED1
 62
    1
 10
1234.4571333333333
 20
1072.8299333333332
 11
1233.7068666666667
 21
1075.6299333333332
  0
LINE
  8
_0-0_1
  6
CONTINUOUS
 62
    2
 10
1944.8996666666665
 20
1067.4493333333335
 11
1289.1930666666667
 21
1067.4493333333335
  0
LINE
  8
_0-0_1
  6
CONTINUOUS
 62
    2
 10
1542.6384000000003
 20
1101.1938
 11
1539.1028666666668
 21
1097.6582666666668
  0
LINE
  8
_0-0_1
  6
CONTINUOUS
 62
    2
 10
1539.1028666666668
 20
1097.6582666666668
 11
1540.3969999999999
 21
1102.4878666666666
  0
LINE
  8
_0-0_1
  6
CONTINUOUS
 62
    2
 10
1539.1028666666668
 20
1097.6582666666668
 11
1567.9462000000001
 21
1147.6163333333334
  0
LINE
  8
_0-0_1
  6
CONTINUOUS
 62
    2
 10
1567.9462000000001
 20
1147.6163333333334
 11
1594.9461999999999
 21
1147.6163333333334
  0
LINE
  8
_0-0_1
  6
CONTINUOUS
 62
    2
 10
1285.1853333333333
 20
1105.5960666666667
 11
1281.6498000000001
 21
1102.0605333333333
  0
LINE
  8
_0-0_1
  6
CONTINUOUS
 62
    2
 10
1281.6498000000001
 20
1102.0605333333333
 11
1282.9439333333335
 21
1106.8901333333333
  0
LINE
  8
_0-0_1
  6
CONTINUOUS
 62
    2
 10
1281.6498000000001
 20
1102.0605333333333
 11
1314.7181999999998
 21
1159.3365999999999
  0
LINE
  8
_0-0_1
  6
CONTINUOUS
 62
    2
 10
1314.7181999999998
 20
1159.3365999999999
 11
1379.7182
 21
1159.3365999999999
  0
LINE
  8
_0-2_ADD_LINE
  6
CONTINUOUS
 62
    7
 10
1016.6692
 20
1006.6333333333334
 11
1180.6692
 21
1006.6333333333334
  0
LINE
  8
_0-2_ADD_LINE
  6
CONTINUOUS
 62
    7
 10
1180.6692
 20
1006.6333333333334
 11
1219.9937333333335
 21
1074.7453999999998
  0
LINE
  8
_0-2_ADD_LINE
  6
CONTINUOUS
 62
    7
 10
1219.9937333333335
 20
1074.7453999999998
 11
1216.4582
 21
1071.2098666666666
  0
LINE
  8
_0-2_ADD_LINE
  6
CONTINUOUS
 62
    7
 10
1219.9937333333335
 20
1074.7453999999998
 11
1218.6996000000001
 21
1069.9157333333333
  0
LINE
  8
_0-2_ADD_LINE
  6
CONTINUOUS
 62
    7
 10
1952.8465999999999
 20
1066.4493333333332
 11
1224.1392000000001
 21
1066.4493333333332
  0
LINE
  8
_0-2_ADD_LINE
  6
CONTINUOUS
 62
    7
 10
1224.1392000000001
 20
1065.4493333333332
 11
1224.1392000000001
 21
945.44933333333336
  0
LINE
  8
_0-2_ADD_LINE
  6
CONTINUOUS
 62
    7
 10
1224.1392000000001
 20
945.44933333333336
 11
1952.8465999999999
 21
945.44933333333336
  0
LINE
  8
_0-2_ADD_LINE
  6
CONTINUOUS
 62
    7
 10
1952.8465999999999
 20
938.78266666666661
 11
1230.8058666666668
 21
938.78266666666661
  0
LINE
  8
_0-2_ADD_LINE
  6
CONTINUOUS
 62
    7
 10
1230.8058666666668
 20
938.78266666666661
 11
1230.8058666666668
 21
945.44933333333336
  0
LINE
  8
_0-2_ADD_LINE
  6
CONTINUOUS
 62
    7
 10
1289.1930666666667
 20
1067.4493333333335
 11
1289.1930666666667
 21
1077.4493333333335
  0
LINE
  8
_0-2_ADD_LINE
  6
CONTINUOUS
 62
    7
 10
1289.1930666666667
 20
1077.4493333333335
 11
1952.8465999999999
 21
1077.4493333333335
  0
LINE
  8
_0-2_ADD_LINE
  6
CONTINUOUS
 62
    7
 10
1952.8465999999999
 20
1067.4493333333335
 11
1289.1930666666667
 21
1067.4493333333335
  0
LINE
  8
_0-2_ADD_LINE
  6
CONTINUOUS
 62
    7
 10
1224.1392000000001
 20
1065.4493333333332
 11
1952.8465999999999
 21
1065.4493333333332
  0
LINE
  8
_0-2_ADD_LINE
  6
CONTINUOUS
 62
    7
 10
1952.8465999999999
 20
1038.7826666666665
 11
1224.1392000000001
 21
1038.7826666666665
  0
LINE
  8
_0-2_ADD_LINE
  6
CONTINUOUS
 62
    7
 10
1302.7741333333333
 20
1050.8909999999998
 11
1309.4407999999999
 21
1050.8909999999998
  0
LINE
  8
_0-2_ADD_LINE
  6
CONTINUOUS
 62
    7
 10
1309.4407999999999
 20
1050.8909999999998
 11
1309.4407999999999
 21
1014.8785333333333
  0
LINE
  8
_0-2_ADD_LINE
  6
CONTINUOUS
 62
    7
 10
1309.4407999999999
 20
1014.8785333333333
 11
1323.6875333333332
 21
1014.8785333333333
  0
LINE
  8
_0-2_ADD_LINE
  6
CONTINUOUS
 62
    7
 10
1323.6875333333332
 20
1014.8785333333333
 11
1323.6875333333332
 21
1008.2118666666668
  0
LINE
  8
_0-2_ADD_LINE
  6
CONTINUOUS
 62
    7
 10
1323.6875333333332
 20
1008.2118666666668
 11
1302.7741333333333
 21
1008.2118666666668
  0
LINE
  8
_0-2_ADD_LINE
  6
CONTINUOUS
 62
    7
 10
1302.7741333333333
 20
1008.2118666666668
 11
1302.7741333333333
 21
1050.8414666666665
  0
LINE
  8
_0-2_ADD_LINE
  6
CONTINUOUS
 62
    7
 10
1302.7741333333333
 20
1050.8414666666665
 11
1309.4407999999999
 21
1050.8909999999998
  0
LINE
  8
_0-2_ADD_LINE
  6
CONTINUOUS
 62
    7
 10
1310.3912666666668
 20
1011.7165333333334
 11
1311.6853333333333
 21
1006.8869333333333
  0
LINE
  8
_0-2_ADD_LINE
  6
CONTINUOUS
 62
    7
 10
1310.3912666666668
 20
1011.7165333333334
 11
1313.9268000000002
 21
1008.181
  0
LINE
  8
_0-2_ADD_LINE
  6
CONTINUOUS
 62
    7
 10
1310.3912666666668
 20
1011.7165333333334
 11
1326.8101333333334
 21
983.2782666666667
  0
LINE
  8
_0-2_ADD_LINE
  6
CONTINUOUS
 62
    7
 10
1326.8101333333334
 20
983.2782666666667
 11
1366.6132666666667
 21
983.2782666666667
  0
LINE
  8
_0-2_ADD_LINE
  6
CONTINUOUS
 62
    7
 10
1400.514615097544
 20
1043.4474150975441
 11
1399.4061999999999
 21
1047.5841999999998
  0
LINE
  8
_0-2_ADD_LINE
  6
CONTINUOUS
 62
    7
 10
1399.4061999999999
 20
1047.5841999999998
 11
1402.9417333333333
 21
1044.0486000000001
  0
LINE
  8
_0-2_ADD_LINE
  6
CONTINUOUS
 62
    7
 10
1400.7002666666667
 20
1042.7545333333335
 11
1400.514615097544
 21
1043.4474150975441
  0
LINE
  8
_0-2_ADD_LINE
  6
CONTINUOUS
 62
    7
 10
1399.4061999999999
 20
1047.5841999999998
 11
1424.3812666666665
 21
1004.3260666666667
  0
LINE
  8
_0-2_ADD_LINE
  6
CONTINUOUS
 62
    7
 10
1424.3812666666665
 20
1004.3260666666667
 11
1469.5278336914373
 21
1004.3260661106031
  0
LINE
  8
_0-2_ADD_LINE
  6
CONTINUOUS
 62
    7
 10
1275.4804666666666
 20
1102.0605333333333
 11
1275.4804666666666
 21
1098.7339333333332
  0
LINE
  8
_0-2_ADD_LINE
  6
CONTINUOUS
 62
    7
 10
1291.0001999999999
 20
1102.0605333333333
 11
1291.0001999999999
 21
1098.7339333333332
  0
LINE
  8
_0-2_ADD_LINE
  6
CONTINUOUS
 62
    7
 10
1291.0001999999999
 20
1101.2277999999999
 11
1275.4804666666666
 21
1101.2277999999999
  0
LINE
  8
_0-2_ADD_LINE
  6
CONTINUOUS
 62
    7
 10
1275.4804666666666
 20
1100.3965333333333
 11
1291.0001999999999
 21
1100.3965333333333
  0
LINE
  8
_0-2_ADD_LINE
  6
CONTINUOUS
 62
    7
 10
1291.0001999999999
 20
1099.5652
 11
1275.4804666666666
 21
1099.5652
  0
LINE
  8
_0-2_ADD_LINE
  6
CONTINUOUS
 62
    7
 10
1281.6498000000001
 20
1102.0605333333333
 11
1282.9439333333335
 21
1106.8901333333333
  0
LINE
  8
_0-2_ADD_LINE
  6
CONTINUOUS
 62
    7
 10
1281.6498000000001
 20
1102.0605333333333
 11
1285.1853333333333
 21
1105.5960666666667
  0
LINE
  8
_0-2_ADD_LINE
  6
CONTINUOUS
 62
    7
 10
1281.6498000000001
 20
1102.0605333333333
 11
1314.7181999999998
 21
1159.3365999999999
  0
LINE
  8
_0-2_ADD_LINE
  6
CONTINUOUS
 62
    7
 10
1314.7181999999998
 20
1159.3365999999999
 11
1379.7182
 21
1159.3365999999999
  0
LINE
  8
_0-2_ADD_LINE
  6
CONTINUOUS
 62
    7
 10
1301.2303999999999
 20
1172.0496000000001
 11
1301.2303999999999
 21
1206.5162666666665
  0
LINE
  8
_0-2_ADD_LINE
  6
CONTINUOUS
 62
    7
 10
1301.2303999999999
 20
1205.3829333333333
 11
1203.1722
 21
1205.3829333333333
  0
LINE
  8
_0-2_ADD_LINE
  6
CONTINUOUS
 62
    7
 10
1203.1722
 20
1172.0496000000001
 11
1203.1722
 21
1240.9501333333333
  0
LINE
  8
_0-2_ADD_LINE
  6
CONTINUOUS
 62
    7
 10
1203.1722
 20
1240.9501333333333
 11
1846.6643999999999
 21
1240.9501333333333
  0
LINE
  8
_0-2_ADD_LINE
  6
CONTINUOUS
 62
    7
 10
1846.6643999999999
 20
1242.6167999999998
 11
1846.6643999999999
 21
1207.6168
  0
LINE
  8
_0-2_ADD_LINE
  6
CONTINUOUS
 62
    7
 10
1641.3310666666666
 20
1242.0834666666665
 11
1641.3310666666666
 21
1207.6168
  0
LINE
  8
_0-2_ADD_LINE
  6
CONTINUOUS
 62
    7
 10
1435.9977333333334
 20
1242.0834666666665
 11
1435.9977333333334
 21
1207.6168
  0
LINE
  8
_0-2_ADD_LINE
  6
CONTINUOUS
 62
    7
 10
1230.6644000000001
 20
1242.0834666666665
 11
1230.6644000000001
 21
1207.6168
  0
LINE
  8
_0-2_ADD_LINE
  6
CONTINUOUS
 62
    7
 10
1201.9676666666667
 20
1079.4926666666668
 11
1201.9676666666667
 21
1137.5281333333332
  0
LINE
  8
_0-2_ADD_LINE
  6
CONTINUOUS
 62
    7
 10
1201.9676666666667
 20
1137.5281333333332
 11
1296.8002666666666
 21
1137.5281333333332
  0
LINE
  8
_0-2_ADD_LINE
  6
CONTINUOUS
 62
    7
 10
1294.8649333333333
 20
1121.4001333333335
 11
1294.8649333333333
 21
1120.1098666666667
  0
LINE
  8
_0-2_ADD_LINE
  6
CONTINUOUS
 62
    7
 10
1294.8649333333333
 20
1120.1098666666667
 11
1300.0258666666668
 21
1120.1098666666667
  0
LINE
  8
_0-2_ADD_LINE
  6
CONTINUOUS
 62
    7
 10
1300.0258666666668
 20
1120.1098666666667
 11
1300.0258666666668
 21
1134.3025333333333
  0
LINE
  8
_0-2_ADD_LINE
  6
CONTINUOUS
 62
    7
 10
1294.8649333333333
 20
1121.4001333333335
 11
1212.9346666666668
 21
1121.4001333333335
  0
LINE
  8
_0-2_ADD_LINE
  6
CONTINUOUS
 62
    7
 10
1212.9346666666668
 20
1121.4001333333335
 11
1212.9346666666668
 21
1118.2325333333333
  0
LINE
  8
_0-2_ADD_LINE
  6
CONTINUOUS
 62
    7
 10
1302.6110666666668
 20
1120.1098666666667
 11
1407.7139999999999
 21
1120.1098666666667
  0
LINE
  8
_0-2_ADD_LINE
  6
CONTINUOUS
 62
    7
 10
1407.7139999999999
 20
1120.1098666666667
 11
1407.7139999999999
 21
1122.1066666666666
  0
LINE
  8
_0-2_ADD_LINE
  6
CONTINUOUS
 62
    7
 10
1407.7139999999999
 20
1122.1066666666666
 11
1434.6644000000001
 21
1122.1066666666666
  0
LINE
  8
_0-2_ADD_LINE
  6
CONTINUOUS
 62
    7
 10
1434.6644000000001
 20
1122.1066666666666
 11
1434.6644000000001
 21
1107.4634666666668
  0
LINE
  8
_0-2_ADD_LINE
  6
CONTINUOUS
 62
    7
 10
1434.6644000000001
 20
1107.4634666666668
 11
1459.9572000000001
 21
1107.4634666666668
  0
LINE
  8
_0-2_ADD_LINE
  6
CONTINUOUS
 62
    7
 10
1459.9572000000001
 20
1107.4634666666668
 11
1459.9572000000001
 21
1102.4654
  0
LINE
  8
_0-2_ADD_LINE
  6
CONTINUOUS
 62
    7
 10
1459.9572000000001
 20
1102.4654
 11
1302.6110666666668
 21
1102.4654
  0
LINE
  8
_0-2_ADD_LINE
  6
CONTINUOUS
 62
    7
 10
1435.9977333333334
 20
1122.1066666666666
 11
1435.9977333333334
 21
1108.7946666666667
  0
LINE
  8
_0-2_ADD_LINE
  6
CONTINUOUS
 62
    7
 10
1435.9977333333334
 20
1108.7946666666667
 11
1460.8000666666667
 21
1108.7946666666667
  0
LINE
  8
_0-2_ADD_LINE
  6
CONTINUOUS
 62
    7
 10
1460.8000666666667
 20
1108.7946666666667
 11
1460.8000666666667
 21
1102.4654
  0
LINE
  8
_0-2_ADD_LINE
  6
CONTINUOUS
 62
    7
 10
1460.8000666666667
 20
1102.4654
 11
1665.2905333333333
 21
1102.4654
  0
LINE
  8
_0-2_ADD_LINE
  6
CONTINUOUS
 62
    7
 10
1665.2905333333333
 20
1102.4654
 11
1665.2905333333333
 21
1107.4634666666668
  0
LINE
  8
_0-2_ADD_LINE
  6
CONTINUOUS
 62
    7
 10
1665.2905333333333
 20
1107.4634666666668
 11
1639.9977333333334
 21
1107.4634666666668
  0
LINE
  8
_0-2_ADD_LINE
  6
CONTINUOUS
 62
    7
 10
1639.9977333333334
 20
1107.4634666666668
 11
1639.9977333333334
 21
1122.1066666666666
  0
LINE
  8
_0-2_ADD_LINE
  6
CONTINUOUS
 62
    7
 10
1613.0473333333334
 20
1122.1066666666666
 11
1613.0473333333334
 21
1120.1098666666667
  0
LINE
  8
_0-2_ADD_LINE
  6
CONTINUOUS
 62
    7
 10
1613.0473333333334
 20
1120.1098666666667
 11
1462.6217333333334
 21
1120.1098666666667
  0
LINE
  8
_0-2_ADD_LINE
  6
CONTINUOUS
 62
    7
 10
1462.6217333333334
 20
1120.1098666666667
 11
1462.6217333333334
 21
1122.1066666666666
  0
LINE
  8
_0-2_ADD_LINE
  6
CONTINUOUS
 62
    7
 10
1462.6217333333334
 20
1122.1066666666666
 11
1435.9977333333334
 21
1122.1066666666666
  0
LINE
  8
_0-2_ADD_LINE
  6
CONTINUOUS
 62
    7
 10
1594.9461999999999
 20
1147.6163333333334
 11
1567.9462000000001
 21
1147.6163333333334
  0
LINE
  8
_0-2_ADD_LINE
  6
CONTINUOUS
 62
    7
 10
1567.9462000000001
 20
1147.6163333333334
 11
1539.1028666666668
 21
1097.6582666666668
  0
LINE
  8
_0-2_ADD_LINE
  6
CONTINUOUS
 62
    7
 10
1539.1028666666668
 20
1097.6582666666668
 11
1540.3909798612262
 21
1102.4654
  0
LINE
  8
_0-2_ADD_LINE
  6
CONTINUOUS
 62
    7
 10
1539.1028666666668
 20
1097.6582666666668
 11
1542.6384000000003
 21
1101.1938
  0
LINE
  8
_0-2_ADD_LINE
  6
CONTINUOUS
 62
    7
 10
1641.3310666666666
 20
1122.1066666666666
 11
1641.3310666666666
 21
1108.7946666666667
  0
LINE
  8
_0-2_ADD_LINE
  6
CONTINUOUS
 62
    7
 10
1641.3310666666666
 20
1108.7946666666667
 11
1666.1333999999999
 21
1108.7946666666667
  0
LINE
  8
_0-2_ADD_LINE
  6
CONTINUOUS
 62
    7
 10
1666.1333999999999
 20
1108.7946666666667
 11
1666.1333999999999
 21
1102.4654
  0
LINE
  8
_0-2_ADD_LINE
  6
CONTINUOUS
 62
    7
 10
1666.1333999999999
 20
1102.4654
 11
1870.6238666666668
 21
1102.4654
  0
LINE
  8
_0-2_ADD_LINE
  6
CONTINUOUS
 62
    7
 10
1870.6238666666668
 20
1102.4654
 11
1870.6238666666668
 21
1107.4634666666668
  0
LINE
  8
_0-2_ADD_LINE
  6
CONTINUOUS
 62
    7
 10
1870.6238666666668
 20
1107.4634666666668
 11
1845.3310666666664
 21
1107.4634666666668
  0
LINE
  8
_0-2_ADD_LINE
  6
CONTINUOUS
 62
    7
 10
1845.3310666666664
 20
1107.4634666666668
 11
1845.3310666666664
 21
1122.1066666666666
  0
LINE
  8
_0-2_ADD_LINE
  6
CONTINUOUS
 62
    7
 10
1845.3310666666664
 20
1122.1066666666666
 11
1818.3806666666667
 21
1122.1066666666666
  0
LINE
  8
_0-2_ADD_LINE
  6
CONTINUOUS
 62
    7
 10
1818.3806666666667
 20
1122.1066666666666
 11
1818.3806666666667
 21
1120.1098666666667
  0
LINE
  8
_0-2_ADD_LINE
  6
CONTINUOUS
 62
    7
 10
1818.3806666666667
 20
1120.1098666666667
 11
1667.9550666666669
 21
1120.1098666666667
  0
LINE
  8
_0-2_ADD_LINE
  6
CONTINUOUS
 62
    7
 10
1667.9550666666669
 20
1120.1098666666667
 11
1667.9550666666669
 21
1122.1066666666666
  0
LINE
  8
_0-2_ADD_LINE
  6
CONTINUOUS
 62
    7
 10
1667.9550666666669
 20
1122.1066666666666
 11
1641.3310666666666
 21
1122.1066666666666
  0
LINE
  8
_0-0_1
  6
CONTINUOUS
 62
    2
 10
1639.9977333333334
 20
1122.1066666666666
 11
1613.0473333333334
 21
1122.1066666666666
  0
LINE
  8
_0-2_ADD_LINE
  6
CONTINUOUS
 62
    7
 10
1613.0473333333334
 20
1122.1066666666666
 11
1639.9977333333334
 21
1122.1066666666666
  0
LINE
  8
_0-2_ADD_LINE
  6
CONTINUOUS
 62
    7
 10
1846.6643999999999
 20
1122.1066666666666
 11
1846.6643999999999
 21
1108.7946666666667
  0
LINE
  8
_0-2_ADD_LINE
  6
CONTINUOUS
 62
    7
 10
1846.6643999999999
 20
1108.7946666666667
 11
1871.4667333333332
 21
1108.7946666666667
  0
LINE
  8
_0-2_ADD_LINE
  6
CONTINUOUS
 62
    7
 10
1871.4667333333332
 20
1108.7946666666667
 11
1871.4667333333332
 21
1102.4654
  0
LINE
  8
_0-2_ADD_LINE
  6
CONTINUOUS
 62
    7
 10
1871.4667333333332
 20
1102.4654
 11
1944.8996666666665
 21
1102.4654
  0
LINE
  8
_0-2_ADD_LINE
  6
CONTINUOUS
 62
    7
 10
1846.6643999999999
 20
1122.1066666666666
 11
1873.2884000000001
 21
1122.1066666666666
  0
LINE
  8
_0-2_ADD_LINE
  6
CONTINUOUS
 62
    7
 10
1873.2884000000001
 20
1122.1066666666666
 11
1873.2884000000001
 21
1120.1098666666667
  0
LINE
  8
_0-2_ADD_LINE
  6
CONTINUOUS
 62
    7
 10
1873.2884000000001
 20
1120.1098666666667
 11
1944.8996666666665
 21
1120.1098666666667
  0
LINE
  8
_0-2_ADD_LINE
  6
CONTINUOUS
 62
    7
 10
1586.8044666666669
 20
1068.5696666666668
 11
1586.8044666666669
 21
1063.7959333333331
  0
LINE
  8
_0-2_ADD_LINE
  6
CONTINUOUS
 62
    7
 10
1586.8044666666669
 20
1068.5696666666668
 11
1589.3044666666669
 21
1064.2395333333334
  0
LINE
  8
_0-2_ADD_LINE
  6
CONTINUOUS
 62
    7
 10
1589.3044666666669
 20
1064.2395333333334
 11
1586.8044666666669
 21
1068.5696666666668
  0
LINE
  8
_0-2_ADD_LINE
  6
CONTINUOUS
 62
    7
 10
1634.9823333333334
 20
888.76733333333334
 11
1771.5308000000002
 21
888.76733333333334
  0
LINE
  8
_0-2_ADD_LINE
  6
CONTINUOUS
 62
    7
 10
1170.0414000000001
 20
1118.1885333333332
 11
1137.8414
 21
1118.1885333333332
  0
LINE
  8
_0-2_ADD_LINE
  6
CONTINUOUS
 62
    7
 10
1137.8414
 20
1118.1885333333332
 11
1135.0414000000001
 21
1118.1885333333332
  0
LINE
  8
_0-2_ADD_LINE
  6
CONTINUOUS
 62
    7
 10
1136.708066666667
 20
1118.1885333333332
 11
1136.708066666667
 21
1056.9274666666665
  0
LINE
  8
_0-2_ADD_LINE
  6
CONTINUOUS
 62
    7
 10
1135.5747333333334
 20
1056.9274666666665
 11
1170.0414000000001
 21
1056.9274666666665
  0
ARC
  8
_0-2_ADD_LINE
  6
CONTINUOUS
 62
    7
 10
1205.1375210688784
 20
1079.4659563982875
 40
3.1699669351048221
 50
179.51721775375088
 51
231.68521156346407
  0
ARC
  8
_0-2_ADD_LINE
  6
CONTINUOUS
 62
    7
 10
1296.8648391675147
 20
1134.3671058341815
 40
3.1616869639894523
 50
358.82974213927935
 51
91.170257860720682
  0
LINE
  8
_0-2_ADD_LINE
  6
CONTINUOUS
 62
    7
 10
1203.1722
 20
936.32306666666659
 11
1203.1722
 21
904.93873333333329
  0
LINE
  8
_0-2_ADD_LINE
  6
CONTINUOUS
 62
    7
 10
1203.1722
 20
906.07206666666661
 11
1224.1392000000001
 21
906.07206666666661
  0
LINE
  8
_0-2_ADD_LINE
  6
CONTINUOUS
 62
    7
 10
1224.1392000000001
 20
904.40539999999999
 11
1224.1392000000001
 21
936.32306666666659
  0
LINE
  8
_0-2_ADD_LINE
  6
CONTINUOUS
 62
    7
 10
1331.5457333333334
 20
938.78266666666661
 11
1431.5457333333334
 21
1038.7826666666665
  0
LINE
  8
_0-2_ADD_LINE
  6
CONTINUOUS
 62
    7
 10
1422.1176666666668
 20
1038.7826666666665
 11
1322.1176666666668
 21
938.78266666666661
  0
LINE
  8
_0-2_ADD_LINE
  6
CONTINUOUS
 62
    7
 10
1340.9738000000002
 20
938.78266666666661
 11
1440.9738000000002
 21
1038.7826666666665
  0
LINE
  8
_0-2_ADD_LINE
  6
CONTINUOUS
 62
    7
 10
1440.9738000000002
 20
1038.7826666666665
 11
1442.1121333333335
 21
1038.7826666666665
  0
LINE
  8
_0-2_ADD_LINE
  6
CONTINUOUS
 62
    7
 10
1629.5355999999997
 20
1038.7826666666665
 11
1529.5355999999997
 21
938.78266666666661
  0
LINE
  8
_0-2_ADD_LINE
  6
CONTINUOUS
 62
    7
 10
1538.9637333333335
 20
938.78266666666661
 11
1638.9637333333335
 21
1038.7826666666665
  0
LINE
  8
_0-2_ADD_LINE
  6
CONTINUOUS
 62
    7
 10
1648.3917999999999
 20
1038.7826666666665
 11
1548.3917999999999
 21
938.78266666666661
  0
LINE
  8
_0-2_ADD_LINE
  6
CONTINUOUS
 62
    7
 10
1702.7741333333333
 20
1050.8909999999998
 11
1709.4407999999999
 21
1050.8909999999998
  0
LINE
  8
_0-2_ADD_LINE
  6
CONTINUOUS
 62
    7
 10
1709.4407999999999
 20
1050.8909999999998
 11
1709.4407999999999
 21
1014.8785333333333
  0
LINE
  8
_0-2_ADD_LINE
  6
CONTINUOUS
 62
    7
 10
1709.4407999999999
 20
1014.8785333333333
 11
1723.6875333333332
 21
1014.8785333333333
  0
LINE
  8
_0-2_ADD_LINE
  6
CONTINUOUS
 62
    7
 10
1723.6875333333332
 20
1014.8785333333333
 11
1723.6875333333332
 21
1008.2118666666668
  0
LINE
  8
_0-2_ADD_LINE
  6
CONTINUOUS
 62
    7
 10
1723.6875333333332
 20
1008.2118666666668
 11
1702.7741333333333
 21
1008.2118666666668
  0
LINE
  8
_0-2_ADD_LINE
  6
CONTINUOUS
 62
    7
 10
1702.7741333333333
 20
1008.2118666666668
 11
1702.7741333333333
 21
1050.8909999999998
  0
LINE
  8
_0-2_ADD_LINE
  6
CONTINUOUS
 62
    7
 10
1736.9536000000003
 20
938.78266666666661
 11
1836.9535999999998
 21
1038.7826666666665
  0
LINE
  8
_0-2_ADD_LINE
  6
CONTINUOUS
 62
    7
 10
1846.3817333333332
 20
1038.7826666666665
 11
1746.3817333333332
 21
938.78266666666661
  0
LINE
  8
_0-2_ADD_LINE
  6
CONTINUOUS
 62
    7
 10
1755.8098
 20
938.78266666666661
 11
1855.8098
 21
1038.7826666666665
  0
TEXT
  8
_0-0_1
 62
    7
 10
1516.7496566777172
 20
1248.2612808349468
 40
20
 41
1
 50
0
  1
308
  0
TEXT
  8
_0-0_1
 62
    7
 10
1737.9662956464017
 20
1248.2612808349468
 40
20
 41
1
 50
0
  1
308
  0
TEXT
  8
_0-0_1
 62
    7
 10
1317.7115496364843
 20
1244.8491989999543
 40
20
 41
1
 50
0
  1
308
  0
TEXT
  8
_0-0_1
 62
    7
 10
1251.7446341599614
 20
1208.4536594267001
 40
20
 41
1
 50
0
  1
147
  0
TEXT
  8
_0-0_1
 62
    7
 10
1134.0278108527179
 20
1079.3632300028148
 40
20
 41
1
 50
90
  1
92
  0
TEXT
  8
_0-0_1
 62
    7
 10
1204.5441687758976
 20
1248.8299611407788
 40
20
 41
1
 50
0
  1
41
  0
TEXT
  8
_0-0_1
 62
    7
 10
1199.9947263292408
 20
873.50095929159681
 40
20
 41
1
 50
0
  1
90
  0
TEXT
  8
_0-0_1
 62
    7
 10
1434.1676161489891
 20
1006.4834678262464
 40
20
 41
1
 50
0
  1
溶接金網
  0
TEXT
  8
_0-0_1
 62
    7
 10
1319.7839596934973
 20
1160.7439953396165
 40
20
 41
1
 50
0
  1
弾性シール材
  0
TEXT
  8
_0-0_1
 62
    7
 10
1566.3909254461635
 20
1153.398255934218
 40
20
 41
1
 50
0
  1
桟　瓦
  0
TEXT
  8
_0-0_1
 62
    7
 10
1651.3916242800613
 20
833.33389612756582
 40
20
 41
1
 50
0
  1
パーライト系モルタルｔ＝４０
  0
TEXT
  8
_0-0_1
 62
    7
 10
1332.3766558170373
 20
984.4462496100507
 40
20
 41
1
 50
0
  1
アンカー
  0
LINE
  8
_0-0_1
  6
CONTINUOUS
 62
    7
 10
1016.6692
 20
1006.6333333333334
 11
910.52133567843362
 21
1006.6333333333334
  0
LINE
  8
_0-0_1
  6
CONTINUOUS
 62
    7
 10
1379.7182
 20
1159.3365999999999
 11
1466.6987478014687
 21
1159.3365999999999
  0
LINE
  8
_0-0_1
  6
CONTINUOUS
 62
    7
 10
1594.9461999999999
 20
1147.6163333333334
 11
1634.6013627820073
 21
1147.6163333333334
  0
LINE
  8
_0-0_1
  6
CONTINUOUS
 62
    7
 10
1464.3812666666665
 20
1004.3260666666667
 11
1522.3164890137721
 21
1004.3260666666667
  0
LINE
  8
_0-0_1
  6
CONTINUOUS
 62
    7
 10
1366.6132666666667
 20
983.2782666666667
 11
1420.5255286818203
 21
983.2782666666667
  0
LINE
  8
_0-0_1
  6
CONTINUOUS
 62
    7
 10
1771.5308000000002
 20
888.76733333333334
 11
1867.566241067505
 21
888.76733333333334
  0
LINE
  8
_0-0_1
  6
CONTINUOUS
 62
    7
 10
1643.0872760972979
 20
858.51928837464652
 11
1944.171809152376
 21
858.51928837464652
  0
LINE
  8
_0-0_1
  6
CONTINUOUS
 62
    2
 10
1586.8044666666669
 20
1068.5696666666668
 11
1643.0872760972979
 21
858.51928837464652
  0
LINE
  8
_0-2_ADD_LINE
  6
CONTINUOUS
 62
    7
 10
1586.8044666666669
 20
1068.5696666666668
 11
1650.6792296290166
 21
830.18572209668059
  0
LINE
  8
_0-0_1
  6
CONTINUOUS
 62
    7
 10
1650.6792296290166
 20
830.18572209668059
 11
1966.2090273685717
 21
830.18572209668059
  0
TEXT
  8
_0-0_1
 62
    7
 10
908.39965134310842
 20
1012.5740683172036
 40
20
 41
1
 50
0
  1
登り淀：50x60（防腐処理）
  0
TEXT
  8
_0-0_1
 62
    7
 10
1635.67067927773
 20
896.77558039552878
 40
20
 41
1
 50
0
  1
瓦桟：１５ｘ３０以上
  0
TEXT
  8
_0-0_1
 62
    7
 10
1646.1446675619195
 20
860.61807106190327
 40
20
 41
1
 50
0
  1
下葺材：ルーフィング
  0
ENDSEC
  0
EOF
