  0
SECTION
  2
HEADER
  9
$ACADVER
  1
AC1009
  9
$INSBASE
 10
0
 20
0
 30
0
  9
$EXTMIN
 10
0
 20
0
  9
$EXTMAX
 10
2970
 20
2100
  9
$LIMMIN
 10
0
 20
0
  9
$LIMMAX
 10
2970
 20
2100
  9
$LTSCALE
 40
10
  0
ENDSEC
  0
SECTION
  2
TABLES
  0
TABLE
  2
LTYPE
 70
     9
  0
LTYPE
  2
CONTINUOUS
 70
    64
  3
実線
 72
    65
 73
     0
 40
0.0
  0
LTYPE
  2
DASHED1
 70
    64
  3
--  --  --  --  --  --  --  --  
 72
    65
 73
     2
 40
2.5
 49
1.25
 49
-1.25
  0
LTYPE
  2
DASHED2
 70
    64
  3
----    ----    ----    ----    
 72
    65
 73
     2
 40
5.0
 49
2.5
 49
-2.5
  0
LTYPE
  2
DASHED3
 70
    64
  3
------  ------  ------  ------  
 72
    65
 73
     2
 40
5.0
 49
3.75
 49
-1.25
  0
LTYPE
  2
CENTER1
 70
    64
  3
----- - ----- - ----- - ----- - 
 72
    65
 73
     4
 40
10.0
 49
6.25
 49
-1.25
 49
1.25
 49
-1.25
  0
LTYPE
  2
CENTER2
 70
    64
  3
----------  --  ----------  --  
 72
    65
 73
     4
 40
20.0
 49
12.5
 49
-2.5
 49
2.5
 49
-2.5
  0
LTYPE
  2
PHANTOM1
 70
    64
  3
--- - - --- - - --- - - --- - - 
 72
    65
 73
     6
 40
10.0
 49
3.25
 49
-1.25
 49
1.25
 49
-1.25
 49
1.25
 49
-1.25
  0
LTYPE
  2
PHANTOM2
 70
    64
  3
--------  -  -  --------  -  -  
 72
    65
 73
     6
 40
20.0
 49
10.0
 49
-2.5
 49
1.25
 49
-2.5
 49
1.25
 49
-2.5
  0
LTYPE
  2
DOT
 70
    64
  3
-   -   -   -   -   -   -   -   
 72
    65
 73
     2
 40
2.5
 49
0.625
 49
-1.875
  0
LTYPE
  2
DUMMY
 70
    64
  3
ダミー
 72
    65
 73
     0
 40
0.0
  0
LTYPE
  2
RAND1
 70
    64
  3
ランダム線1
 72
    65
 73
     4
 40
10.0
 49
1.0
 49
-2.0
 49
3.0
 49
-4.0
  0
LTYPE
  2
RAND2
 70
    64
  3
ランダム線2
 72
    65
 73
     4
 40
14.0
 49
2.0
 49
-3.0
 49
4.0
 49
-5.0
  0
LTYPE
  2
RAND3
 70
    64
  3
ランダム線3
 72
    65
 73
     4
 40
18.0
 49
3.0
 49
-4.0
 49
5.0
 49
-6.0
  0
LTYPE
  2
RAND4
 70
    64
  3
ランダム線4
 72
    65
 73
     4
 40
22.0
 49
4.0
 49
-5.0
 49
6.0
 49
-7.0
  0
LTYPE
  2
RAND5
 70
    64
  3
ランダム線5
 72
    65
 73
     4
 40
26.0
 49
5.0
 49
-6.0
 49
7.0
 49
-8.0
  0
LTYPE
  2
LONG1
 70
    64
  3
----------  --  ----------  --  
 72
    65
 73
     4
 40
40.0
 49
32.5
 49
-2.5
 49
2.5
 49
-2.5
  0
LTYPE
  2
LONG2
 70
    64
  3
--------  -  -  --------  -  -  
 72
    65
 73
     6
 40
40.0
 49
30.0
 49
-2.5
 49
1.25
 49
-2.5
 49
1.25
 49
-2.5
  0
LTYPE
  2
LONG3
 70
    64
  3
+++++++++++++++..+++++++++++++++
 72
    65
 73
     2
 40
40.0
 49
37.5
 49
-2.5
  0
LTYPE
  2
LONG4
 70
    64
  3
+++++++++++++++..+++++++++++++++
 72
    65
 73
     2
 40
80.0
 49
75.0
 49
-5.0
  0
LTYPE
  2
LONG5
 70
    64
  3
----------  --  ----------  --  
 72
    65
 73
     4
 40
60.0
 49
37.5
 49
-7.5
 49
7.5
 49
-7.5
  0
LTYPE
  2
dashed
 70
   64
  3
-------   -------------   ------
 72
   65
 73
    2
 40
7.5
 49
6
 49
-1.5
  0
LTYPE
  2
dashed_spaced
 70
   64
  3
----        --------        ----
 72
   65
 73
    2
 40
12
 49
6
 49
-6
  0
LTYPE
  2
long_dashed_dotted
 70
   64
  3
------------- --- --------------
 72
   65
 73
    4
 40
15.25
 49
12
 49
-1.5
 49
0.25
 49
-1.5
  0
LTYPE
  2
long_dashed_double-dotted
 70
   64
  3
----------- --- --- ------------
 72
   65
 73
    6
 40
17
 49
12
 49
-1.5
 49
0.25
 49
-1.5
 49
0.25
 49
-1.5
  0
LTYPE
  2
long_dashed_triplicate-dotted
 70
   64
  3
--------- --- --- --- ----------
 72
   65
 73
    8
 40
18.75
 49
12
 49
-1.5
 49
0.25
 49
-1.5
 49
0.25
 49
-1.5
 49
0.25
 49
-1.5
  0
LTYPE
  2
dotted
 70
   64
  3
   -       -       -       -    
 72
   65
 73
    2
 40
1.75
 49
0.25
 49
-1.5
  0
LTYPE
  2
chain
 70
   64
  3
-------------- -- --------------
 72
   65
 73
    4
 40
18.5
 49
12
 49
-1.5
 49
3.5
 49
-1.5
  0
LTYPE
  2
chain_double_dash
 70
   64
  3
------------ -- -- -------------
 72
   65
 73
    6
 40
23.5
 49
12
 49
-1.5
 49
3.5
 49
-1.5
 49
3.5
 49
-1.5
  0
LTYPE
  2
dashed_dotted
 70
   64
  3
-----------     -     ----------
 72
   65
 73
    4
 40
9.25
 49
6
 49
-1.5
 49
0.25
 49
-1.5
  0
LTYPE
  2
double-dashed_dotted
 70
   64
  3
------   -----------   -   -----
 72
   65
 73
    6
 40
16.75
 49
6
 49
-1.5
 49
6
 49
-1.5
 49
0.25
 49
-1.5
  0
LTYPE
  2
dashed_double-dotted
 70
   64
  3
---------    -    -    ---------
 72
   65
 73
    6
 40
11
 49
6
 49
-1.5
 49
0.25
 49
-1.5
 49
0.25
 49
-1.5
  0
LTYPE
  2
double-dashed_double-dotted
 70
   64
  3
-----   ---------   -   -   ----
 72
   65
 73
    8
 40
18.5
 49
6
 49
-1.5
 49
6
 49
-1.5
 49
0.25
 49
-1.5
 49
0.25
 49
-1.5
  0
LTYPE
  2
dashed_triplicate-dotted
 70
   64
  3
-------    -    -    -    ------
 72
   65
 73
    8
 40
12.75
 49
6
 49
-1.5
 49
0.25
 49
-1.5
 49
0.25
 49
-1.5
 49
0.25
 49
-1.5
  0
LTYPE
  2
double-dashed_triplicate-dotted
 70
   64
  3
-----  ---------  -  -  -  -----
 72
   65
 73
   10
 40
20.25
 49
6
 49
-1.5
 49
6
 49
-1.5
 49
0.25
 49
-1.5
 49
0.25
 49
-1.5
 49
0.25
 49
-1.5
  0
LTYPE
  2
undefined
 70
   64
  3
--------------------------------
 72
   65
 73
    0
 40
0
  0
ENDTAB
  0
TABLE
  2
STYLE
  5
3
100
AcDbSymbolTable
 70
     1
  0
STYLE
  5
10
100
AcDbSymbolTableRecord
100
AcDbTextStyleTableRecord
  2
STANDARD
 70
     0
 40
0.0
 41
1.0
 50
0.0
 71
     0
 42
0.2
  3
txt
  4
bigfont.shx
  0
STYLE
  5
26
100
AcDbSymbolTableRecord
100
AcDbTextStyleTableRecord
  2
TATEGAKI
 70
    68
 40
0.0
 41
1.0
 50
0.0
 71
     0
 42
1.0
  3
txt
  4
bigfont.shx
  0
ENDTAB
  0
TABLE
  2
LAYER
 70
    3
  0
LAYER
  2
_0-0_LAYER001
 70
   64
 62
    7
  6
CONTINUOUS
  0
LAYER
  2
_0-1_ADD_LINE
 70
   64
 62
    7
  6
CONTINUOUS
  0
LAYER
  2
ADD_LINE
 70
   64
 62
    7
  6
CONTINUOUS
  0
ENDTAB
  0
ENDSEC
  0
SECTION
  2
BLOCKS
  0
ENDSEC
  0
SECTION
  2
ENTITIES
  0
LINE
  8
_0-0_LAYER001
  6
CONTINUOUS
 62
    2
 10
1722.0462
 20
1025.2124666666666
 11
1722.0462
 21
1015.2124666666667
  0
LINE
  8
_0-0_LAYER001
  6
CONTINUOUS
 62
    2
 10
1728.6808666666666
 20
1019.8791333333334
 11
1733.9724666666666
 21
1019.8791333333334
  0
LINE
  8
_0-0_LAYER001
  6
CONTINUOUS
 62
    2
 10
1728.6808666666666
 20
1015.2124666666667
 11
1728.6808666666666
 21
1019.8791333333334
  0
LINE
  8
_0-0_LAYER001
  6
CONTINUOUS
 62
    2
 10
1788.6808666666666
 20
1015.2124666666667
 11
1788.6808666666666
 21
1113.2124666666666
  0
LINE
  8
_0-0_LAYER001
  6
CONTINUOUS
 62
    2
 10
1722.0462
 20
1025.2124666666666
 11
1011.1877333333334
 21
1025.2124666666666
  0
LINE
  8
_0-0_LAYER001
  6
CONTINUOUS
 62
    2
 10
1722.0462
 20
1015.2124666666667
 11
1011.1877333333334
 21
1015.2124666666667
  0
LINE
  8
_0-0_LAYER001
  6
CONTINUOUS
 62
    2
 10
1788.6808666666666
 20
1015.2124666666667
 11
1728.6808666666666
 21
1015.2124666666667
  0
LINE
  8
_0-0_LAYER001
  6
CONTINUOUS
 62
    2
 10
1722.0462
 20
1015.2124666666667
 11
1011.1877333333334
 21
1015.2124666666667
  0
LINE
  8
_0-0_LAYER001
  6
DASHED3
 62
    2
 10
1789.6808666666666
 20
1014.2124666666667
 11
1011.1877333333334
 21
1014.2124666666667
  0
LINE
  8
_0-0_LAYER001
  6
CONTINUOUS
 62
    2
 10
1788.6808666666666
 20
938.38513333333344
 11
1788.6808666666666
 21
956.7184666666667
  0
CIRCLE
  8
_0-0_LAYER001
  6
CONTINUOUS
 62
    2
 10
1788.6808666666666
 20
940.05179999999996
 40
1.1333333333333331
  0
LINE
  8
_0-0_LAYER001
  6
CONTINUOUS
 62
    2
 10
1788.6808666666666
 20
940.05179999999996
 11
1728.6808666666666
 21
940.05179999999996
  0
CIRCLE
  8
_0-0_LAYER001
  6
CONTINUOUS
 62
    2
 10
1728.6808666666666
 20
940.05179999999996
 40
1.1333333333333331
  0
LINE
  8
_0-0_LAYER001
  6
CONTINUOUS
 62
    2
 10
1728.6808666666666
 20
938.38513333333344
 11
1728.6808666666666
 21
956.7184666666667
  0
LINE
  8
_0-0_LAYER001
  6
CONTINUOUS
 62
    2
 10
1790.6808666666666
 20
913.21246666666661
 11
1011.1877333333334
 21
913.21246666666661
  0
LINE
  8
_0-0_LAYER001
  6
CONTINUOUS
 62
    2
 10
1771.9957999999999
 20
1010.9592666666667
 11
1770.7017333333333
 21
1015.7888666666666
  0
LINE
  8
_0-0_LAYER001
  6
CONTINUOUS
 62
    2
 10
1770.7017333333333
 20
1015.7888666666666
 11
1774.2372666666665
 21
1012.2533333333333
  0
LINE
  8
_0-0_LAYER001
  6
CONTINUOUS
 62
    2
 10
1770.7017333333333
 20
1015.7888666666666
 11
1826.1008666666667
 21
919.83473333333336
  0
LINE
  8
_0-0_LAYER001
  6
CONTINUOUS
 62
    2
 10
1826.1008666666667
 20
919.83473333333336
 11
1960.1008666666667
 21
919.83473333333336
  0
LINE
  8
_0-0_LAYER001
  6
CONTINUOUS
 62
    2
 10
1602.3707999999999
 20
913.21246666666661
 11
1702.3707999999999
 21
1013.2124666666666
  0
LINE
  8
_0-0_LAYER001
  6
CONTINUOUS
 62
    2
 10
1394.9528
 20
913.21246666666661
 11
1494.9528
 21
1013.2124666666666
  0
LINE
  8
_0-0_LAYER001
  6
CONTINUOUS
 62
    2
 10
1187.5348000000001
 20
913.21246666666661
 11
1287.5347999999999
 21
1013.2124666666666
  0
LINE
  8
_0-0_LAYER001
  6
CONTINUOUS
 62
    2
 10
1011.1877333333334
 20
944.2833333333333
 11
1080.1168
 21
1013.2124666666666
  0
LINE
  8
_0-0_LAYER001
  6
CONTINUOUS
 62
    2
 10
1592.9427333333333
 20
913.21246666666661
 11
1692.9427333333333
 21
1013.2124666666666
  0
LINE
  8
_0-0_LAYER001
  6
CONTINUOUS
 62
    2
 10
1385.5247333333332
 20
913.21246666666661
 11
1485.5247333333332
 21
1013.2124666666666
  0
LINE
  8
_0-0_LAYER001
  6
CONTINUOUS
 62
    2
 10
1178.1067333333335
 20
913.21246666666661
 11
1278.1067333333335
 21
1013.2124666666666
  0
LINE
  8
_0-0_LAYER001
  6
CONTINUOUS
 62
    2
 10
1011.1877333333334
 20
953.71139999999991
 11
1070.6887333333334
 21
1013.2124666666666
  0
LINE
  8
_0-0_LAYER001
  6
CONTINUOUS
 62
    2
 10
1583.5146
 20
913.21246666666661
 11
1683.5146
 21
1013.2124666666666
  0
LINE
  8
_0-0_LAYER001
  6
CONTINUOUS
 62
    2
 10
1376.0965999999999
 20
913.21246666666661
 11
1476.0965999999999
 21
1013.2124666666666
  0
LINE
  8
_0-0_LAYER001
  6
CONTINUOUS
 62
    2
 10
1168.6786666666667
 20
913.21246666666661
 11
1268.6786666666667
 21
1013.2124666666666
  0
LINE
  8
_0-0_LAYER001
  6
CONTINUOUS
 62
    2
 10
1011.1877333333334
 20
963.13953333333325
 11
1061.2606666666668
 21
1013.2124666666666
  0
LINE
  8
_0-0_LAYER001
  6
CONTINUOUS
 62
    2
 10
1790.6808666666666
 20
1101.5225333333333
 11
1846.8036666666667
 21
1157.6452666666667
  0
LINE
  8
_0-0_LAYER001
  6
CONTINUOUS
 62
    2
 10
1790.6808666666666
 20
1110.9505999999999
 11
1846.3947333333331
 21
1166.6644666666666
  0
LINE
  8
_0-0_LAYER001
  6
CONTINUOUS
 62
    2
 10
1790.6808666666666
 20
1120.3787333333332
 11
1836.9666000000002
 21
1166.6644666666666
  0
LINE
  8
_0-0_LAYER001
  6
CONTINUOUS
 62
    2
 10
1790.6808666666666
 20
1013.2124666666666
 11
1011.1877333333334
 21
1013.2124666666666
  0
LINE
  8
_0-0_LAYER001
  6
CONTINUOUS
 62
    2
 10
1349.8262
 20
827.60566666666682
 11
1510.0563999999999
 21
827.60566666666682
  0
LINE
  8
_0-0_LAYER001
  6
CONTINUOUS
 62
    2
 10
1298.6532
 20
1013.5858666666667
 11
1298.6532
 21
1018.5858666666667
  0
LINE
  8
_0-0_LAYER001
  6
CONTINUOUS
 62
    2
 10
1298.6532
 20
1018.5858666666667
 11
1301.1532
 21
1014.2557333333333
  0
LINE
  8
_0-0_LAYER001
  6
CONTINUOUS
 62
    2
 10
1298.6532
 20
1018.5858666666667
 11
1349.8262
 21
827.60566666666682
  0
LINE
  8
_0-0_LAYER001
  6
CONTINUOUS
 62
    2
 10
1344.4706666666666
 20
847.59293333333335
 11
1481.0191333333332
 21
847.59293333333335
  0
TEXT
  8
_0-0_LAYER001
 62
    7
 10
1341.9706666666666
 20
846.75960000000009
 40
15
 41
1
 50
0
  1
　
  0
LINE
  8
_0-0_LAYER001
  6
CONTINUOUS
 62
    2
 10
1715.7488666666668
 20
1078.1104666666668
 11
1715.7488666666668
 21
1086.5457999999999
  0
LINE
  8
_0-0_LAYER001
  6
CONTINUOUS
 62
    2
 10
1715.7488666666668
 20
1086.5457999999999
 11
1779.1628666666666
 21
1086.5457999999999
  0
LINE
  8
_0-0_LAYER001
  6
CONTINUOUS
 62
    2
 10
1779.1628666666666
 20
1086.5457999999999
 11
1779.1628666666666
 21
1153.2124666666666
  0
LINE
  8
_0-0_LAYER001
  6
CONTINUOUS
 62
    2
 10
1779.1628666666666
 20
1153.2124666666666
 11
1787.9868666666666
 21
1153.2124666666666
  0
LINE
  8
_0-0_LAYER001
  6
CONTINUOUS
 62
    2
 10
1787.9868666666666
 20
1153.2124666666666
 11
1787.9868666666666
 21
1163.2124666666666
  0
LINE
  8
_0-0_LAYER001
  6
CONTINUOUS
 62
    2
 10
1777.3475333333331
 20
1166.5458000000001
 11
1790.6808666666666
 21
1166.5458000000001
  0
ARC
  8
_0-0_LAYER001
  6
CONTINUOUS
 62
    2
 10
1765.1135999999999
 20
1159.7828
 40
15.509739333333332
 50
334.93604999999997
 51
25.380978999999996
  0
LINE
  8
_0-0_LAYER001
  6
CONTINUOUS
 62
    1
 10
1787.5450000000001
 20
1166.1151333333332
 11
1785.3351333333333
 21
1166.1151333333332
  0
LINE
  8
_0-0_LAYER001
  6
CONTINUOUS
 62
    1
 10
1785.3351333333333
 20
1166.1151333333332
 11
1785.3351333333333
 21
1153.452
  0
LINE
  8
_0-0_LAYER001
  6
CONTINUOUS
 62
    1
 10
1785.3351333333333
 20
1153.452
 11
1787.5450000000001
 21
1153.452
  0
LINE
  8
_0-0_LAYER001
  6
CONTINUOUS
 62
    1
 10
1787.5450000000001
 20
1153.452
 11
1787.5450000000001
 21
1166.1151333333332
  0
LINE
  8
_0-0_LAYER001
  6
CONTINUOUS
 62
    1
 10
1785.3351333333333
 20
1166.1151333333332
 11
1787.5450000000001
 21
1153.452
  0
LINE
  8
_0-0_LAYER001
  6
CONTINUOUS
 62
    1
 10
1780.3200000000002
 20
1153.452
 11
1779.5804666666666
 21
1154.1915999999999
  0
LINE
  8
_0-0_LAYER001
  6
CONTINUOUS
 62
    1
 10
1782.6770666666666
 20
1153.452
 11
1780.1497333333332
 21
1155.9793333333334
  0
LINE
  8
_0-0_LAYER001
  6
CONTINUOUS
 62
    1
 10
1785.0340666666668
 20
1153.452
 11
1780.5169333333333
 21
1157.9691333333333
  0
LINE
  8
_0-0_LAYER001
  6
CONTINUOUS
 62
    1
 10
1785.3351333333333
 20
1155.508
 11
1780.6169999999997
 21
1160.2261333333333
  0
LINE
  8
_0-0_LAYER001
  6
CONTINUOUS
 62
    1
 10
1785.3351333333333
 20
1157.8650666666667
 11
1780.3085999999998
 21
1162.8915333333334
  0
LINE
  8
_0-0_LAYER001
  6
CONTINUOUS
 62
    1
 10
1785.3351333333333
 20
1160.2220666666667
 11
1779.1263333333334
 21
1166.4308666666668
  0
LINE
  8
_0-0_LAYER001
  6
CONTINUOUS
 62
    1
 10
1785.3351333333333
 20
1162.5790666666667
 11
1781.4833333333331
 21
1166.4308666666668
  0
LINE
  8
_0-0_LAYER001
  6
CONTINUOUS
 62
    1
 10
1785.3351333333333
 20
1164.9361333333334
 11
1783.8403333333331
 21
1166.4308666666668
  0
LINE
  8
_0-0_LAYER001
  6
CONTINUOUS
 62
    2
 10
1740.3005333333335
 20
1084.6311333333333
 11
1740.3005333333335
 21
1079.6311333333333
  0
LINE
  8
_0-0_LAYER001
  6
CONTINUOUS
 62
    2
 10
1740.3005333333335
 20
1079.6311333333333
 11
1737.8005333333335
 21
1083.9612666666667
  0
LINE
  8
_0-0_LAYER001
  6
CONTINUOUS
 62
    2
 10
1740.3005333333335
 20
1079.6311333333333
 11
1718.4049333333332
 21
1161.3466666666666
  0
LINE
  8
_0-0_LAYER001
  6
CONTINUOUS
 62
    2
 10
1718.4049333333332
 20
1161.3466666666666
 11
1653.4049333333332
 21
1161.3466666666666
  0
LINE
  8
_0-0_LAYER001
  6
CONTINUOUS
 62
    2
 10
1779.1628666666666
 20
1122.1704666666667
 11
1779.1628666666666
 21
1103.8371333333334
  0
CIRCLE
  8
_0-0_LAYER001
  6
CONTINUOUS
 62
    2
 10
1779.1628666666666
 20
1120.5038
 40
1.1333333333333331
  0
LINE
  8
_0-0_LAYER001
  6
CONTINUOUS
 62
    2
 10
1779.1628666666666
 20
1120.5038
 11
1715.7488666666668
 21
1120.5038
  0
CIRCLE
  8
_0-0_LAYER001
  6
CONTINUOUS
 62
    2
 10
1715.7488666666668
 20
1120.5038
 40
1.1333333333333331
  0
LINE
  8
_0-0_LAYER001
  6
CONTINUOUS
 62
    2
 10
1715.7488666666668
 20
1122.1704666666667
 11
1715.7488666666668
 21
1103.8371333333334
  0
LINE
  8
_0-0_LAYER001
  6
CONTINUOUS
 62
    2
 10
1654.3449999999998
 20
1086.5457999999999
 11
1689.3449999999998
 21
1086.5457999999999
  0
CIRCLE
  8
_0-0_LAYER001
  6
CONTINUOUS
 62
    2
 10
1656.0116666666668
 20
1086.5457999999999
 40
1.1333333333333331
  0
LINE
  8
_0-0_LAYER001
  6
CONTINUOUS
 62
    2
 10
1656.0116666666668
 20
1086.5457999999999
 11
1656.0116666666668
 21
1153.2124666666666
  0
CIRCLE
  8
_0-0_LAYER001
  6
CONTINUOUS
 62
    2
 10
1656.0116666666668
 20
1153.2124666666666
 40
1.1333333333333331
  0
LINE
  8
_0-0_LAYER001
  6
CONTINUOUS
 62
    2
 10
1654.3449999999998
 20
1153.2124666666666
 11
1689.3449999999998
 21
1153.2124666666666
  0
LINE
  8
_0-0_LAYER001
  6
CONTINUOUS
 62
    2
 10
1735.4714666666666
 20
1086.5457999999999
 11
1753.1887333333334
 21
1086.5457999999999
  0
LINE
  8
_0-0_LAYER001
  6
CONTINUOUS
 62
    2
 10
1753.1887333333334
 20
1086.5457999999999
 11
1753.1887333333334
 21
1069.8428666666669
  0
LINE
  8
_0-0_LAYER001
  6
CONTINUOUS
 62
    2
 10
1735.4714666666666
 20
1069.8428666666669
 11
1735.4714666666666
 21
1086.5457999999999
  0
LINE
  8
_0-0_LAYER001
  6
CONTINUOUS
 62
    1
 10
1737.0498
 20
1069.8428666666669
 11
1735.4714666666666
 21
1071.4212
  0
LINE
  8
_0-0_LAYER001
  6
CONTINUOUS
 62
    1
 10
1739.4068000000002
 20
1069.8428666666669
 11
1735.4714666666666
 21
1073.7782
  0
LINE
  8
_0-0_LAYER001
  6
CONTINUOUS
 62
    1
 10
1741.7637999999999
 20
1069.8428666666669
 11
1735.4714666666666
 21
1076.1352000000002
  0
LINE
  8
_0-0_LAYER001
  6
CONTINUOUS
 62
    1
 10
1744.1208666666669
 20
1069.8428666666669
 11
1735.4714666666666
 21
1078.4922666666666
  0
LINE
  8
_0-0_LAYER001
  6
CONTINUOUS
 62
    1
 10
1746.4778666666666
 20
1069.8428666666669
 11
1735.4714666666666
 21
1080.8492666666666
  0
LINE
  8
_0-0_LAYER001
  6
CONTINUOUS
 62
    1
 10
1748.8348666666666
 20
1069.8428666666669
 11
1735.4714666666666
 21
1083.2062666666666
  0
LINE
  8
_0-0_LAYER001
  6
CONTINUOUS
 62
    1
 10
1751.1919333333333
 20
1069.8428666666669
 11
1735.4714666666666
 21
1085.5633333333335
  0
LINE
  8
_0-0_LAYER001
  6
CONTINUOUS
 62
    1
 10
1753.1887333333334
 20
1070.2030666666665
 11
1736.846
 21
1086.5457999999999
  0
LINE
  8
_0-0_LAYER001
  6
CONTINUOUS
 62
    1
 10
1753.1887333333334
 20
1072.5600666666667
 11
1739.203
 21
1086.5457999999999
  0
LINE
  8
_0-0_LAYER001
  6
CONTINUOUS
 62
    1
 10
1753.1887333333334
 20
1074.9171333333334
 11
1741.5600666666664
 21
1086.5457999999999
  0
LINE
  8
_0-0_LAYER001
  6
CONTINUOUS
 62
    1
 10
1753.1887333333334
 20
1077.2741333333333
 11
1743.9170666666666
 21
1086.5457999999999
  0
LINE
  8
_0-0_LAYER001
  6
CONTINUOUS
 62
    1
 10
1753.1887333333334
 20
1079.6311333333333
 11
1746.2741333333333
 21
1086.5457999999999
  0
LINE
  8
_0-0_LAYER001
  6
CONTINUOUS
 62
    1
 10
1753.1887333333334
 20
1081.9882
 11
1748.6311333333333
 21
1086.5457999999999
  0
LINE
  8
_0-0_LAYER001
  6
CONTINUOUS
 62
    1
 10
1753.1887333333334
 20
1084.3452
 11
1750.9881333333333
 21
1086.5457999999999
  0
LINE
  8
_0-0_LAYER001
  6
CONTINUOUS
 62
    1
 10
1753.1887333333334
 20
1070.2030666666665
 11
1752.8284666666664
 21
1069.8428666666669
  0
LINE
  8
_0-0_LAYER001
  6
CONTINUOUS
 62
    1
 10
1753.1887333333334
 20
1072.5600666666667
 11
1750.4714666666666
 21
1069.8428666666669
  0
LINE
  8
_0-0_LAYER001
  6
CONTINUOUS
 62
    1
 10
1753.1887333333334
 20
1074.9171333333334
 11
1748.1144666666664
 21
1069.8428666666669
  0
LINE
  8
_0-0_LAYER001
  6
CONTINUOUS
 62
    1
 10
1753.1887333333334
 20
1077.2741333333333
 11
1745.7574
 21
1069.8428666666669
  0
LINE
  8
_0-0_LAYER001
  6
CONTINUOUS
 62
    1
 10
1753.1887333333334
 20
1079.6311333333333
 11
1743.4004000000002
 21
1069.8428666666669
  0
LINE
  8
_0-0_LAYER001
  6
CONTINUOUS
 62
    1
 10
1753.1887333333334
 20
1081.9882
 11
1741.0433999999998
 21
1069.8428666666669
  0
LINE
  8
_0-0_LAYER001
  6
CONTINUOUS
 62
    1
 10
1753.1887333333334
 20
1084.3452
 11
1738.6863333333336
 21
1069.8428666666669
  0
LINE
  8
_0-0_LAYER001
  6
CONTINUOUS
 62
    1
 10
1753.0322666666666
 20
1086.5457999999999
 11
1736.3293333333334
 21
1069.8428666666669
  0
LINE
  8
_0-0_LAYER001
  6
CONTINUOUS
 62
    1
 10
1750.6752666666669
 20
1086.5457999999999
 11
1735.4714666666666
 21
1071.3419999999999
  0
LINE
  8
_0-0_LAYER001
  6
CONTINUOUS
 62
    1
 10
1748.3181999999999
 20
1086.5457999999999
 11
1735.4714666666666
 21
1073.6990000000001
  0
LINE
  8
_0-0_LAYER001
  6
CONTINUOUS
 62
    1
 10
1745.9612000000002
 20
1086.5457999999999
 11
1735.4714666666666
 21
1076.056
  0
LINE
  8
_0-0_LAYER001
  6
CONTINUOUS
 62
    1
 10
1743.6042
 20
1086.5457999999999
 11
1735.4714666666666
 21
1078.4130666666667
  0
LINE
  8
_0-0_LAYER001
  6
CONTINUOUS
 62
    1
 10
1741.2471333333333
 20
1086.5457999999999
 11
1735.4714666666666
 21
1080.7700666666667
  0
LINE
  8
_0-0_LAYER001
  6
CONTINUOUS
 62
    1
 10
1738.8901333333333
 20
1086.5457999999999
 11
1735.4714666666666
 21
1083.1270666666665
  0
LINE
  8
_0-0_LAYER001
  6
CONTINUOUS
 62
    1
 10
1736.5331333333334
 20
1086.5457999999999
 11
1735.4714666666666
 21
1085.4841333333334
  0
LINE
  8
_0-0_LAYER001
  6
CONTINUOUS
 62
    2
 10
1172.2566000000002
 20
1056.5308666666667
 11
1172.2566000000002
 21
1049.7184666666667
  0
LINE
  8
_0-0_LAYER001
  6
CONTINUOUS
 62
    2
 10
1172.2566000000002
 20
1056.5308666666667
 11
1146.0446666666667
 21
1056.5308666666667
  0
LINE
  8
_0-0_LAYER001
  6
CONTINUOUS
 62
    2
 10
1170.7113333333334
 20
1049.7184666666667
 11
1170.7113333333334
 21
1055.1996666666669
  0
LINE
  8
_0-0_LAYER001
  6
CONTINUOUS
 62
    2
 10
1170.7113333333334
 20
1055.1996666666669
 11
1144.7113333333334
 21
1055.1996666666669
  0
LINE
  8
_0-0_LAYER001
  6
CONTINUOUS
 62
    2
 10
1377.5899333333334
 20
1056.5308666666667
 11
1377.5899333333334
 21
1049.7184666666667
  0
LINE
  8
_0-0_LAYER001
  6
CONTINUOUS
 62
    2
 10
1377.5899333333334
 20
1056.5308666666667
 11
1351.3779999999999
 21
1056.5308666666667
  0
LINE
  8
_0-0_LAYER001
  6
CONTINUOUS
 62
    2
 10
1376.0446666666667
 20
1049.7184666666667
 11
1376.0446666666667
 21
1055.1996666666669
  0
LINE
  8
_0-0_LAYER001
  6
CONTINUOUS
 62
    2
 10
1376.0446666666667
 20
1055.1996666666669
 11
1350.0446666666667
 21
1055.1996666666669
  0
LINE
  8
_0-0_LAYER001
  6
CONTINUOUS
 62
    2
 10
1582.9232666666667
 20
1056.5308666666667
 11
1556.7113333333332
 21
1056.5308666666667
  0
LINE
  8
_0-0_LAYER001
  6
CONTINUOUS
 62
    2
 10
1582.9232666666667
 20
1056.5308666666667
 11
1582.9232666666667
 21
1049.7184666666667
  0
LINE
  8
_0-0_LAYER001
  6
CONTINUOUS
 62
    2
 10
1581.3779999999999
 20
1049.7184666666667
 11
1581.3779999999999
 21
1055.1996666666669
  0
LINE
  8
_0-0_LAYER001
  6
CONTINUOUS
 62
    2
 10
1581.3779999999999
 20
1055.1996666666669
 11
1555.3780000000002
 21
1055.1996666666669
  0
LINE
  8
_0-0_LAYER001
  6
CONTINUOUS
 62
    2
 10
1760.7113333333334
 20
1058.3592666666666
 11
1786.7113333333332
 21
1058.3592666666666
  0
LINE
  8
_0-0_LAYER001
  6
CONTINUOUS
 62
    2
 10
1351.3779999999999
 20
1069.8428666666669
 11
1351.3779999999999
 21
1056.5308666666667
  0
LINE
  8
_0-0_LAYER001
  6
CONTINUOUS
 62
    2
 10
1555.3780000000002
 20
1069.8428666666669
 11
1555.3780000000002
 21
1055.1996666666669
  0
LINE
  8
_0-0_LAYER001
  6
CONTINUOUS
 62
    2
 10
1144.7113333333334
 20
1069.8428666666669
 11
1144.7113333333334
 21
1055.1996666666669
  0
LINE
  8
_0-0_LAYER001
  6
CONTINUOUS
 62
    2
 10
1146.0446666666667
 20
1069.8428666666669
 11
1146.0446666666667
 21
1056.5308666666667
  0
LINE
  8
_0-0_LAYER001
  6
CONTINUOUS
 62
    2
 10
1350.0446666666667
 20
1069.8428666666669
 11
1350.0446666666667
 21
1055.1996666666669
  0
LINE
  8
_0-0_LAYER001
  6
CONTINUOUS
 62
    2
 10
1350.0446666666667
 20
1069.8428666666669
 11
1350.0446666666667
 21
1056.5308666666667
  0
LINE
  8
_0-0_LAYER001
  6
CONTINUOUS
 62
    2
 10
1786.7113333333332
 20
1049.7184666666667
 11
1582.9232666666667
 21
1049.7184666666667
  0
LINE
  8
_0-0_LAYER001
  6
CONTINUOUS
 62
    2
 10
1581.3779999999999
 20
1049.7184666666667
 11
1377.5899333333334
 21
1049.7184666666667
  0
LINE
  8
_0-0_LAYER001
  6
CONTINUOUS
 62
    2
 10
1376.0446666666667
 20
1049.7184666666667
 11
1172.2566000000002
 21
1049.7184666666667
  0
LINE
  8
_0-0_LAYER001
  6
CONTINUOUS
 62
    2
 10
1170.7113333333334
 20
1049.7184666666667
 11
1009.8990666666667
 21
1049.7184666666667
  0
LINE
  8
_0-0_LAYER001
  6
CONTINUOUS
 62
    2
 10
1556.7113333333332
 20
1069.8428666666669
 11
1556.7113333333332
 21
1056.5308666666667
  0
LINE
  8
_0-0_LAYER001
  6
CONTINUOUS
 62
    2
 10
1760.7113333333334
 20
1069.8428666666669
 11
1556.7113333333332
 21
1069.8428666666669
  0
LINE
  8
_0-0_LAYER001
  6
CONTINUOUS
 62
    2
 10
1555.3780000000002
 20
1069.8428666666669
 11
1351.3779999999999
 21
1069.8428666666669
  0
LINE
  8
_0-0_LAYER001
  6
CONTINUOUS
 62
    2
 10
1350.0446666666667
 20
1069.8428666666669
 11
1146.0446666666667
 21
1069.8428666666669
  0
LINE
  8
_0-0_LAYER001
  6
CONTINUOUS
 62
    2
 10
1144.7113333333334
 20
1069.8428666666669
 11
1009.8990666666667
 21
1069.8428666666669
  0
LINE
  8
_0-0_LAYER001
  6
CONTINUOUS
 62
    2
 10
1760.7113333333334
 20
1069.8428666666669
 11
1760.7113333333334
 21
1058.3592666666666
  0
LINE
  8
_0-0_LAYER001
  6
CONTINUOUS
 62
    2
 10
1786.7113333333332
 20
1049.7184666666667
 11
1786.7113333333332
 21
1058.3592666666666
  0
LINE
  8
_0-0_LAYER001
  6
CONTINUOUS
 62
    2
 10
1788.6808666666666
 20
1113.2124666666666
 11
1785.1913999999999
 21
1106.4805333333334
  0
LINE
  8
_0-0_LAYER001
  6
CONTINUOUS
 62
    2
 10
1790.6808666666666
 20
1013.2124666666666
 11
1790.6808666666666
 21
1166.5458000000001
  0
LINE
  8
_0-0_LAYER001
  6
CONTINUOUS
 62
    2
 10
1777.3475333333331
 20
1166.5458000000001
 11
1777.3475333333331
 21
1272.3942666666667
  0
LINE
  8
_0-0_LAYER001
  6
DASHED3
 62
    2
 10
1789.6808666666666
 20
1014.2124666666667
 11
1789.6808666666666
 21
1146.5458000000001
  0
LINE
  8
_0-0_LAYER001
  6
CONTINUOUS
 62
    2
 10
1857.5225999999998
 20
1113.2124666666666
 11
1822.5225999999998
 21
1113.2124666666666
  0
CIRCLE
  8
_0-0_LAYER001
  6
CONTINUOUS
 62
    2
 10
1855.8559333333333
 20
1113.2124666666666
 40
1.1333333333333331
  0
LINE
  8
_0-0_LAYER001
  6
CONTINUOUS
 62
    2
 10
1855.8559333333333
 20
1113.2124666666666
 11
1855.8559333333333
 21
1013.2124666666666
  0
CIRCLE
  8
_0-0_LAYER001
  6
CONTINUOUS
 62
    2
 10
1855.8559333333333
 20
1013.2124666666666
 40
1.1333333333333331
  0
LINE
  8
_0-0_LAYER001
  6
CONTINUOUS
 62
    2
 10
1857.5225999999998
 20
1013.2124666666666
 11
1822.5225999999998
 21
1013.2124666666666
  0
LINE
  8
_0-0_LAYER001
  6
CONTINUOUS
 62
    2
 10
1916.6525999999999
 20
1013.2124666666666
 11
1881.6525999999999
 21
1013.2124666666666
  0
CIRCLE
  8
_0-0_LAYER001
  6
CONTINUOUS
 62
    2
 10
1914.9859333333334
 20
1013.2124666666666
 40
1.1333333333333331
  0
LINE
  8
_0-0_LAYER001
  6
CONTINUOUS
 62
    2
 10
1914.9859333333334
 20
1013.2124666666666
 11
1914.9859333333334
 21
1146.5458000000001
  0
CIRCLE
  8
_0-0_LAYER001
  6
CONTINUOUS
 62
    2
 10
1914.9859333333334
 20
1146.5458000000001
 40
1.1333333333333331
  0
LINE
  8
_0-0_LAYER001
  6
CONTINUOUS
 62
    2
 10
1916.6525999999999
 20
1146.5458000000001
 11
1881.6525999999999
 21
1146.5458000000001
  0
LINE
  8
_0-0_LAYER001
  6
CONTINUOUS
 62
    2
 10
1768.748
 20
1092.1404000000002
 11
1768.748
 21
1087.1404000000002
  0
LINE
  8
_0-0_LAYER001
  6
CONTINUOUS
 62
    2
 10
1768.748
 20
1087.1404000000002
 11
1766.248
 21
1091.4705333333334
  0
LINE
  8
_0-0_LAYER001
  6
CONTINUOUS
 62
    2
 10
1768.748
 20
1087.1404000000002
 11
1742.6035999999999
 21
1184.7127333333333
  0
LINE
  8
_0-0_LAYER001
  6
CONTINUOUS
 62
    2
 10
1742.6035999999999
 20
1184.7127333333333
 11
1586.6035999999999
 21
1184.7127333333333
  0
LINE
  8
_0-0_LAYER001
  6
CONTINUOUS
 62
    2
 10
1788.8706666666667
 20
1162.3830666666665
 11
1785.3351333333333
 21
1158.8475333333333
  0
LINE
  8
_0-0_LAYER001
  6
CONTINUOUS
 62
    2
 10
1785.3351333333333
 20
1158.8475333333333
 11
1786.6291999999999
 21
1163.6771999999999
  0
LINE
  8
_0-0_LAYER001
  6
CONTINUOUS
 62
    2
 10
1785.3351333333333
 20
1158.8475333333333
 11
1835.9808666666668
 21
1246.5686000000003
  0
LINE
  8
_0-0_LAYER001
  6
CONTINUOUS
 62
    2
 10
1835.9808666666668
 20
1246.5686000000003
 11
1889.9808666666668
 21
1246.5686000000003
  0
ARC
  8
_0-0_LAYER001
  6
CONTINUOUS
 62
    4
 10
1752.7485333333334
 20
1023.8812666666666
 40
3.9935999999999998
 50
199.47121999999999
 51
344.27760999999998
  0
LINE
  8
_0-0_LAYER001
  6
CONTINUOUS
 62
    4
 10
1745.0623333333333
 20
1033.1996666666666
 11
1749.0559333333335
 21
1022.3603333333334
  0
LINE
  8
_0-0_LAYER001
  6
CONTINUOUS
 62
    4
 10
1597.3268000000003
 20
1033.1996666666666
 11
1593.5346
 21
1022.7990666666666
  0
LINE
  8
_0-0_LAYER001
  6
CONTINUOUS
 62
    4
 10
1757.4726666666666
 20
1025.2124666666666
 11
1756.5927333333332
 21
1022.7990666666666
  0
LINE
  8
_0-0_LAYER001
  6
CONTINUOUS
 62
    4
 10
1581.5136666666667
 20
1034.5308666666667
 11
1556.7113333333332
 21
1034.5308666666667
  0
LINE
  8
_0-0_LAYER001
  6
CONTINUOUS
 62
    4
 10
1581.5136666666667
 20
1034.5308666666667
 11
1585.9977333333334
 21
1022.3603333333334
  0
LINE
  8
_0-0_LAYER001
  6
CONTINUOUS
 62
    4
 10
1745.0623333333333
 20
1033.1996666666666
 11
1718.4383333333333
 21
1033.1996666666666
  0
LINE
  8
_0-0_LAYER001
  6
CONTINUOUS
 62
    4
 10
1713.1135333333336
 20
1033.1996666666666
 11
1681.8303333333333
 21
1033.1996666666666
  0
LINE
  8
_0-0_LAYER001
  6
CONTINUOUS
 62
    4
 10
1676.5055333333335
 20
1033.1996666666666
 11
1641.2287333333334
 21
1033.1996666666666
  0
LINE
  8
_0-0_LAYER001
  6
CONTINUOUS
 62
    4
 10
1635.9039333333335
 20
1033.1996666666666
 11
1597.3268000000003
 21
1033.1996666666666
  0
LINE
  8
_0-0_LAYER001
  6
CONTINUOUS
 62
    4
 10
1583.3353333333334
 20
1045.8460666666665
 11
1733.7609333333332
 21
1045.8460666666665
  0
LINE
  8
_0-0_LAYER001
  6
CONTINUOUS
 62
    4
 10
1583.3353333333334
 20
1047.8428666666669
 11
1583.3353333333334
 21
1045.8460666666665
  0
LINE
  8
_0-0_LAYER001
  6
CONTINUOUS
 62
    4
 10
1583.3353333333334
 20
1047.8428666666669
 11
1556.7113333333332
 21
1047.8428666666669
  0
LINE
  8
_0-0_LAYER001
  6
CONTINUOUS
 62
    4
 10
1635.9039333333335
 20
1033.1996666666666
 11
1635.9039333333335
 21
1025.8780666666667
  0
LINE
  8
_0-0_LAYER001
  6
CONTINUOUS
 62
    4
 10
1641.2287333333334
 20
1025.8780666666667
 11
1635.9039333333335
 21
1025.8780666666667
  0
LINE
  8
_0-0_LAYER001
  6
CONTINUOUS
 62
    4
 10
1641.2287333333334
 20
1033.1996666666666
 11
1641.2287333333334
 21
1025.8780666666667
  0
LINE
  8
_0-0_LAYER001
  6
CONTINUOUS
 62
    4
 10
1676.5055333333335
 20
1033.1996666666666
 11
1676.5055333333335
 21
1025.8780666666667
  0
LINE
  8
_0-0_LAYER001
  6
CONTINUOUS
 62
    4
 10
1681.8303333333333
 20
1025.8780666666667
 11
1676.5055333333335
 21
1025.8780666666667
  0
LINE
  8
_0-0_LAYER001
  6
CONTINUOUS
 62
    4
 10
1681.8303333333333
 20
1033.1996666666666
 11
1681.8303333333333
 21
1025.8780666666667
  0
LINE
  8
_0-0_LAYER001
  6
CONTINUOUS
 62
    4
 10
1713.1135333333336
 20
1033.1996666666666
 11
1713.1135333333336
 21
1025.8780666666667
  0
LINE
  8
_0-0_LAYER001
  6
CONTINUOUS
 62
    4
 10
1718.4383333333333
 20
1025.8780666666667
 11
1713.1135333333336
 21
1025.8780666666667
  0
LINE
  8
_0-0_LAYER001
  6
CONTINUOUS
 62
    4
 10
1718.4383333333333
 20
1025.8780666666667
 11
1718.4383333333333
 21
1033.1996666666666
  0
LINE
  8
_0-0_LAYER001
  6
CONTINUOUS
 62
    4
 10
1556.7113333333332
 20
1047.8428666666669
 11
1556.7113333333332
 21
1034.5308666666667
  0
ARC
  8
_0-0_LAYER001
  6
CONTINUOUS
 62
    4
 10
1589.6408666666666
 20
1023.8812666666666
 40
3.9935999999999998
 50
199.47121999999999
 51
344.27760999999998
  0
LINE
  8
_0-0_LAYER001
  6
CONTINUOUS
 62
    4
 10
1760.7113333333334
 20
1047.8428666666669
 11
1733.7609333333332
 21
1047.8428666666669
  0
LINE
  8
_0-0_LAYER001
  6
CONTINUOUS
 62
    4
 10
1760.7113333333334
 20
1047.8428666666669
 11
1760.7113333333334
 21
1033.1996666666666
  0
LINE
  8
_0-0_LAYER001
  6
CONTINUOUS
 62
    4
 10
1760.7113333333334
 20
1047.8428666666669
 11
1760.7113333333334
 21
1034.5308666666667
  0
LINE
  8
_0-0_LAYER001
  6
CONTINUOUS
 62
    4
 10
1786.7113333333332
 20
1025.2124666666666
 11
1757.4726666666666
 21
1025.2124666666666
  0
LINE
  8
_0-0_LAYER001
  6
CONTINUOUS
 62
    4
 10
1786.7113333333332
 20
1025.2124666666666
 11
1786.7113333333332
 21
1033.1996666666666
  0
LINE
  8
_0-0_LAYER001
  6
CONTINUOUS
 62
    4
 10
1786.7113333333332
 20
1033.1996666666666
 11
1760.7113333333334
 21
1033.1996666666666
  0
LINE
  8
_0-0_LAYER001
  6
CONTINUOUS
 62
    4
 10
1733.7609333333332
 20
1045.8460666666665
 11
1733.7609333333332
 21
1047.8428666666669
  0
ARC
  8
_0-0_LAYER001
  6
CONTINUOUS
 62
    4
 10
1547.4152000000001
 20
1023.8812666666666
 40
3.9935999999999998
 50
199.47121999999999
 51
344.27760999999998
  0
LINE
  8
_0-0_LAYER001
  6
CONTINUOUS
 62
    4
 10
1539.729
 20
1033.1996666666666
 11
1543.7226000000001
 21
1022.3603333333334
  0
LINE
  8
_0-0_LAYER001
  6
CONTINUOUS
 62
    4
 10
1391.9934666666666
 20
1033.1996666666666
 11
1388.2012666666665
 21
1022.7990666666666
  0
LINE
  8
_0-0_LAYER001
  6
CONTINUOUS
 62
    4
 10
1552.1393333333333
 20
1025.2124666666666
 11
1551.2593999999999
 21
1022.7990666666666
  0
LINE
  8
_0-0_LAYER001
  6
CONTINUOUS
 62
    4
 10
1376.1803333333332
 20
1034.5308666666667
 11
1351.3779999999999
 21
1034.5308666666667
  0
LINE
  8
_0-0_LAYER001
  6
CONTINUOUS
 62
    4
 10
1376.1803333333332
 20
1034.5308666666667
 11
1380.6644000000001
 21
1022.3603333333334
  0
LINE
  8
_0-0_LAYER001
  6
CONTINUOUS
 62
    4
 10
1539.729
 20
1033.1996666666666
 11
1513.105
 21
1033.1996666666666
  0
LINE
  8
_0-0_LAYER001
  6
CONTINUOUS
 62
    4
 10
1507.7802000000001
 20
1033.1996666666666
 11
1476.4969999999998
 21
1033.1996666666666
  0
LINE
  8
_0-0_LAYER001
  6
CONTINUOUS
 62
    4
 10
1471.1722
 20
1033.1996666666666
 11
1435.8953999999999
 21
1033.1996666666666
  0
LINE
  8
_0-0_LAYER001
  6
CONTINUOUS
 62
    4
 10
1430.5706
 20
1033.1996666666666
 11
1391.9934666666666
 21
1033.1996666666666
  0
LINE
  8
_0-0_LAYER001
  6
CONTINUOUS
 62
    4
 10
1528.4276
 20
1047.8428666666669
 11
1528.4276
 21
1045.8460666666665
  0
LINE
  8
_0-0_LAYER001
  6
CONTINUOUS
 62
    4
 10
1425.2595999999999
 20
1045.8460666666665
 11
1528.4276
 21
1045.8460666666665
  0
LINE
  8
_0-0_LAYER001
  6
CONTINUOUS
 62
    4
 10
1378.002
 20
1045.8460666666665
 11
1425.2595999999999
 21
1045.8460666666665
  0
LINE
  8
_0-0_LAYER001
  6
CONTINUOUS
 62
    4
 10
1378.002
 20
1047.8428666666669
 11
1378.002
 21
1045.8460666666665
  0
LINE
  8
_0-0_LAYER001
  6
CONTINUOUS
 62
    4
 10
1378.002
 20
1047.8428666666669
 11
1351.3779999999999
 21
1047.8428666666669
  0
LINE
  8
_0-0_LAYER001
  6
CONTINUOUS
 62
    4
 10
1430.5706
 20
1033.1996666666666
 11
1430.5706
 21
1025.8780666666667
  0
LINE
  8
_0-0_LAYER001
  6
CONTINUOUS
 62
    4
 10
1435.8953999999999
 20
1025.8780666666667
 11
1430.5706
 21
1025.8780666666667
  0
LINE
  8
_0-0_LAYER001
  6
CONTINUOUS
 62
    4
 10
1435.8953999999999
 20
1033.1996666666666
 11
1435.8953999999999
 21
1025.8780666666667
  0
LINE
  8
_0-0_LAYER001
  6
CONTINUOUS
 62
    4
 10
1471.1722
 20
1033.1996666666666
 11
1471.1722
 21
1025.8780666666667
  0
LINE
  8
_0-0_LAYER001
  6
CONTINUOUS
 62
    4
 10
1476.4969999999998
 20
1025.8780666666667
 11
1471.1722
 21
1025.8780666666667
  0
LINE
  8
_0-0_LAYER001
  6
CONTINUOUS
 62
    4
 10
1476.4969999999998
 20
1033.1996666666666
 11
1476.4969999999998
 21
1025.8780666666667
  0
LINE
  8
_0-0_LAYER001
  6
CONTINUOUS
 62
    4
 10
1507.7802000000001
 20
1033.1996666666666
 11
1507.7802000000001
 21
1025.8780666666667
  0
LINE
  8
_0-0_LAYER001
  6
CONTINUOUS
 62
    4
 10
1513.105
 20
1025.8780666666667
 11
1507.7802000000001
 21
1025.8780666666667
  0
LINE
  8
_0-0_LAYER001
  6
CONTINUOUS
 62
    4
 10
1513.105
 20
1025.8780666666667
 11
1513.105
 21
1033.1996666666666
  0
LINE
  8
_0-0_LAYER001
  6
CONTINUOUS
 62
    4
 10
1351.3779999999999
 20
1047.8428666666669
 11
1351.3779999999999
 21
1034.5308666666667
  0
ARC
  8
_0-0_LAYER001
  6
CONTINUOUS
 62
    4
 10
1384.3075333333334
 20
1023.8812666666666
 40
3.9935999999999998
 50
199.47121999999999
 51
344.27760999999998
  0
LINE
  8
_0-0_LAYER001
  6
CONTINUOUS
 62
    4
 10
1555.3780000000002
 20
1047.8428666666669
 11
1528.4276
 21
1047.8428666666669
  0
LINE
  8
_0-0_LAYER001
  6
CONTINUOUS
 62
    4
 10
1555.3780000000002
 20
1047.8428666666669
 11
1555.3780000000002
 21
1033.1996666666666
  0
LINE
  8
_0-0_LAYER001
  6
CONTINUOUS
 62
    4
 10
1555.3780000000002
 20
1047.8428666666669
 11
1555.3780000000002
 21
1034.5308666666667
  0
LINE
  8
_0-0_LAYER001
  6
CONTINUOUS
 62
    4
 10
1581.3779999999999
 20
1025.2124666666666
 11
1552.1393333333333
 21
1025.2124666666666
  0
LINE
  8
_0-0_LAYER001
  6
CONTINUOUS
 62
    4
 10
1581.3779999999999
 20
1025.2124666666666
 11
1581.3779999999999
 21
1033.1996666666666
  0
LINE
  8
_0-0_LAYER001
  6
CONTINUOUS
 62
    4
 10
1581.3779999999999
 20
1033.1996666666666
 11
1555.3780000000002
 21
1033.1996666666666
  0
ARC
  8
_0-0_LAYER001
  6
CONTINUOUS
 62
    4
 10
1342.0818666666669
 20
1023.8812666666666
 40
3.9935999999999998
 50
199.47121999999999
 51
344.27760999999998
  0
LINE
  8
_0-0_LAYER001
  6
CONTINUOUS
 62
    4
 10
1334.3956666666668
 20
1033.1996666666666
 11
1338.3892666666668
 21
1022.3603333333334
  0
LINE
  8
_0-0_LAYER001
  6
CONTINUOUS
 62
    4
 10
1186.6601333333333
 20
1033.1996666666666
 11
1182.8679333333334
 21
1022.7990666666666
  0
LINE
  8
_0-0_LAYER001
  6
CONTINUOUS
 62
    4
 10
1346.806
 20
1025.2124666666666
 11
1345.9260666666669
 21
1022.7990666666666
  0
LINE
  8
_0-0_LAYER001
  6
CONTINUOUS
 62
    4
 10
1170.8470000000002
 20
1034.5308666666667
 11
1146.0446666666667
 21
1034.5308666666667
  0
LINE
  8
_0-0_LAYER001
  6
CONTINUOUS
 62
    4
 10
1170.8470000000002
 20
1034.5308666666667
 11
1175.3310666666666
 21
1022.3603333333334
  0
LINE
  8
_0-0_LAYER001
  6
CONTINUOUS
 62
    4
 10
1334.3956666666668
 20
1033.1996666666666
 11
1307.7716666666665
 21
1033.1996666666666
  0
LINE
  8
_0-0_LAYER001
  6
CONTINUOUS
 62
    4
 10
1302.4468666666667
 20
1033.1996666666666
 11
1271.1636666666666
 21
1033.1996666666666
  0
LINE
  8
_0-0_LAYER001
  6
CONTINUOUS
 62
    4
 10
1265.8388666666667
 20
1033.1996666666666
 11
1230.5620666666666
 21
1033.1996666666666
  0
LINE
  8
_0-0_LAYER001
  6
CONTINUOUS
 62
    4
 10
1225.2372666666668
 20
1033.1996666666666
 11
1186.6601333333333
 21
1033.1996666666666
  0
LINE
  8
_0-0_LAYER001
  6
CONTINUOUS
 62
    4
 10
1323.0942666666667
 20
1047.8428666666669
 11
1323.0942666666667
 21
1045.8460666666665
  0
LINE
  8
_0-0_LAYER001
  6
CONTINUOUS
 62
    4
 10
1219.9262666666666
 20
1045.8460666666665
 11
1323.0942666666667
 21
1045.8460666666665
  0
LINE
  8
_0-0_LAYER001
  6
CONTINUOUS
 62
    4
 10
1172.6686666666665
 20
1045.8460666666665
 11
1219.9262666666666
 21
1045.8460666666665
  0
LINE
  8
_0-0_LAYER001
  6
CONTINUOUS
 62
    4
 10
1172.6686666666665
 20
1047.8428666666669
 11
1172.6686666666665
 21
1045.8460666666665
  0
LINE
  8
_0-0_LAYER001
  6
CONTINUOUS
 62
    4
 10
1172.6686666666665
 20
1047.8428666666669
 11
1146.0446666666667
 21
1047.8428666666669
  0
LINE
  8
_0-0_LAYER001
  6
CONTINUOUS
 62
    4
 10
1225.2372666666668
 20
1033.1996666666666
 11
1225.2372666666668
 21
1025.8780666666667
  0
LINE
  8
_0-0_LAYER001
  6
CONTINUOUS
 62
    4
 10
1230.5620666666666
 20
1025.8780666666667
 11
1225.2372666666668
 21
1025.8780666666667
  0
LINE
  8
_0-0_LAYER001
  6
CONTINUOUS
 62
    4
 10
1230.5620666666666
 20
1033.1996666666666
 11
1230.5620666666666
 21
1025.8780666666667
  0
LINE
  8
_0-0_LAYER001
  6
CONTINUOUS
 62
    4
 10
1265.8388666666667
 20
1033.1996666666666
 11
1265.8388666666667
 21
1025.8780666666667
  0
LINE
  8
_0-0_LAYER001
  6
CONTINUOUS
 62
    4
 10
1271.1636666666666
 20
1025.8780666666667
 11
1265.8388666666667
 21
1025.8780666666667
  0
LINE
  8
_0-0_LAYER001
  6
CONTINUOUS
 62
    4
 10
1271.1636666666666
 20
1033.1996666666666
 11
1271.1636666666666
 21
1025.8780666666667
  0
LINE
  8
_0-0_LAYER001
  6
CONTINUOUS
 62
    4
 10
1302.4468666666667
 20
1033.1996666666666
 11
1302.4468666666667
 21
1025.8780666666667
  0
LINE
  8
_0-0_LAYER001
  6
CONTINUOUS
 62
    4
 10
1307.7716666666665
 20
1025.8780666666667
 11
1302.4468666666667
 21
1025.8780666666667
  0
LINE
  8
_0-0_LAYER001
  6
CONTINUOUS
 62
    4
 10
1307.7716666666665
 20
1025.8780666666667
 11
1307.7716666666665
 21
1033.1996666666666
  0
LINE
  8
_0-0_LAYER001
  6
CONTINUOUS
 62
    4
 10
1146.0446666666667
 20
1047.8428666666669
 11
1146.0446666666667
 21
1034.5308666666667
  0
ARC
  8
_0-0_LAYER001
  6
CONTINUOUS
 62
    4
 10
1178.9741999999999
 20
1023.8812666666666
 40
3.9935999999999998
 50
199.47121999999999
 51
344.27760999999998
  0
LINE
  8
_0-0_LAYER001
  6
CONTINUOUS
 62
    4
 10
1350.0446666666667
 20
1047.8428666666669
 11
1323.0942666666667
 21
1047.8428666666669
  0
LINE
  8
_0-0_LAYER001
  6
CONTINUOUS
 62
    4
 10
1350.0446666666667
 20
1047.8428666666669
 11
1350.0446666666667
 21
1033.1996666666666
  0
LINE
  8
_0-0_LAYER001
  6
CONTINUOUS
 62
    4
 10
1350.0446666666667
 20
1047.8428666666669
 11
1350.0446666666667
 21
1034.5308666666667
  0
LINE
  8
_0-0_LAYER001
  6
CONTINUOUS
 62
    4
 10
1376.0446666666667
 20
1025.2124666666666
 11
1346.806
 21
1025.2124666666666
  0
LINE
  8
_0-0_LAYER001
  6
CONTINUOUS
 62
    4
 10
1376.0446666666667
 20
1025.2124666666666
 11
1376.0446666666667
 21
1033.1996666666666
  0
LINE
  8
_0-0_LAYER001
  6
CONTINUOUS
 62
    4
 10
1376.0446666666667
 20
1033.1996666666666
 11
1350.0446666666667
 21
1033.1996666666666
  0
ARC
  8
_0-0_LAYER001
  6
CONTINUOUS
 62
    4
 10
1136.7485333333334
 20
1023.8812666666666
 40
3.9935999999999998
 50
199.47121999999999
 51
344.27760999999998
  0
LINE
  8
_0-0_LAYER001
  6
CONTINUOUS
 62
    4
 10
1129.0623333333333
 20
1033.1996666666666
 11
1133.0559333333335
 21
1022.3603333333334
  0
LINE
  8
_0-0_LAYER001
  6
CONTINUOUS
 62
    4
 10
1141.4726666666666
 20
1025.2124666666666
 11
1140.5927333333334
 21
1022.7990666666666
  0
LINE
  8
_0-0_LAYER001
  6
CONTINUOUS
 62
    4
 10
1129.0623333333333
 20
1033.1996666666666
 11
1102.4383333333335
 21
1033.1996666666666
  0
LINE
  8
_0-0_LAYER001
  6
CONTINUOUS
 62
    4
 10
1097.1135333333334
 20
1033.1996666666666
 11
1065.8303333333333
 21
1033.1996666666666
  0
LINE
  8
_0-0_LAYER001
  6
CONTINUOUS
 62
    4
 10
1060.5055333333335
 20
1033.1996666666666
 11
1025.2287333333334
 21
1033.1996666666666
  0
LINE
  8
_0-0_LAYER001
  6
CONTINUOUS
 62
    4
 10
1019.9039333333335
 20
1033.1996666666666
 11
1011.1877333333334
 21
1033.1996666666666
  0
LINE
  8
_0-0_LAYER001
  6
CONTINUOUS
 62
    4
 10
1117.7609333333335
 20
1047.8428666666669
 11
1117.7609333333335
 21
1045.8460666666665
  0
LINE
  8
_0-0_LAYER001
  6
CONTINUOUS
 62
    4
 10
1011.1877333333334
 20
1045.8460666666665
 11
1117.7609333333335
 21
1045.8460666666665
  0
LINE
  8
_0-0_LAYER001
  6
CONTINUOUS
 62
    4
 10
1019.9039333333335
 20
1033.1996666666666
 11
1019.9039333333335
 21
1025.8780666666667
  0
LINE
  8
_0-0_LAYER001
  6
CONTINUOUS
 62
    4
 10
1025.2287333333334
 20
1025.8780666666667
 11
1019.9039333333335
 21
1025.8780666666667
  0
LINE
  8
_0-0_LAYER001
  6
CONTINUOUS
 62
    4
 10
1025.2287333333334
 20
1033.1996666666666
 11
1025.2287333333334
 21
1025.8780666666667
  0
LINE
  8
_0-0_LAYER001
  6
CONTINUOUS
 62
    4
 10
1060.5055333333335
 20
1033.1996666666666
 11
1060.5055333333335
 21
1025.8780666666667
  0
LINE
  8
_0-0_LAYER001
  6
CONTINUOUS
 62
    4
 10
1065.8303333333333
 20
1025.8780666666667
 11
1060.5055333333335
 21
1025.8780666666667
  0
LINE
  8
_0-0_LAYER001
  6
CONTINUOUS
 62
    4
 10
1065.8303333333333
 20
1033.1996666666666
 11
1065.8303333333333
 21
1025.8780666666667
  0
LINE
  8
_0-0_LAYER001
  6
CONTINUOUS
 62
    4
 10
1097.1135333333334
 20
1033.1996666666666
 11
1097.1135333333334
 21
1025.8780666666667
  0
LINE
  8
_0-0_LAYER001
  6
CONTINUOUS
 62
    4
 10
1102.4383333333335
 20
1025.8780666666667
 11
1097.1135333333334
 21
1025.8780666666667
  0
LINE
  8
_0-0_LAYER001
  6
CONTINUOUS
 62
    4
 10
1102.4383333333335
 20
1025.8780666666667
 11
1102.4383333333335
 21
1033.1996666666666
  0
LINE
  8
_0-0_LAYER001
  6
CONTINUOUS
 62
    4
 10
1144.7113333333334
 20
1047.8428666666669
 11
1117.7609333333335
 21
1047.8428666666669
  0
LINE
  8
_0-0_LAYER001
  6
CONTINUOUS
 62
    4
 10
1144.7113333333334
 20
1047.8428666666669
 11
1144.7113333333334
 21
1033.1996666666666
  0
LINE
  8
_0-0_LAYER001
  6
CONTINUOUS
 62
    4
 10
1144.7113333333334
 20
1047.8428666666669
 11
1144.7113333333334
 21
1034.5308666666667
  0
LINE
  8
_0-0_LAYER001
  6
CONTINUOUS
 62
    4
 10
1170.7113333333334
 20
1025.2124666666666
 11
1141.4726666666666
 21
1025.2124666666666
  0
LINE
  8
_0-0_LAYER001
  6
CONTINUOUS
 62
    4
 10
1170.7113333333334
 20
1025.2124666666666
 11
1170.7113333333334
 21
1033.1996666666666
  0
LINE
  8
_0-0_LAYER001
  6
CONTINUOUS
 62
    4
 10
1170.7113333333334
 20
1033.1996666666666
 11
1144.7113333333334
 21
1033.1996666666666
  0
LINE
  8
_0-1_ADD_LINE
  6
CONTINUOUS
 62
   18
 10
1009.8990666666667
 20
1069.8428666666669
 11
1144.7113333333334
 21
1069.8428666666669
  0
LINE
  8
_0-1_ADD_LINE
  6
CONTINUOUS
 62
   18
 10
1144.7113333333334
 20
1069.8428666666669
 11
1144.7113333333334
 21
1055.1996666666669
  0
LINE
  8
_0-1_ADD_LINE
  6
CONTINUOUS
 62
   18
 10
1144.7113333333334
 20
1055.1996666666669
 11
1170.7113333333334
 21
1055.1996666666669
  0
LINE
  8
_0-1_ADD_LINE
  6
CONTINUOUS
 62
   18
 10
1170.7113333333334
 20
1055.1996666666669
 11
1170.7113333333334
 21
1049.7184666666667
  0
LINE
  8
_0-1_ADD_LINE
  6
CONTINUOUS
 62
   18
 10
1170.7113333333334
 20
1049.7184666666667
 11
1009.8990666666667
 21
1049.7184666666667
  0
LINE
  8
_0-1_ADD_LINE
  6
CONTINUOUS
 62
   18
 10
1146.0446666666667
 20
1069.8428666666669
 11
1146.0446666666667
 21
1056.5308666666667
  0
LINE
  8
_0-1_ADD_LINE
  6
CONTINUOUS
 62
   18
 10
1146.0446666666667
 20
1056.5308666666667
 11
1172.2566000000002
 21
1056.5308666666667
  0
LINE
  8
_0-1_ADD_LINE
  6
CONTINUOUS
 62
   18
 10
1172.2566000000002
 20
1056.5308666666667
 11
1172.2566000000002
 21
1049.7184666666667
  0
LINE
  8
_0-1_ADD_LINE
  6
CONTINUOUS
 62
   18
 10
1172.2566000000002
 20
1049.7184666666667
 11
1376.0446666666667
 21
1049.7184666666667
  0
LINE
  8
_0-1_ADD_LINE
  6
CONTINUOUS
 62
   18
 10
1376.0446666666667
 20
1049.7184666666667
 11
1376.0446666666667
 21
1055.1996666666669
  0
LINE
  8
_0-1_ADD_LINE
  6
CONTINUOUS
 62
   18
 10
1376.0446666666667
 20
1055.1996666666669
 11
1350.0446666666667
 21
1055.1996666666669
  0
LINE
  8
_0-1_ADD_LINE
  6
CONTINUOUS
 62
   18
 10
1350.0446666666667
 20
1055.1996666666669
 11
1350.0446666666667
 21
1069.8428666666669
  0
LINE
  8
_0-1_ADD_LINE
  6
CONTINUOUS
 62
   18
 10
1350.0446666666667
 20
1069.8428666666669
 11
1144.7113333333334
 21
1069.8428666666669
  0
LINE
  8
_0-1_ADD_LINE
  6
CONTINUOUS
 62
   18
 10
1351.3779999999999
 20
1069.8428666666669
 11
1351.3779999999999
 21
1056.5308666666667
  0
LINE
  8
_0-1_ADD_LINE
  6
CONTINUOUS
 62
   18
 10
1351.3779999999999
 20
1056.5308666666667
 11
1377.5899333333334
 21
1056.5308666666667
  0
LINE
  8
_0-1_ADD_LINE
  6
CONTINUOUS
 62
   18
 10
1377.5899333333334
 20
1056.5308666666667
 11
1377.5899333333334
 21
1049.7184666666667
  0
LINE
  8
_0-1_ADD_LINE
  6
CONTINUOUS
 62
   18
 10
1377.5899333333334
 20
1049.7184666666667
 11
1581.3779999999999
 21
1049.7184666666667
  0
LINE
  8
_0-1_ADD_LINE
  6
CONTINUOUS
 62
   18
 10
1581.3779999999999
 20
1049.7184666666667
 11
1581.3779999999999
 21
1055.1996666666669
  0
LINE
  8
_0-1_ADD_LINE
  6
CONTINUOUS
 62
   18
 10
1581.3779999999999
 20
1055.1996666666669
 11
1555.3780000000002
 21
1055.1996666666669
  0
LINE
  8
_0-1_ADD_LINE
  6
CONTINUOUS
 62
   18
 10
1555.3780000000002
 20
1055.1996666666669
 11
1555.3780000000002
 21
1069.8428666666669
  0
LINE
  8
_0-1_ADD_LINE
  6
CONTINUOUS
 62
   18
 10
1555.3780000000002
 20
1069.8428666666669
 11
1351.3779999999999
 21
1069.8428666666669
  0
LINE
  8
_0-1_ADD_LINE
  6
CONTINUOUS
 62
   18
 10
1556.7113333333332
 20
1069.8428666666669
 11
1556.7113333333332
 21
1056.5308666666667
  0
LINE
  8
_0-1_ADD_LINE
  6
CONTINUOUS
 62
   18
 10
1556.7113333333332
 20
1056.5308666666667
 11
1582.9232666666667
 21
1056.5308666666667
  0
LINE
  8
_0-1_ADD_LINE
  6
CONTINUOUS
 62
   18
 10
1582.9232666666667
 20
1056.5308666666667
 11
1582.9232666666667
 21
1049.7184666666667
  0
LINE
  8
_0-1_ADD_LINE
  6
CONTINUOUS
 62
   18
 10
1582.9232666666667
 20
1049.7184666666667
 11
1786.7113333333332
 21
1049.7184666666667
  0
LINE
  8
_0-1_ADD_LINE
  6
CONTINUOUS
 62
   18
 10
1786.7113333333332
 20
1049.7184666666667
 11
1786.7113333333332
 21
1058.3592666666666
  0
LINE
  8
_0-1_ADD_LINE
  6
CONTINUOUS
 62
   18
 10
1786.7113333333332
 20
1058.3592666666666
 11
1760.7113333333334
 21
1058.3592666666666
  0
LINE
  8
_0-1_ADD_LINE
  6
CONTINUOUS
 62
   18
 10
1760.7113333333334
 20
1058.3592666666666
 11
1760.7113333333334
 21
1069.8428666666669
  0
LINE
  8
_0-1_ADD_LINE
  6
CONTINUOUS
 62
   18
 10
1760.7113333333334
 20
1069.8428666666669
 11
1556.7113333333332
 21
1069.8428666666669
  0
LINE
  8
_0-1_ADD_LINE
  6
CONTINUOUS
 62
   18
 10
1556.7113333333332
 20
1069.8428666666669
 11
1556.7113333333332
 21
1056.5308666666667
  0
LINE
  8
_0-1_ADD_LINE
  6
CONTINUOUS
 62
   18
 10
1556.7113333333332
 20
1056.5308666666667
 11
1556.7113333333332
 21
1069.8428666666669
  0
LINE
  8
_0-1_ADD_LINE
  6
CONTINUOUS
 62
   18
 10
1654.3449999999998
 20
1086.5457999999999
 11
1689.3449999999998
 21
1086.5457999999999
  0
LINE
  8
_0-1_ADD_LINE
  6
CONTINUOUS
 62
   18
 10
1689.3449999999998
 20
1086.5457999999999
 11
1654.3449999999998
 21
1086.5457999999999
  0
LINE
  8
_0-1_ADD_LINE
  6
CONTINUOUS
 62
   18
 10
1654.3449999999998
 20
1086.5457999999999
 11
1654.8783333333331
 21
1086.5457999999999
  0
LINE
  8
_0-1_ADD_LINE
  6
CONTINUOUS
 62
   18
 10
1656.0116666666668
 20
1086.5457999999999
 11
1656.0116666666668
 21
1153.2124666666666
  0
LINE
  8
_0-1_ADD_LINE
  6
CONTINUOUS
 62
   18
 10
1656.0116666666668
 20
1153.2124666666666
 11
1654.8783333333331
 21
1153.2124666666666
  0
LINE
  8
_0-1_ADD_LINE
  6
CONTINUOUS
 62
   18
 10
1654.8783333333331
 20
1153.2124666666666
 11
1689.3449999999998
 21
1153.2124666666666
  0
LINE
  8
_0-1_ADD_LINE
  6
CONTINUOUS
 62
   18
 10
1653.4049333333332
 20
1161.3466666666666
 11
1718.4049333333332
 21
1161.3466666666666
  0
LINE
  8
_0-1_ADD_LINE
  6
CONTINUOUS
 62
   18
 10
1740.3005333333335
 20
1080.7342666666664
 11
1718.4049333333332
 21
1161.3466666666666
  0
LINE
  8
_0-1_ADD_LINE
  6
CONTINUOUS
 62
   18
 10
1740.3005333333335
 20
1080.7342666666664
 11
1740.3005333333335
 21
1083.0912666666668
  0
LINE
  8
_0-1_ADD_LINE
  6
CONTINUOUS
 62
   18
 10
1740.3005333333335
 20
1080.7342666666664
 11
1738.7936303754436
 21
1082.2411696245563
  0
LINE
  8
_0-1_ADD_LINE
  6
CONTINUOUS
 62
   18
 10
1740.3005333333335
 20
1079.6311333333333
 11
1740.3005333333335
 21
1084.6311333333333
  0
LINE
  8
_0-1_ADD_LINE
  6
CONTINUOUS
 62
   18
 10
1740.3005333333335
 20
1079.6311333333333
 11
1737.8005333333335
 21
1083.9612666666667
  0
LINE
  8
_0-1_ADD_LINE
  6
CONTINUOUS
 62
   18
 10
1740.3005333333335
 20
1079.6311333333333
 11
1718.4049333333332
 21
1161.3466666666666
  0
LINE
  8
_0-1_ADD_LINE
  6
CONTINUOUS
 62
   18
 10
1715.7488666666668
 20
1078.1104666666668
 11
1715.7488666666668
 21
1086.5457999999999
  0
LINE
  8
_0-1_ADD_LINE
  6
CONTINUOUS
 62
   18
 10
1715.7488666666668
 20
1086.5457999999999
 11
1779.1628666666666
 21
1086.5457999999999
  0
LINE
  8
_0-1_ADD_LINE
  6
CONTINUOUS
 62
   18
 10
1735.4714666666666
 20
1086.5457999999999
 11
1735.4714666666666
 21
1069.8428666666669
  0
LINE
  8
_0-1_ADD_LINE
  6
CONTINUOUS
 62
   18
 10
1753.1887333333334
 20
1070.2030666666665
 11
1753.1887333333334
 21
1086.5457999999999
  0
LINE
  8
_0-1_ADD_LINE
  6
CONTINUOUS
 62
   18
 10
1715.7488666666668
 20
1122.1704666666667
 11
1715.7488666666668
 21
1103.8371333333334
  0
LINE
  8
_0-1_ADD_LINE
  6
CONTINUOUS
 62
   18
 10
1715.7488666666668
 20
1120.5038
 11
1779.1628666666666
 21
1120.5038
  0
LINE
  8
_0-1_ADD_LINE
  6
CONTINUOUS
 62
   18
 10
1779.1628666666666
 20
1086.5457999999999
 11
1779.1628666666666
 21
1153.2124666666666
  0
LINE
  8
_0-1_ADD_LINE
  6
CONTINUOUS
 62
   18
 10
1779.1628666666666
 20
1153.2124666666666
 11
1787.9868666666666
 21
1153.2124666666666
  0
LINE
  8
_0-1_ADD_LINE
  6
CONTINUOUS
 62
   18
 10
1777.3475333333331
 20
1166.5458000000001
 11
1777.3475333333331
 21
1272.3942666666667
  0
LINE
  8
_0-1_ADD_LINE
  6
CONTINUOUS
 62
   18
 10
1586.6035999999999
 20
1184.7127333333333
 11
1742.6035999999999
 21
1184.7127333333333
  0
LINE
  8
_0-1_ADD_LINE
  6
CONTINUOUS
 62
   18
 10
1742.6035999999999
 20
1184.7127333333333
 11
1768.748
 21
1087.1404000000002
  0
LINE
  8
_0-1_ADD_LINE
  6
CONTINUOUS
 62
   18
 10
1768.748
 20
1087.1404000000002
 11
1768.748
 21
1092.1404000000002
  0
LINE
  8
_0-1_ADD_LINE
  6
CONTINUOUS
 62
   18
 10
1768.748
 20
1087.1404000000002
 11
1766.248
 21
1091.4705333333334
  0
LINE
  8
_0-1_ADD_LINE
  6
CONTINUOUS
 62
   18
 10
1766.248
 20
1091.4705333333334
 11
1768.748
 21
1087.1404000000002
  0
LINE
  8
_0-1_ADD_LINE
  6
CONTINUOUS
 62
   18
 10
1790.6808666666666
 20
1013.2124666666666
 11
1790.6808666666666
 21
1166.5458000000001
  0
LINE
  8
_0-1_ADD_LINE
  6
CONTINUOUS
 62
   18
 10
1789.6808666666666
 20
1014.2124666666667
 11
1789.6808666666666
 21
1146.5458000000001
  0
LINE
  8
_0-1_ADD_LINE
  6
CONTINUOUS
 62
   18
 10
1785.1913999999999
 20
1106.4805333333334
 11
1788.6808666666666
 21
1113.2124666666666
  0
LINE
  8
_0-1_ADD_LINE
  6
CONTINUOUS
 62
   18
 10
1788.6808666666666
 20
1113.2124666666666
 11
1788.6808666666666
 21
1015.2124666666667
  0
LINE
  8
_0-1_ADD_LINE
  6
CONTINUOUS
 62
   18
 10
1788.6808666666666
 20
1015.2124666666667
 11
1011.1877333333334
 21
1015.2124666666667
  0
LINE
  8
_0-1_ADD_LINE
  6
CONTINUOUS
 62
   18
 10
1011.1877333333334
 20
1025.2124666666666
 11
1722.0462
 21
1025.2124666666666
  0
LINE
  8
_0-1_ADD_LINE
  6
CONTINUOUS
 62
   18
 10
1722.0462
 20
1025.2124666666666
 11
1722.0462
 21
1015.2124666666667
  0
LINE
  8
_0-1_ADD_LINE
  6
CONTINUOUS
 62
   18
 10
1728.6808666666666
 20
1015.2124666666667
 11
1728.6808666666666
 21
1019.8791333333334
  0
LINE
  8
_0-1_ADD_LINE
  6
CONTINUOUS
 62
   18
 10
1728.6808666666666
 20
1019.8791333333334
 11
1733.9724666666666
 21
1019.8791333333334
  0
LINE
  8
_0-1_ADD_LINE
  6
CONTINUOUS
 62
   18
 10
1789.6808666666666
 20
1014.2124666666667
 11
1011.1877333333334
 21
1014.2124666666667
  0
LINE
  8
_0-1_ADD_LINE
  6
CONTINUOUS
 62
   18
 10
1011.1877333333334
 20
1013.2124666666666
 11
1790.6808666666666
 21
1013.2124666666666
  0
LINE
  8
_0-1_ADD_LINE
  6
CONTINUOUS
 62
   18
 10
1822.5225999999998
 20
1013.2124666666666
 11
1856.9892666666665
 21
1013.2124666666666
  0
LINE
  8
_0-1_ADD_LINE
  6
CONTINUOUS
 62
   18
 10
1855.8559333333333
 20
1013.2124666666666
 11
1855.8559333333333
 21
1113.2124666666666
  0
LINE
  8
_0-1_ADD_LINE
  6
CONTINUOUS
 62
   18
 10
1856.9892666666665
 20
1113.2124666666666
 11
1822.5225999999998
 21
1113.2124666666666
  0
LINE
  8
_0-1_ADD_LINE
  6
CONTINUOUS
 62
   18
 10
1790.6808666666666
 20
1101.5225333333333
 11
1846.8036666666667
 21
1157.6452666666667
  0
LINE
  8
_0-1_ADD_LINE
  6
CONTINUOUS
 62
   18
 10
1846.3947333333331
 20
1166.6644666666666
 11
1790.6808666666666
 21
1110.9505999999999
  0
LINE
  8
_0-1_ADD_LINE
  6
CONTINUOUS
 62
   18
 10
1790.6808666666666
 20
1120.3787333333332
 11
1836.9666000000002
 21
1166.6644666666666
  0
LINE
  8
_0-1_ADD_LINE
  6
CONTINUOUS
 62
   18
 10
1787.9868666666666
 20
1153.2124666666666
 11
1787.9868666666666
 21
1163.2124666666666
  0
LINE
  8
_0-1_ADD_LINE
  6
CONTINUOUS
 62
   18
 10
1790.6808666666666
 20
1166.5458000000001
 11
1777.3475333333331
 21
1166.5458000000001
  0
LINE
  8
_0-1_ADD_LINE
  6
CONTINUOUS
 62
   18
 10
1786.6291999999999
 20
1163.6771999999999
 11
1785.3351333333333
 21
1158.8475333333333
  0
LINE
  8
_0-1_ADD_LINE
  6
CONTINUOUS
 62
   18
 10
1785.3351333333333
 20
1158.8475333333333
 11
1788.8706666666667
 21
1162.3830666666665
  0
LINE
  8
_0-1_ADD_LINE
  6
CONTINUOUS
 62
   18
 10
1785.3351333333333
 20
1158.8475333333333
 11
1835.9808666666668
 21
1246.5686000000003
  0
LINE
  8
_0-1_ADD_LINE
  6
CONTINUOUS
 62
   18
 10
1835.9808666666668
 20
1246.5686000000003
 11
1889.9808666666668
 21
1246.5686000000003
  0
LINE
  8
_0-1_ADD_LINE
  6
CONTINUOUS
 62
   18
 10
1881.6525999999999
 20
1146.5458000000001
 11
1914.9859333333334
 21
1146.5458000000001
  0
LINE
  8
_0-1_ADD_LINE
  6
CONTINUOUS
 62
   18
 10
1916.1192666666666
 20
1146.5458000000001
 11
1914.9859333333334
 21
1146.5458000000001
  0
LINE
  8
_0-1_ADD_LINE
  6
CONTINUOUS
 62
   18
 10
1914.9859333333334
 20
1146.5458000000001
 11
1914.9859333333334
 21
1013.2124666666666
  0
LINE
  8
_0-1_ADD_LINE
  6
CONTINUOUS
 62
   18
 10
1916.6525999999999
 20
1013.2124666666666
 11
1881.6525999999999
 21
1013.2124666666666
  0
LINE
  8
_0-1_ADD_LINE
  6
CONTINUOUS
 62
   18
 10
1770.7017333333333
 20
1015.7888666666666
 11
1826.1008666666667
 21
919.83473333333336
  0
LINE
  8
_0-1_ADD_LINE
  6
CONTINUOUS
 62
   18
 10
1826.1008666666667
 20
919.83473333333336
 11
1960.1008666666667
 21
919.83473333333336
  0
LINE
  8
_0-1_ADD_LINE
  6
CONTINUOUS
 62
   18
 10
1770.7017333333333
 20
1015.7888666666666
 11
1771.9957999999999
 21
1010.9592666666667
  0
LINE
  8
_0-1_ADD_LINE
  6
CONTINUOUS
 62
   18
 10
1770.7017333333333
 20
1015.7888666666666
 11
1774.2372666666665
 21
1012.2533333333333
  0
LINE
  8
_0-1_ADD_LINE
  6
CONTINUOUS
 62
   18
 10
1774.2372666666665
 20
1012.2533333333333
 11
1770.7017333333333
 21
1015.7888666666666
  0
LINE
  8
_0-1_ADD_LINE
  6
CONTINUOUS
 62
   18
 10
1702.3707999999999
 20
1013.2124666666666
 11
1602.3707999999999
 21
913.21246666666661
  0
LINE
  8
_0-1_ADD_LINE
  6
CONTINUOUS
 62
   18
 10
1592.9427333333333
 20
913.21246666666661
 11
1692.9427333333333
 21
1013.2124666666666
  0
LINE
  8
_0-1_ADD_LINE
  6
CONTINUOUS
 62
   18
 10
1683.5146
 20
1013.2124666666666
 11
1583.5146
 21
913.21246666666661
  0
LINE
  8
_0-1_ADD_LINE
  6
CONTINUOUS
 62
   18
 10
1788.6808666666666
 20
938.91846666666663
 11
1788.6808666666666
 21
956.7184666666667
  0
LINE
  8
_0-1_ADD_LINE
  6
CONTINUOUS
 62
   18
 10
1728.6808666666666
 20
938.38513333333344
 11
1728.6808666666666
 21
956.7184666666667
  0
LINE
  8
_0-1_ADD_LINE
  6
CONTINUOUS
 62
   18
 10
1728.6808666666666
 20
940.05179999999996
 11
1788.6808666666666
 21
940.05179999999996
  0
LINE
  8
_0-1_ADD_LINE
  6
CONTINUOUS
 62
   18
 10
1790.6808666666666
 20
913.21246666666661
 11
1011.1877333333334
 21
913.21246666666661
  0
LINE
  8
_0-1_ADD_LINE
  6
CONTINUOUS
 62
   18
 10
1011.1877333333334
 20
944.2833333333333
 11
1080.1168
 21
1013.2124666666666
  0
LINE
  8
_0-1_ADD_LINE
  6
CONTINUOUS
 62
   18
 10
1011.1877333333334
 20
953.71139999999991
 11
1070.6887333333334
 21
1013.2124666666666
  0
LINE
  8
_0-1_ADD_LINE
  6
CONTINUOUS
 62
   18
 10
1011.1877333333334
 20
963.13953333333325
 11
1061.2606666666668
 21
1013.2124666666666
  0
LINE
  8
_0-1_ADD_LINE
  6
CONTINUOUS
 62
   18
 10
1187.5348000000001
 20
913.21246666666661
 11
1287.5347999999999
 21
1013.2124666666666
  0
LINE
  8
_0-1_ADD_LINE
  6
CONTINUOUS
 62
   18
 10
1178.1067333333335
 20
913.21246666666661
 11
1278.1067333333335
 21
1013.2124666666666
  0
LINE
  8
_0-1_ADD_LINE
  6
CONTINUOUS
 62
   18
 10
1168.6786666666667
 20
913.21246666666661
 11
1268.6786666666667
 21
1013.2124666666666
  0
LINE
  8
_0-1_ADD_LINE
  6
CONTINUOUS
 62
   18
 10
1298.6532
 20
1018.5858666666667
 11
1349.8262
 21
827.60566666666682
  0
LINE
  8
_0-1_ADD_LINE
  6
CONTINUOUS
 62
   18
 10
1349.8262
 20
827.60566666666682
 11
1510.0563999999999
 21
827.60566666666682
  0
LINE
  8
_0-1_ADD_LINE
  6
CONTINUOUS
 62
   18
 10
1344.4706666666666
 20
847.59293333333335
 11
1481.0191333333332
 21
847.59293333333335
  0
LINE
  8
_0-1_ADD_LINE
  6
CONTINUOUS
 62
   18
 10
1298.6532
 20
1018.5858666666667
 11
1298.6532
 21
1013.5858666666667
  0
LINE
  8
_0-1_ADD_LINE
  6
CONTINUOUS
 62
   18
 10
1298.6532
 20
1018.5858666666667
 11
1301.1532
 21
1014.2557333333333
  0
LINE
  8
_0-1_ADD_LINE
  6
CONTINUOUS
 62
   18
 10
1376.0965999999999
 20
913.21246666666661
 11
1476.0965999999999
 21
1013.2124666666666
  0
LINE
  8
_0-1_ADD_LINE
  6
CONTINUOUS
 62
   18
 10
1485.5247333333332
 20
1013.2124666666666
 11
1385.5247333333332
 21
913.21246666666661
  0
LINE
  8
_0-1_ADD_LINE
  6
CONTINUOUS
 62
   18
 10
1394.9528
 20
913.21246666666661
 11
1494.9528
 21
1013.2124666666666
  0
TEXT
  8
_0-0_LAYER001
 62
    7
 10
1824.1083691229464
 20
1250.2251391238524
 40
15
 41
1
 50
0
  1
シーリング
  0
TEXT
  8
_0-0_LAYER001
 62
    7
 10
1946.1610035031144
 20
1009.1600799242351
 40
15
 41
1
 50
90
  1
水切り鉄板立上がり寸法
  0
TEXT
  8
_0-0_LAYER001
 62
    7
 10
1875.4632430141769
 20
992.93436440218386
 40
15
 41
1
 50
90
  1
下葺き材立上がり寸法
  0
TEXT
  8
_0-0_LAYER001
 62
    7
 10
1628.600571142968
 20
1163.3043773837223
 40
15
 41
1
 50
0
  1
弾性シール材
  0
TEXT
  8
_0-0_LAYER001
 62
    7
 10
1239.208532060102
 20
1236.3791274234438
 40
20
 41
1
 50
0
  1
308
  0
TEXT
  8
_0-0_LAYER001
 62
    7
 10
1651.6430843823864
 20
1106.9288664755734
 40
20
 41
1
 50
90
  1
100
  0
TEXT
  8
_0-0_LAYER001
 62
    7
 10
1845.3167306067194
 20
1046.7194427788897
 40
20
 41
1
 50
90
  1
150
  0
TEXT
  8
_0-0_LAYER001
 62
    7
 10
1909.5401158831824
 20
1062.7752890980055
 40
20
 41
1
 50
90
  1
100
  0
TEXT
  8
_0-0_LAYER001
 62
    7
 10
1735.9362775577438
 20
1120.9777320047997
 40
20
 41
1
 50
0
  1
95
  0
TEXT
  8
_0-0_LAYER001
 62
    7
 10
1746.9746719021359
 20
945.36691288947179
 40
20
 41
1
 50
0
  1
90
  0
TEXT
  8
_0-0_LAYER001
 62
    7
 10
1639.6011996430498
 20
1234.3721466335544
 40
20
 41
1
 50
0
  1
308
  0
TEXT
  8
_0-0_LAYER001
 62
    7
 10
1836.2853170522169
 20
928.30757617541144
 40
15
 41
1
 50
0
  1
捨谷カラー鋼板０．３５ｍｍ以上
  0
TEXT
  8
_0-0_LAYER001
 62
    7
 10
1464.3166127757531
 20
1189.966717960506
 40
15
 41
1
 50
0
  1
登り水切カラー鋼板０．３５ｍｍ以上
  0
TEXT
  8
_0-0_LAYER001
 62
    7
 10
1454.3782735717232
 20
1232.5596002634916
 40
20
 41
1
 50
0
  1
308
  0
CIRCLE
  8
_0-0_LAYER001
  6
CONTINUOUS
 62
    2
 10
1760.7113333333334
 20
1256.4036654224672
 40
1.1333333333333331
  0
LINE
  8
_0-0_LAYER001
  6
CONTINUOUS
 62
    2
 10
1760.7113333333334
 20
1256.4036654224672
 11
1555.3780000000002
 21
1256.4036654224672
  0
CIRCLE
  8
_0-0_LAYER001
  6
CONTINUOUS
 62
    2
 10
1555.3780000000002
 20
1256.4036654224672
 40
1.1333333333333331
  0
CIRCLE
  8
_0-0_LAYER001
  6
CONTINUOUS
 62
    2
 10
1555.3780000000002
 20
1256.4036654224672
 40
1.1333333333333331
  0
LINE
  8
_0-0_LAYER001
  6
CONTINUOUS
 62
    2
 10
1555.3780000000002
 20
1256.4036654224672
 11
1350.0446666666667
 21
1256.4036654224672
  0
CIRCLE
  8
_0-0_LAYER001
  6
CONTINUOUS
 62
    2
 10
1350.0446666666667
 20
1256.4036654224672
 40
1.1333333333333331
  0
CIRCLE
  8
_0-0_LAYER001
  6
CONTINUOUS
 62
    2
 10
1350.0446666666667
 20
1256.4036654224672
 40
1.1333333333333331
  0
LINE
  8
_0-0_LAYER001
  6
CONTINUOUS
 62
    2
 10
1350.0446666666667
 20
1256.4036654224672
 11
1144.7113333333334
 21
1256.4036654224672
  0
CIRCLE
  8
_0-0_LAYER001
  6
CONTINUOUS
 62
    2
 10
1144.7113333333334
 20
1256.4036654224672
 40
1.1333333333333331
  0
LINE
  8
_0-1_ADD_LINE
  6
CONTINUOUS
 62
   18
 10
1760.7113333333334
 20
1256.4036654224672
 11
1144.7113333333334
 21
1256.4036654224672
  0
LINE
  8
_0-0_LAYER001
  6
CONTINUOUS
 62
    2
 10
1760.7113333333334
 20
1258.0703320891339
 11
1760.7113333333334
 21
1223.0703320891339
  0
LINE
  8
_0-0_LAYER001
  6
CONTINUOUS
 62
    2
 10
1555.3780000000002
 20
1258.0703320891339
 11
1555.3780000000002
 21
1223.0703320891339
  0
LINE
  8
_0-0_LAYER001
  6
CONTINUOUS
 62
    2
 10
1350.0446666666667
 20
1258.0703320891339
 11
1350.0446666666667
 21
1223.0703320891339
  0
LINE
  8
_0-0_LAYER001
  6
CONTINUOUS
 62
    2
 10
1144.7113333333334
 20
1258.0703320891339
 11
1144.7113333333334
 21
1223.0703320891339
  0
LINE
  8
_0-1_ADD_LINE
  6
CONTINUOUS
 62
   18
 10
1760.7113333333334
 20
1223.5207784099123
 11
1760.7113333333334
 21
1257.987445076579
  0
LINE
  8
_0-1_ADD_LINE
  6
CONTINUOUS
 62
   18
 10
1555.3780000000002
 20
1223.5207784099123
 11
1555.3780000000002
 21
1257.987445076579
  0
LINE
  8
_0-1_ADD_LINE
  6
CONTINUOUS
 62
   18
 10
1350.0446666666667
 20
1223.5207784099123
 11
1350.0446666666667
 21
1256.8541117432455
  0
LINE
  8
_0-1_ADD_LINE
  6
CONTINUOUS
 62
   18
 10
1144.7113333333334
 20
1223.5207784099123
 11
1144.7113333333334
 21
1256.8541117432455
  0
LINE
  8
_0-0_LAYER001
  6
CONTINUOUS
 62
    7
 10
1586.6035999999999
 20
1184.7127333333333
 11
1459.3555554347154
 21
1184.7127333333333
  0
LINE
  8
_0-0_LAYER001
  6
CONTINUOUS
 62
    7
 10
1653.4049333333332
 20
1161.3466666666666
 11
1626.9361927497134
 21
1161.3466666666666
  0
LINE
  8
_0-0_LAYER001
  6
CONTINUOUS
 62
    7
 10
1889.9808666666668
 20
1246.5686000000003
 11
1904.7157705558973
 21
1246.5686000000003
  0
LINE
  8
_0-0_LAYER001
  6
CONTINUOUS
 62
    7
 10
1960.1008666666667
 20
919.83473333333336
 11
2095.7707383897282
 21
919.83473333333336
  0
LINE
  8
_0-0_LAYER001
  6
CONTINUOUS
 62
    7
 10
1481.0191333333332
 20
847.59293333333335
 11
1530.430611727847
 21
847.59293333333335
  0
LINE
  8
_0-0_LAYER001
  6
CONTINUOUS
 62
    7
 10
1510.0563999999999
 20
827.60566666666682
 11
1581.291661185317
 21
827.60566666666682
  0
TEXT
  8
_0-0_LAYER001
 62
    7
 10
1354.2901529733003
 20
852.97911838087043
 40
15
 41
1
 50
0
  1
瓦桟：１５ｘ３０以上
  0
TEXT
  8
_0-0_LAYER001
 62
    7
 10
1337.6966714261914
 20
829.51822950152462
 40
15
 41
1
 50
0
  1
　下葺材：ルーフィング
  0
ENDSEC
  0
EOF
