  0
SECTION
  2
HEADER
  9
$ACADVER
  1
AC1009
  9
$INSBASE
 10
0
 20
0
 30
0
  9
$EXTMIN
 10
0
 20
0
  9
$EXTMAX
 10
2970
 20
2100
  9
$LIMMIN
 10
0
 20
0
  9
$LIMMAX
 10
2970
 20
2100
  9
$LTSCALE
 40
10
  0
ENDSEC
  0
SECTION
  2
TABLES
  0
TABLE
  2
LTYPE
 70
     9
  0
LTYPE
  2
CONTINUOUS
 70
    64
  3
実線
 72
    65
 73
     0
 40
0.0
  0
LTYPE
  2
DASHED1
 70
    64
  3
--  --  --  --  --  --  --  --  
 72
    65
 73
     2
 40
2.5
 49
1.25
 49
-1.25
  0
LTYPE
  2
DASHED2
 70
    64
  3
----    ----    ----    ----    
 72
    65
 73
     2
 40
5.0
 49
2.5
 49
-2.5
  0
LTYPE
  2
DASHED3
 70
    64
  3
------  ------  ------  ------  
 72
    65
 73
     2
 40
5.0
 49
3.75
 49
-1.25
  0
LTYPE
  2
CENTER1
 70
    64
  3
----- - ----- - ----- - ----- - 
 72
    65
 73
     4
 40
10.0
 49
6.25
 49
-1.25
 49
1.25
 49
-1.25
  0
LTYPE
  2
CENTER2
 70
    64
  3
----------  --  ----------  --  
 72
    65
 73
     4
 40
20.0
 49
12.5
 49
-2.5
 49
2.5
 49
-2.5
  0
LTYPE
  2
PHANTOM1
 70
    64
  3
--- - - --- - - --- - - --- - - 
 72
    65
 73
     6
 40
10.0
 49
3.25
 49
-1.25
 49
1.25
 49
-1.25
 49
1.25
 49
-1.25
  0
LTYPE
  2
PHANTOM2
 70
    64
  3
--------  -  -  --------  -  -  
 72
    65
 73
     6
 40
20.0
 49
10.0
 49
-2.5
 49
1.25
 49
-2.5
 49
1.25
 49
-2.5
  0
LTYPE
  2
DOT
 70
    64
  3
-   -   -   -   -   -   -   -   
 72
    65
 73
     2
 40
2.5
 49
0.625
 49
-1.875
  0
LTYPE
  2
DUMMY
 70
    64
  3
ダミー
 72
    65
 73
     0
 40
0.0
  0
LTYPE
  2
RAND1
 70
    64
  3
ランダム線1
 72
    65
 73
     4
 40
10.0
 49
1.0
 49
-2.0
 49
3.0
 49
-4.0
  0
LTYPE
  2
RAND2
 70
    64
  3
ランダム線2
 72
    65
 73
     4
 40
14.0
 49
2.0
 49
-3.0
 49
4.0
 49
-5.0
  0
LTYPE
  2
RAND3
 70
    64
  3
ランダム線3
 72
    65
 73
     4
 40
18.0
 49
3.0
 49
-4.0
 49
5.0
 49
-6.0
  0
LTYPE
  2
RAND4
 70
    64
  3
ランダム線4
 72
    65
 73
     4
 40
22.0
 49
4.0
 49
-5.0
 49
6.0
 49
-7.0
  0
LTYPE
  2
RAND5
 70
    64
  3
ランダム線5
 72
    65
 73
     4
 40
26.0
 49
5.0
 49
-6.0
 49
7.0
 49
-8.0
  0
LTYPE
  2
LONG1
 70
    64
  3
----------  --  ----------  --  
 72
    65
 73
     4
 40
40.0
 49
32.5
 49
-2.5
 49
2.5
 49
-2.5
  0
LTYPE
  2
LONG2
 70
    64
  3
--------  -  -  --------  -  -  
 72
    65
 73
     6
 40
40.0
 49
30.0
 49
-2.5
 49
1.25
 49
-2.5
 49
1.25
 49
-2.5
  0
LTYPE
  2
LONG3
 70
    64
  3
+++++++++++++++..+++++++++++++++
 72
    65
 73
     2
 40
40.0
 49
37.5
 49
-2.5
  0
LTYPE
  2
LONG4
 70
    64
  3
+++++++++++++++..+++++++++++++++
 72
    65
 73
     2
 40
80.0
 49
75.0
 49
-5.0
  0
LTYPE
  2
LONG5
 70
    64
  3
----------  --  ----------  --  
 72
    65
 73
     4
 40
60.0
 49
37.5
 49
-7.5
 49
7.5
 49
-7.5
  0
LTYPE
  2
dashed
 70
   64
  3
-------   -------------   ------
 72
   65
 73
    2
 40
7.5
 49
6
 49
-1.5
  0
LTYPE
  2
dashed_spaced
 70
   64
  3
----        --------        ----
 72
   65
 73
    2
 40
12
 49
6
 49
-6
  0
LTYPE
  2
long_dashed_dotted
 70
   64
  3
------------- --- --------------
 72
   65
 73
    4
 40
15.25
 49
12
 49
-1.5
 49
0.25
 49
-1.5
  0
LTYPE
  2
long_dashed_double-dotted
 70
   64
  3
----------- --- --- ------------
 72
   65
 73
    6
 40
17
 49
12
 49
-1.5
 49
0.25
 49
-1.5
 49
0.25
 49
-1.5
  0
LTYPE
  2
long_dashed_triplicate-dotted
 70
   64
  3
--------- --- --- --- ----------
 72
   65
 73
    8
 40
18.75
 49
12
 49
-1.5
 49
0.25
 49
-1.5
 49
0.25
 49
-1.5
 49
0.25
 49
-1.5
  0
LTYPE
  2
dotted
 70
   64
  3
   -       -       -       -    
 72
   65
 73
    2
 40
1.75
 49
0.25
 49
-1.5
  0
LTYPE
  2
chain
 70
   64
  3
-------------- -- --------------
 72
   65
 73
    4
 40
18.5
 49
12
 49
-1.5
 49
3.5
 49
-1.5
  0
LTYPE
  2
chain_double_dash
 70
   64
  3
------------ -- -- -------------
 72
   65
 73
    6
 40
23.5
 49
12
 49
-1.5
 49
3.5
 49
-1.5
 49
3.5
 49
-1.5
  0
LTYPE
  2
dashed_dotted
 70
   64
  3
-----------     -     ----------
 72
   65
 73
    4
 40
9.25
 49
6
 49
-1.5
 49
0.25
 49
-1.5
  0
LTYPE
  2
double-dashed_dotted
 70
   64
  3
------   -----------   -   -----
 72
   65
 73
    6
 40
16.75
 49
6
 49
-1.5
 49
6
 49
-1.5
 49
0.25
 49
-1.5
  0
LTYPE
  2
dashed_double-dotted
 70
   64
  3
---------    -    -    ---------
 72
   65
 73
    6
 40
11
 49
6
 49
-1.5
 49
0.25
 49
-1.5
 49
0.25
 49
-1.5
  0
LTYPE
  2
double-dashed_double-dotted
 70
   64
  3
-----   ---------   -   -   ----
 72
   65
 73
    8
 40
18.5
 49
6
 49
-1.5
 49
6
 49
-1.5
 49
0.25
 49
-1.5
 49
0.25
 49
-1.5
  0
LTYPE
  2
dashed_triplicate-dotted
 70
   64
  3
-------    -    -    -    ------
 72
   65
 73
    8
 40
12.75
 49
6
 49
-1.5
 49
0.25
 49
-1.5
 49
0.25
 49
-1.5
 49
0.25
 49
-1.5
  0
LTYPE
  2
double-dashed_triplicate-dotted
 70
   64
  3
-----  ---------  -  -  -  -----
 72
   65
 73
   10
 40
20.25
 49
6
 49
-1.5
 49
6
 49
-1.5
 49
0.25
 49
-1.5
 49
0.25
 49
-1.5
 49
0.25
 49
-1.5
  0
LTYPE
  2
undefined
 70
   64
  3
--------------------------------
 72
   65
 73
    0
 40
0
  0
ENDTAB
  0
TABLE
  2
STYLE
  5
3
100
AcDbSymbolTable
 70
     1
  0
STYLE
  5
10
100
AcDbSymbolTableRecord
100
AcDbTextStyleTableRecord
  2
STANDARD
 70
     0
 40
0.0
 41
1.0
 50
0.0
 71
     0
 42
0.2
  3
txt
  4
bigfont.shx
  0
STYLE
  5
26
100
AcDbSymbolTableRecord
100
AcDbTextStyleTableRecord
  2
TATEGAKI
 70
    68
 40
0.0
 41
1.0
 50
0.0
 71
     0
 42
1.0
  3
txt
  4
bigfont.shx
  0
ENDTAB
  0
TABLE
  2
LAYER
 70
    3
  0
LAYER
  2
_0-0_LAYER001
 70
   64
 62
    7
  6
CONTINUOUS
  0
LAYER
  2
_0-1_LAYER004
 70
   64
 62
    7
  6
CONTINUOUS
  0
LAYER
  2
ADD_LINE
 70
   64
 62
    7
  6
CONTINUOUS
  0
ENDTAB
  0
ENDSEC
  0
SECTION
  2
BLOCKS
  0
ENDSEC
  0
SECTION
  2
ENTITIES
  0
LINE
  8
_0-0_LAYER001
  6
CONTINUOUS
 62
    2
 10
1588.1498666666666
 20
833.92500000000018
 11
1751.3961333333332
 21
833.92500000000018
  0
LINE
  8
_0-0_LAYER001
  6
CONTINUOUS
 62
    2
 10
1423.4777333333332
 20
1070.2750666666666
 11
1423.4777333333332
 21
1063.9457333333332
  0
LINE
  8
_0-0_LAYER001
  6
CONTINUOUS
 62
    2
 10
1200.8600666666666
 20
1100.29
 11
1200.8600666666666
 21
1166.9566666666667
  0
LINE
  8
_0-0_LAYER001
  6
CONTINUOUS
 62
    2
 10
1202.6754000000001
 20
1180.29
 11
1202.6754000000001
 21
1286.138533333333
  0
LINE
  8
_0-0_LAYER001
  6
CONTINUOUS
 62
    2
 10
1189.3420666666666
 20
1000.29
 11
1189.3420666666666
 21
1038.9566666666665
  0
LINE
  8
_0-0_LAYER001
  6
CONTINUOUS
 62
    2
 10
1257.9767333333334
 20
1038.9566666666665
 11
1257.9767333333334
 21
1028.9566666666665
  0
LINE
  8
_0-0_LAYER001
  6
CONTINUOUS
 62
    2
 10
1251.3420666666666
 20
1033.6233333333332
 11
1246.0504000000001
 21
1033.6233333333332
  0
LINE
  8
_0-0_LAYER001
  6
CONTINUOUS
 62
    2
 10
1251.3420666666666
 20
1028.9566666666665
 11
1251.3420666666666
 21
1033.6233333333332
  0
LINE
  8
_0-0_LAYER001
  6
CONTINUOUS
 62
    2
 10
1191.3420666666666
 20
1028.9566666666665
 11
1191.3420666666666
 21
1126.9566666666667
  0
LINE
  8
_0-0_LAYER001
  6
CONTINUOUS
 62
    2
 10
1110.4745333333333
 20
1153.6097333333332
 11
1202.6754000000001
 21
1245.8106
  0
LINE
  8
_0-0_LAYER001
  6
CONTINUOUS
 62
    2
 10
1110.4745333333333
 20
1163.0378000000001
 11
1202.6754000000001
 21
1255.2386666666666
  0
LINE
  8
_0-0_LAYER001
  6
CONTINUOUS
 62
    2
 10
1110.4745333333333
 20
1172.4658666666667
 11
1202.6754000000001
 21
1264.6668
  0
LINE
  8
_0-0_LAYER001
  6
CONTINUOUS
 62
    2
 10
1189.3420666666666
 20
1000.29
 11
1968.8352
 21
1000.29
  0
LINE
  8
_0-0_LAYER001
  6
CONTINUOUS
 62
    2
 10
1189.3420666666666
 20
900.28999999999996
 11
1968.8352
 21
900.28999999999996
  0
LINE
  8
_0-0_LAYER001
  6
CONTINUOUS
 62
    2
 10
1189.3420666666666
 20
1026.9566666666667
 11
1968.8352
 21
1026.9566666666667
  0
LINE
  8
_0-0_LAYER001
  6
CONTINUOUS
 62
    2
 10
1257.9767333333334
 20
1038.9566666666665
 11
1968.8352
 21
1038.9566666666665
  0
LINE
  8
_0-0_LAYER001
  6
CONTINUOUS
 62
    2
 10
1257.9767333333334
 20
1028.9566666666665
 11
1968.8352
 21
1028.9566666666665
  0
LINE
  8
_0-0_LAYER001
  6
CONTINUOUS
 62
    2
 10
1191.3420666666666
 20
1028.9566666666665
 11
1251.3420666666666
 21
1028.9566666666665
  0
LINE
  8
_0-0_LAYER001
  6
CONTINUOUS
 62
    2
 10
1257.9767333333334
 20
1028.9566666666665
 11
1968.8352
 21
1028.9566666666665
  0
LINE
  8
_0-0_LAYER001
  6
DASHED3
 62
    2
 10
1190.3420666666666
 20
1027.9566666666667
 11
1968.8352
 21
1027.9566666666667
  0
LINE
  8
_0-0_LAYER001
  6
CONTINUOUS
 62
    2
 10
1891.652
 20
900.28999999999996
 11
1968.8352
 21
977.47320000000002
  0
LINE
  8
_0-0_LAYER001
  6
CONTINUOUS
 62
    2
 10
1684.2340000000002
 20
900.28999999999996
 11
1784.2340000000002
 21
1000.29
  0
LINE
  8
_0-0_LAYER001
  6
CONTINUOUS
 62
    2
 10
1476.816
 20
900.28999999999996
 11
1576.816
 21
1000.29
  0
LINE
  8
_0-0_LAYER001
  6
CONTINUOUS
 62
    2
 10
1269.3980000000001
 20
900.28999999999996
 11
1369.3979999999999
 21
1000.29
  0
LINE
  8
_0-0_LAYER001
  6
CONTINUOUS
 62
    2
 10
1882.2239333333334
 20
900.28999999999996
 11
1968.8352
 21
986.90126666666652
  0
LINE
  8
_0-0_LAYER001
  6
CONTINUOUS
 62
    2
 10
1674.8059333333333
 20
900.28999999999996
 11
1774.8059333333333
 21
1000.29
  0
LINE
  8
_0-0_LAYER001
  6
CONTINUOUS
 62
    2
 10
1467.3879333333334
 20
900.28999999999996
 11
1567.3879333333334
 21
1000.29
  0
LINE
  8
_0-0_LAYER001
  6
CONTINUOUS
 62
    2
 10
1259.9699333333333
 20
900.28999999999996
 11
1359.9699333333333
 21
1000.29
  0
LINE
  8
_0-0_LAYER001
  6
CONTINUOUS
 62
    2
 10
1872.7957999999999
 20
900.28999999999996
 11
1968.8352
 21
996.32939999999985
  0
LINE
  8
_0-0_LAYER001
  6
CONTINUOUS
 62
    2
 10
1665.3778
 20
900.28999999999996
 11
1765.3778
 21
1000.29
  0
LINE
  8
_0-0_LAYER001
  6
CONTINUOUS
 62
    2
 10
1457.9598666666666
 20
900.28999999999996
 11
1557.9598666666666
 21
1000.29
  0
LINE
  8
_0-0_LAYER001
  6
CONTINUOUS
 62
    2
 10
1250.5418666666667
 20
900.28999999999996
 11
1350.5418666666665
 21
1000.29
  0
LINE
  8
_0-0_LAYER001
  6
CONTINUOUS
 62
    1
 10
1966.0555333333332
 20
1000.29
 11
1968.8352
 21
1003.0696666666666
  0
LINE
  8
_0-0_LAYER001
  6
CONTINUOUS
 62
    1
 10
1958.9844666666668
 20
1000.29
 11
1968.8352
 21
1010.1407333333333
  0
LINE
  8
_0-0_LAYER001
  6
CONTINUOUS
 62
    1
 10
1951.9133999999999
 20
1000.29
 11
1968.8352
 21
1017.2118
  0
LINE
  8
_0-0_LAYER001
  6
CONTINUOUS
 62
    1
 10
1944.8423333333333
 20
1000.29
 11
1968.8352
 21
1024.2828666666667
  0
LINE
  8
_0-0_LAYER001
  6
CONTINUOUS
 62
    1
 10
1937.7712666666666
 20
1000.29
 11
1964.4379333333334
 21
1026.9566666666667
  0
LINE
  8
_0-0_LAYER001
  6
CONTINUOUS
 62
    1
 10
1930.7002
 20
1000.29
 11
1957.3668666666665
 21
1026.9566666666667
  0
LINE
  8
_0-0_LAYER001
  6
CONTINUOUS
 62
    1
 10
1923.6291333333334
 20
1000.29
 11
1950.2957999999999
 21
1026.9566666666667
  0
LINE
  8
_0-0_LAYER001
  6
CONTINUOUS
 62
    1
 10
1916.5580666666667
 20
1000.29
 11
1943.2247333333335
 21
1026.9566666666667
  0
LINE
  8
_0-0_LAYER001
  6
CONTINUOUS
 62
    1
 10
1909.4870000000001
 20
1000.29
 11
1936.1536666666666
 21
1026.9566666666667
  0
LINE
  8
_0-0_LAYER001
  6
CONTINUOUS
 62
    1
 10
1902.4159333333332
 20
1000.29
 11
1929.0825999999997
 21
1026.9566666666667
  0
LINE
  8
_0-0_LAYER001
  6
CONTINUOUS
 62
    1
 10
1895.3448666666668
 20
1000.29
 11
1922.0115333333331
 21
1026.9566666666667
  0
LINE
  8
_0-0_LAYER001
  6
CONTINUOUS
 62
    1
 10
1888.2737999999999
 20
1000.29
 11
1914.9404666666667
 21
1026.9566666666667
  0
LINE
  8
_0-0_LAYER001
  6
CONTINUOUS
 62
    1
 10
1881.2027333333333
 20
1000.29
 11
1907.8693999999998
 21
1026.9566666666667
  0
LINE
  8
_0-0_LAYER001
  6
CONTINUOUS
 62
    1
 10
1874.1316666666669
 20
1000.29
 11
1900.7983333333334
 21
1026.9566666666667
  0
LINE
  8
_0-0_LAYER001
  6
CONTINUOUS
 62
    1
 10
1867.0606
 20
1000.29
 11
1893.7272666666668
 21
1026.9566666666667
  0
LINE
  8
_0-0_LAYER001
  6
CONTINUOUS
 62
    1
 10
1859.9895333333334
 20
1000.29
 11
1886.6561999999999
 21
1026.9566666666667
  0
LINE
  8
_0-0_LAYER001
  6
CONTINUOUS
 62
    1
 10
1852.9184666666665
 20
1000.29
 11
1879.585133333333
 21
1026.9566666666667
  0
LINE
  8
_0-0_LAYER001
  6
CONTINUOUS
 62
    1
 10
1845.8474000000001
 20
1000.29
 11
1872.5140666666666
 21
1026.9566666666667
  0
LINE
  8
_0-0_LAYER001
  6
CONTINUOUS
 62
    1
 10
1838.7763333333332
 20
1000.29
 11
1865.443
 21
1026.9566666666667
  0
LINE
  8
_0-0_LAYER001
  6
CONTINUOUS
 62
    1
 10
1831.7052666666666
 20
1000.29
 11
1858.3719333333331
 21
1026.9566666666667
  0
LINE
  8
_0-0_LAYER001
  6
CONTINUOUS
 62
    1
 10
1824.6342000000002
 20
1000.29
 11
1851.3008666666667
 21
1026.9566666666667
  0
LINE
  8
_0-0_LAYER001
  6
CONTINUOUS
 62
    1
 10
1817.5631333333333
 20
1000.29
 11
1844.2298000000001
 21
1026.9566666666667
  0
LINE
  8
_0-0_LAYER001
  6
CONTINUOUS
 62
    1
 10
1810.4920666666667
 20
1000.29
 11
1837.1587333333332
 21
1026.9566666666667
  0
LINE
  8
_0-0_LAYER001
  6
CONTINUOUS
 62
    1
 10
1803.4209999999998
 20
1000.29
 11
1830.0876666666663
 21
1026.9566666666667
  0
LINE
  8
_0-0_LAYER001
  6
CONTINUOUS
 62
    1
 10
1796.3499333333334
 20
1000.29
 11
1823.0165999999999
 21
1026.9566666666667
  0
LINE
  8
_0-0_LAYER001
  6
CONTINUOUS
 62
    1
 10
1789.2788666666665
 20
1000.29
 11
1815.9455333333333
 21
1026.9566666666667
  0
LINE
  8
_0-0_LAYER001
  6
CONTINUOUS
 62
    1
 10
1782.2078000000001
 20
1000.29
 11
1808.8744666666666
 21
1026.9566666666667
  0
LINE
  8
_0-0_LAYER001
  6
CONTINUOUS
 62
    1
 10
1775.1367333333335
 20
1000.29
 11
1801.8034
 21
1026.9566666666667
  0
LINE
  8
_0-0_LAYER001
  6
CONTINUOUS
 62
    1
 10
1768.0656666666666
 20
1000.29
 11
1794.7323333333334
 21
1026.9566666666667
  0
LINE
  8
_0-0_LAYER001
  6
CONTINUOUS
 62
    1
 10
1760.9946
 20
1000.29
 11
1787.6612666666665
 21
1026.9566666666667
  0
LINE
  8
_0-0_LAYER001
  6
CONTINUOUS
 62
    1
 10
1753.9235333333331
 20
1000.29
 11
1780.5902000000001
 21
1026.9566666666667
  0
LINE
  8
_0-0_LAYER001
  6
CONTINUOUS
 62
    1
 10
1746.8524666666667
 20
1000.29
 11
1773.5191333333332
 21
1026.9566666666667
  0
LINE
  8
_0-0_LAYER001
  6
CONTINUOUS
 62
    1
 10
1739.7813999999998
 20
1000.29
 11
1766.4480666666666
 21
1026.9566666666667
  0
LINE
  8
_0-0_LAYER001
  6
CONTINUOUS
 62
    1
 10
1732.7103333333334
 20
1000.29
 11
1759.377
 21
1026.9566666666667
  0
LINE
  8
_0-0_LAYER001
  6
CONTINUOUS
 62
    1
 10
1725.6392666666668
 20
1000.29
 11
1752.3059333333333
 21
1026.9566666666667
  0
LINE
  8
_0-0_LAYER001
  6
CONTINUOUS
 62
    1
 10
1718.5681999999999
 20
1000.29
 11
1745.2348666666667
 21
1026.9566666666667
  0
LINE
  8
_0-0_LAYER001
  6
CONTINUOUS
 62
    1
 10
1711.4971333333333
 20
1000.29
 11
1738.1637999999998
 21
1026.9566666666667
  0
LINE
  8
_0-0_LAYER001
  6
CONTINUOUS
 62
    1
 10
1704.4260666666664
 20
1000.29
 11
1731.0927333333334
 21
1026.9566666666667
  0
LINE
  8
_0-0_LAYER001
  6
CONTINUOUS
 62
    1
 10
1697.355
 20
1000.29
 11
1724.0216666666665
 21
1026.9566666666667
  0
LINE
  8
_0-0_LAYER001
  6
CONTINUOUS
 62
    1
 10
1690.2839333333336
 20
1000.29
 11
1716.9506000000001
 21
1026.9566666666667
  0
LINE
  8
_0-0_LAYER001
  6
CONTINUOUS
 62
    1
 10
1683.2128666666667
 20
1000.29
 11
1709.8795333333333
 21
1026.9566666666667
  0
LINE
  8
_0-0_LAYER001
  6
CONTINUOUS
 62
    1
 10
1676.1418000000001
 20
1000.29
 11
1702.8084666666666
 21
1026.9566666666667
  0
LINE
  8
_0-0_LAYER001
  6
CONTINUOUS
 62
    1
 10
1669.0707333333332
 20
1000.29
 11
1695.7374
 21
1026.9566666666667
  0
LINE
  8
_0-0_LAYER001
  6
CONTINUOUS
 62
    1
 10
1661.9996666666666
 20
1000.29
 11
1688.6663333333331
 21
1026.9566666666667
  0
LINE
  8
_0-0_LAYER001
  6
CONTINUOUS
 62
    1
 10
1654.9285999999997
 20
1000.29
 11
1681.5952666666667
 21
1026.9566666666667
  0
LINE
  8
_0-0_LAYER001
  6
CONTINUOUS
 62
    1
 10
1647.8575333333333
 20
1000.29
 11
1674.5242000000003
 21
1026.9566666666667
  0
LINE
  8
_0-0_LAYER001
  6
CONTINUOUS
 62
    1
 10
1640.7864666666669
 20
1000.29
 11
1667.4531333333334
 21
1026.9566666666667
  0
LINE
  8
_0-0_LAYER001
  6
CONTINUOUS
 62
    1
 10
1633.7154
 20
1000.29
 11
1660.3820666666666
 21
1026.9566666666667
  0
LINE
  8
_0-0_LAYER001
  6
CONTINUOUS
 62
    1
 10
1626.6442666666667
 20
1000.29
 11
1653.3109333333332
 21
1026.9566666666667
  0
LINE
  8
_0-0_LAYER001
  6
CONTINUOUS
 62
    1
 10
1619.5732
 20
1000.29
 11
1646.2398666666668
 21
1026.9566666666667
  0
LINE
  8
_0-0_LAYER001
  6
CONTINUOUS
 62
    1
 10
1612.5021333333334
 20
1000.29
 11
1639.1687999999999
 21
1026.9566666666667
  0
LINE
  8
_0-0_LAYER001
  6
CONTINUOUS
 62
    1
 10
1605.4310666666665
 20
1000.29
 11
1632.0977333333335
 21
1026.9566666666667
  0
LINE
  8
_0-0_LAYER001
  6
CONTINUOUS
 62
    1
 10
1598.3600000000001
 20
1000.29
 11
1625.0266666666666
 21
1026.9566666666667
  0
LINE
  8
_0-0_LAYER001
  6
CONTINUOUS
 62
    1
 10
1591.2889333333333
 20
1000.29
 11
1617.9556
 21
1026.9566666666667
  0
LINE
  8
_0-0_LAYER001
  6
CONTINUOUS
 62
    1
 10
1584.2178666666666
 20
1000.29
 11
1610.8845333333331
 21
1026.9566666666667
  0
LINE
  8
_0-0_LAYER001
  6
CONTINUOUS
 62
    1
 10
1577.1468000000002
 20
1000.29
 11
1603.8134666666667
 21
1026.9566666666667
  0
LINE
  8
_0-0_LAYER001
  6
CONTINUOUS
 62
    1
 10
1570.0757333333333
 20
1000.29
 11
1596.7424000000001
 21
1026.9566666666667
  0
LINE
  8
_0-0_LAYER001
  6
CONTINUOUS
 62
    1
 10
1563.0046666666667
 20
1000.29
 11
1589.6713333333332
 21
1026.9566666666667
  0
LINE
  8
_0-0_LAYER001
  6
CONTINUOUS
 62
    1
 10
1555.9335999999998
 20
1000.29
 11
1582.6002666666668
 21
1026.9566666666667
  0
LINE
  8
_0-0_LAYER001
  6
CONTINUOUS
 62
    1
 10
1548.8625333333332
 20
1000.29
 11
1575.5291999999999
 21
1026.9566666666667
  0
LINE
  8
_0-0_LAYER001
  6
CONTINUOUS
 62
    1
 10
1541.7914666666666
 20
1000.29
 11
1568.4581333333333
 21
1026.9566666666667
  0
LINE
  8
_0-0_LAYER001
  6
CONTINUOUS
 62
    1
 10
1534.7203999999999
 20
1000.29
 11
1561.3870666666664
 21
1026.9566666666667
  0
LINE
  8
_0-0_LAYER001
  6
CONTINUOUS
 62
    1
 10
1527.6493333333335
 20
1000.29
 11
1554.316
 21
1026.9566666666667
  0
LINE
  8
_0-0_LAYER001
  6
CONTINUOUS
 62
    1
 10
1520.5782666666667
 20
1000.29
 11
1547.2449333333334
 21
1026.9566666666667
  0
LINE
  8
_0-0_LAYER001
  6
CONTINUOUS
 62
    1
 10
1513.5072
 20
1000.29
 11
1540.1738666666668
 21
1026.9566666666667
  0
LINE
  8
_0-0_LAYER001
  6
CONTINUOUS
 62
    1
 10
1506.4361333333331
 20
1000.29
 11
1533.1028000000001
 21
1026.9566666666667
  0
LINE
  8
_0-0_LAYER001
  6
CONTINUOUS
 62
    1
 10
1499.3650666666665
 20
1000.29
 11
1526.0317333333332
 21
1026.9566666666667
  0
LINE
  8
_0-0_LAYER001
  6
CONTINUOUS
 62
    1
 10
1492.2939999999999
 20
1000.29
 11
1518.9606666666666
 21
1026.9566666666667
  0
LINE
  8
_0-0_LAYER001
  6
CONTINUOUS
 62
    1
 10
1485.2229333333335
 20
1000.29
 11
1511.8896
 21
1026.9566666666667
  0
LINE
  8
_0-0_LAYER001
  6
CONTINUOUS
 62
    1
 10
1478.1518666666668
 20
1000.29
 11
1504.8185333333333
 21
1026.9566666666667
  0
LINE
  8
_0-0_LAYER001
  6
CONTINUOUS
 62
    1
 10
1471.0808
 20
1000.29
 11
1497.7474666666667
 21
1026.9566666666667
  0
LINE
  8
_0-0_LAYER001
  6
CONTINUOUS
 62
    1
 10
1464.0097333333333
 20
1000.29
 11
1490.6764000000001
 21
1026.9566666666667
  0
LINE
  8
_0-0_LAYER001
  6
CONTINUOUS
 62
    1
 10
1456.9386666666664
 20
1000.29
 11
1483.6053333333334
 21
1026.9566666666667
  0
LINE
  8
_0-0_LAYER001
  6
CONTINUOUS
 62
    1
 10
1449.8675999999998
 20
1000.29
 11
1476.5342666666666
 21
1026.9566666666667
  0
LINE
  8
_0-0_LAYER001
  6
CONTINUOUS
 62
    1
 10
1442.7965333333332
 20
1000.29
 11
1469.4632000000001
 21
1026.9566666666667
  0
LINE
  8
_0-0_LAYER001
  6
CONTINUOUS
 62
    1
 10
1435.7254666666665
 20
1000.29
 11
1462.3921333333333
 21
1026.9566666666667
  0
LINE
  8
_0-0_LAYER001
  6
CONTINUOUS
 62
    1
 10
1428.6544000000001
 20
1000.29
 11
1455.3210666666666
 21
1026.9566666666667
  0
LINE
  8
_0-0_LAYER001
  6
CONTINUOUS
 62
    1
 10
1421.5833333333333
 20
1000.29
 11
1448.25
 21
1026.9566666666667
  0
LINE
  8
_0-0_LAYER001
  6
CONTINUOUS
 62
    1
 10
1414.5122666666666
 20
1000.29
 11
1441.1789333333334
 21
1026.9566666666667
  0
LINE
  8
_0-0_LAYER001
  6
CONTINUOUS
 62
    1
 10
1407.4412000000002
 20
1000.29
 11
1434.1078666666667
 21
1026.9566666666667
  0
LINE
  8
_0-0_LAYER001
  6
CONTINUOUS
 62
    1
 10
1400.3701333333333
 20
1000.29
 11
1427.0367999999999
 21
1026.9566666666667
  0
LINE
  8
_0-0_LAYER001
  6
CONTINUOUS
 62
    1
 10
1393.2990666666665
 20
1000.29
 11
1419.9657333333332
 21
1026.9566666666667
  0
LINE
  8
_0-0_LAYER001
  6
CONTINUOUS
 62
    1
 10
1386.2280000000001
 20
1000.29
 11
1412.8946666666666
 21
1026.9566666666667
  0
LINE
  8
_0-0_LAYER001
  6
CONTINUOUS
 62
    1
 10
1379.1569333333334
 20
1000.29
 11
1405.8235999999999
 21
1026.9566666666667
  0
LINE
  8
_0-0_LAYER001
  6
CONTINUOUS
 62
    1
 10
1372.0858666666666
 20
1000.29
 11
1398.7525333333333
 21
1026.9566666666667
  0
LINE
  8
_0-0_LAYER001
  6
CONTINUOUS
 62
    1
 10
1365.0148000000002
 20
1000.29
 11
1391.6814666666669
 21
1026.9566666666667
  0
LINE
  8
_0-0_LAYER001
  6
CONTINUOUS
 62
    1
 10
1357.9437333333335
 20
1000.29
 11
1384.6104
 21
1026.9566666666667
  0
LINE
  8
_0-0_LAYER001
  6
CONTINUOUS
 62
    1
 10
1350.8726666666666
 20
1000.29
 11
1377.5393333333332
 21
1026.9566666666667
  0
LINE
  8
_0-0_LAYER001
  6
CONTINUOUS
 62
    1
 10
1343.8015999999998
 20
1000.29
 11
1370.4682666666668
 21
1026.9566666666667
  0
LINE
  8
_0-0_LAYER001
  6
CONTINUOUS
 62
    1
 10
1336.7305333333334
 20
1000.29
 11
1363.3971999999999
 21
1026.9566666666667
  0
LINE
  8
_0-0_LAYER001
  6
CONTINUOUS
 62
    1
 10
1329.6594666666667
 20
1000.29
 11
1356.3261333333332
 21
1026.9566666666667
  0
LINE
  8
_0-0_LAYER001
  6
CONTINUOUS
 62
    1
 10
1322.5883999999999
 20
1000.29
 11
1349.2550666666666
 21
1026.9566666666667
  0
LINE
  8
_0-0_LAYER001
  6
CONTINUOUS
 62
    1
 10
1315.5173333333335
 20
1000.29
 11
1342.184
 21
1026.9566666666667
  0
LINE
  8
_0-0_LAYER001
  6
CONTINUOUS
 62
    1
 10
1308.4462666666668
 20
1000.29
 11
1335.1129333333333
 21
1026.9566666666667
  0
LINE
  8
_0-0_LAYER001
  6
CONTINUOUS
 62
    1
 10
1301.3751999999999
 20
1000.29
 11
1328.0418666666665
 21
1026.9566666666667
  0
LINE
  8
_0-0_LAYER001
  6
CONTINUOUS
 62
    1
 10
1294.3041333333335
 20
1000.29
 11
1320.9708000000001
 21
1026.9566666666667
  0
LINE
  8
_0-0_LAYER001
  6
CONTINUOUS
 62
    1
 10
1287.2330666666667
 20
1000.29
 11
1313.8997333333332
 21
1026.9566666666667
  0
LINE
  8
_0-0_LAYER001
  6
CONTINUOUS
 62
    1
 10
1280.162
 20
1000.29
 11
1306.8286666666665
 21
1026.9566666666667
  0
LINE
  8
_0-0_LAYER001
  6
CONTINUOUS
 62
    1
 10
1273.0909333333334
 20
1000.29
 11
1299.7576000000001
 21
1026.9566666666667
  0
LINE
  8
_0-0_LAYER001
  6
CONTINUOUS
 62
    1
 10
1266.0198666666668
 20
1000.29
 11
1292.6865333333333
 21
1026.9566666666667
  0
LINE
  8
_0-0_LAYER001
  6
CONTINUOUS
 62
    1
 10
1258.9488000000001
 20
1000.29
 11
1285.6154666666666
 21
1026.9566666666667
  0
LINE
  8
_0-0_LAYER001
  6
CONTINUOUS
 62
    1
 10
1251.8777333333335
 20
1000.29
 11
1278.5444000000002
 21
1026.9566666666667
  0
LINE
  8
_0-0_LAYER001
  6
CONTINUOUS
 62
    1
 10
1244.8066666666668
 20
1000.29
 11
1271.4733333333334
 21
1026.9566666666667
  0
LINE
  8
_0-0_LAYER001
  6
CONTINUOUS
 62
    1
 10
1237.7356
 20
1000.29
 11
1264.4022666666665
 21
1026.9566666666667
  0
LINE
  8
_0-0_LAYER001
  6
CONTINUOUS
 62
    1
 10
1230.6645333333333
 20
1000.29
 11
1257.3312000000001
 21
1026.9566666666667
  0
LINE
  8
_0-0_LAYER001
  6
CONTINUOUS
 62
    1
 10
1223.5934666666667
 20
1000.29
 11
1250.2601333333334
 21
1026.9566666666667
  0
LINE
  8
_0-0_LAYER001
  6
CONTINUOUS
 62
    1
 10
1216.5224000000001
 20
1000.29
 11
1243.1890666666666
 21
1026.9566666666667
  0
LINE
  8
_0-0_LAYER001
  6
CONTINUOUS
 62
    1
 10
1209.4512666666667
 20
1000.29
 11
1236.1179333333334
 21
1026.9566666666667
  0
LINE
  8
_0-0_LAYER001
  6
CONTINUOUS
 62
    1
 10
1202.3802000000001
 20
1000.29
 11
1229.0468666666668
 21
1026.9566666666667
  0
LINE
  8
_0-0_LAYER001
  6
CONTINUOUS
 62
    1
 10
1195.3091333333332
 20
1000.29
 11
1221.9757999999999
 21
1026.9566666666667
  0
LINE
  8
_0-0_LAYER001
  6
CONTINUOUS
 62
    1
 10
1189.3420666666666
 20
1001.3939333333333
 11
1214.9047333333333
 21
1026.9566666666667
  0
LINE
  8
_0-0_LAYER001
  6
CONTINUOUS
 62
    1
 10
1189.3420666666666
 20
1008.465
 11
1207.8336666666669
 21
1026.9566666666667
  0
LINE
  8
_0-0_LAYER001
  6
CONTINUOUS
 62
    1
 10
1189.3420666666666
 20
1015.5360666666667
 11
1200.7626
 21
1026.9566666666667
  0
LINE
  8
_0-0_LAYER001
  6
CONTINUOUS
 62
    1
 10
1189.3420666666666
 20
1022.6071333333333
 11
1193.6915333333334
 21
1026.9566666666667
  0
LINE
  8
_0-0_LAYER001
  6
CONTINUOUS
 62
    1
 10
1189.3420666666666
 20
1003.0218666666667
 11
1192.0739333333333
 21
1000.29
  0
LINE
  8
_0-0_LAYER001
  6
CONTINUOUS
 62
    1
 10
1189.3420666666666
 20
1010.093
 11
1199.145
 21
1000.29
  0
LINE
  8
_0-0_LAYER001
  6
CONTINUOUS
 62
    1
 10
1189.3420666666666
 20
1017.1640666666667
 11
1206.2160666666668
 21
1000.29
  0
LINE
  8
_0-0_LAYER001
  6
CONTINUOUS
 62
    1
 10
1189.3420666666666
 20
1024.2351333333334
 11
1213.2871333333333
 21
1000.29
  0
LINE
  8
_0-0_LAYER001
  6
CONTINUOUS
 62
    1
 10
1193.6915333333334
 20
1026.9566666666667
 11
1220.3582000000001
 21
1000.29
  0
LINE
  8
_0-0_LAYER001
  6
CONTINUOUS
 62
    1
 10
1200.7626
 20
1026.9566666666667
 11
1227.4292666666668
 21
1000.29
  0
LINE
  8
_0-0_LAYER001
  6
CONTINUOUS
 62
    1
 10
1207.8336666666669
 20
1026.9566666666667
 11
1234.5003333333334
 21
1000.29
  0
LINE
  8
_0-0_LAYER001
  6
CONTINUOUS
 62
    1
 10
1214.9047333333333
 20
1026.9566666666667
 11
1241.5714
 21
1000.29
  0
LINE
  8
_0-0_LAYER001
  6
CONTINUOUS
 62
    1
 10
1221.9757999999999
 20
1026.9566666666667
 11
1248.6424666666667
 21
1000.29
  0
LINE
  8
_0-0_LAYER001
  6
CONTINUOUS
 62
    1
 10
1229.0468666666668
 20
1026.9566666666667
 11
1255.7135333333335
 21
1000.29
  0
LINE
  8
_0-0_LAYER001
  6
CONTINUOUS
 62
    1
 10
1236.1179333333334
 20
1026.9566666666667
 11
1262.7846
 21
1000.29
  0
LINE
  8
_0-0_LAYER001
  6
CONTINUOUS
 62
    1
 10
1243.1890666666666
 20
1026.9566666666667
 11
1269.8557333333333
 21
1000.29
  0
LINE
  8
_0-0_LAYER001
  6
CONTINUOUS
 62
    1
 10
1250.2601333333334
 20
1026.9566666666667
 11
1276.9268
 21
1000.29
  0
LINE
  8
_0-0_LAYER001
  6
CONTINUOUS
 62
    1
 10
1257.3312000000001
 20
1026.9566666666667
 11
1283.9978666666666
 21
1000.29
  0
LINE
  8
_0-0_LAYER001
  6
CONTINUOUS
 62
    1
 10
1264.4022666666665
 20
1026.9566666666667
 11
1291.0689333333335
 21
1000.29
  0
LINE
  8
_0-0_LAYER001
  6
CONTINUOUS
 62
    1
 10
1271.4733333333334
 20
1026.9566666666667
 11
1298.1399999999999
 21
1000.29
  0
LINE
  8
_0-0_LAYER001
  6
CONTINUOUS
 62
    1
 10
1278.5444000000002
 20
1026.9566666666667
 11
1305.2110666666667
 21
1000.29
  0
LINE
  8
_0-0_LAYER001
  6
CONTINUOUS
 62
    1
 10
1285.6154666666666
 20
1026.9566666666667
 11
1312.2821333333331
 21
1000.29
  0
LINE
  8
_0-0_LAYER001
  6
CONTINUOUS
 62
    1
 10
1292.6865333333333
 20
1026.9566666666667
 11
1319.3532
 21
1000.29
  0
LINE
  8
_0-0_LAYER001
  6
CONTINUOUS
 62
    1
 10
1299.7576000000001
 20
1026.9566666666667
 11
1326.4242666666667
 21
1000.29
  0
LINE
  8
_0-0_LAYER001
  6
CONTINUOUS
 62
    1
 10
1306.8286666666665
 20
1026.9566666666667
 11
1333.4953333333333
 21
1000.29
  0
LINE
  8
_0-0_LAYER001
  6
CONTINUOUS
 62
    1
 10
1313.8997333333332
 20
1026.9566666666667
 11
1340.5664000000002
 21
1000.29
  0
LINE
  8
_0-0_LAYER001
  6
CONTINUOUS
 62
    1
 10
1320.9708000000001
 20
1026.9566666666667
 11
1347.6374666666666
 21
1000.29
  0
LINE
  8
_0-0_LAYER001
  6
CONTINUOUS
 62
    1
 10
1328.0418666666665
 20
1026.9566666666667
 11
1354.7085333333334
 21
1000.29
  0
LINE
  8
_0-0_LAYER001
  6
CONTINUOUS
 62
    1
 10
1335.1129333333333
 20
1026.9566666666667
 11
1361.7795999999998
 21
1000.29
  0
LINE
  8
_0-0_LAYER001
  6
CONTINUOUS
 62
    1
 10
1342.184
 20
1026.9566666666667
 11
1368.8506666666669
 21
1000.29
  0
LINE
  8
_0-0_LAYER001
  6
CONTINUOUS
 62
    1
 10
1349.2550666666666
 20
1026.9566666666667
 11
1375.9217333333333
 21
1000.29
  0
LINE
  8
_0-0_LAYER001
  6
CONTINUOUS
 62
    1
 10
1356.3261333333332
 20
1026.9566666666667
 11
1382.9928
 21
1000.29
  0
LINE
  8
_0-0_LAYER001
  6
CONTINUOUS
 62
    1
 10
1363.3971999999999
 20
1026.9566666666667
 11
1390.0638666666669
 21
1000.29
  0
LINE
  8
_0-0_LAYER001
  6
CONTINUOUS
 62
    1
 10
1370.4682666666668
 20
1026.9566666666667
 11
1397.1349333333333
 21
1000.29
  0
LINE
  8
_0-0_LAYER001
  6
CONTINUOUS
 62
    1
 10
1377.5393333333332
 20
1026.9566666666667
 11
1404.2060000000001
 21
1000.29
  0
LINE
  8
_0-0_LAYER001
  6
CONTINUOUS
 62
    1
 10
1384.6104
 20
1026.9566666666667
 11
1411.2770666666668
 21
1000.29
  0
LINE
  8
_0-0_LAYER001
  6
CONTINUOUS
 62
    1
 10
1391.6814666666669
 20
1026.9566666666667
 11
1418.3481333333336
 21
1000.29
  0
LINE
  8
_0-0_LAYER001
  6
CONTINUOUS
 62
    1
 10
1398.7525333333333
 20
1026.9566666666667
 11
1425.4192
 21
1000.29
  0
LINE
  8
_0-0_LAYER001
  6
CONTINUOUS
 62
    1
 10
1405.8235999999999
 20
1026.9566666666667
 11
1432.4902666666667
 21
1000.29
  0
LINE
  8
_0-0_LAYER001
  6
CONTINUOUS
 62
    1
 10
1412.8946666666666
 20
1026.9566666666667
 11
1439.5613333333333
 21
1000.29
  0
LINE
  8
_0-0_LAYER001
  6
CONTINUOUS
 62
    1
 10
1419.9657333333332
 20
1026.9566666666667
 11
1446.6324
 21
1000.29
  0
LINE
  8
_0-0_LAYER001
  6
CONTINUOUS
 62
    1
 10
1427.0367999999999
 20
1026.9566666666667
 11
1453.7034666666664
 21
1000.29
  0
LINE
  8
_0-0_LAYER001
  6
CONTINUOUS
 62
    1
 10
1434.1078666666667
 20
1026.9566666666667
 11
1460.7745333333332
 21
1000.29
  0
LINE
  8
_0-0_LAYER001
  6
CONTINUOUS
 62
    1
 10
1441.1789333333334
 20
1026.9566666666667
 11
1467.8456000000001
 21
1000.29
  0
LINE
  8
_0-0_LAYER001
  6
CONTINUOUS
 62
    1
 10
1448.25
 20
1026.9566666666667
 11
1474.9166666666667
 21
1000.29
  0
LINE
  8
_0-0_LAYER001
  6
CONTINUOUS
 62
    1
 10
1455.3210666666666
 20
1026.9566666666667
 11
1481.9877333333334
 21
1000.29
  0
LINE
  8
_0-0_LAYER001
  6
CONTINUOUS
 62
    1
 10
1462.3921333333333
 20
1026.9566666666667
 11
1489.0588
 21
1000.29
  0
LINE
  8
_0-0_LAYER001
  6
CONTINUOUS
 62
    1
 10
1469.4632000000001
 20
1026.9566666666667
 11
1496.1298666666667
 21
1000.29
  0
LINE
  8
_0-0_LAYER001
  6
CONTINUOUS
 62
    1
 10
1476.5342666666666
 20
1026.9566666666667
 11
1503.2009333333331
 21
1000.29
  0
LINE
  8
_0-0_LAYER001
  6
CONTINUOUS
 62
    1
 10
1483.6053333333334
 20
1026.9566666666667
 11
1510.2719999999999
 21
1000.29
  0
LINE
  8
_0-0_LAYER001
  6
CONTINUOUS
 62
    1
 10
1490.6764000000001
 20
1026.9566666666667
 11
1517.3430666666668
 21
1000.29
  0
LINE
  8
_0-0_LAYER001
  6
CONTINUOUS
 62
    1
 10
1497.7474666666667
 20
1026.9566666666667
 11
1524.4141333333334
 21
1000.29
  0
LINE
  8
_0-0_LAYER001
  6
CONTINUOUS
 62
    1
 10
1504.8185333333333
 20
1026.9566666666667
 11
1531.4852000000001
 21
1000.29
  0
LINE
  8
_0-0_LAYER001
  6
CONTINUOUS
 62
    1
 10
1511.8896
 20
1026.9566666666667
 11
1538.5562666666667
 21
1000.29
  0
LINE
  8
_0-0_LAYER001
  6
CONTINUOUS
 62
    1
 10
1518.9606666666666
 20
1026.9566666666667
 11
1545.6273333333331
 21
1000.29
  0
LINE
  8
_0-0_LAYER001
  6
CONTINUOUS
 62
    1
 10
1526.0317333333332
 20
1026.9566666666667
 11
1552.6983999999998
 21
1000.29
  0
LINE
  8
_0-0_LAYER001
  6
CONTINUOUS
 62
    1
 10
1533.1028000000001
 20
1026.9566666666667
 11
1559.7694666666666
 21
1000.29
  0
LINE
  8
_0-0_LAYER001
  6
CONTINUOUS
 62
    1
 10
1540.1738666666668
 20
1026.9566666666667
 11
1566.8405333333335
 21
1000.29
  0
LINE
  8
_0-0_LAYER001
  6
CONTINUOUS
 62
    1
 10
1547.2449333333334
 20
1026.9566666666667
 11
1573.9116000000001
 21
1000.29
  0
LINE
  8
_0-0_LAYER001
  6
CONTINUOUS
 62
    1
 10
1554.316
 20
1026.9566666666667
 11
1580.9826666666668
 21
1000.29
  0
LINE
  8
_0-0_LAYER001
  6
CONTINUOUS
 62
    1
 10
1561.3870666666664
 20
1026.9566666666667
 11
1588.0537333333332
 21
1000.29
  0
LINE
  8
_0-0_LAYER001
  6
CONTINUOUS
 62
    1
 10
1568.4581333333333
 20
1026.9566666666667
 11
1595.1247999999998
 21
1000.29
  0
LINE
  8
_0-0_LAYER001
  6
CONTINUOUS
 62
    1
 10
1575.5291999999999
 20
1026.9566666666667
 11
1602.1958666666665
 21
1000.29
  0
LINE
  8
_0-0_LAYER001
  6
CONTINUOUS
 62
    1
 10
1582.6002666666668
 20
1026.9566666666667
 11
1609.2669333333333
 21
1000.29
  0
LINE
  8
_0-0_LAYER001
  6
CONTINUOUS
 62
    1
 10
1589.6713333333332
 20
1026.9566666666667
 11
1616.3380000000002
 21
1000.29
  0
LINE
  8
_0-0_LAYER001
  6
CONTINUOUS
 62
    1
 10
1596.7424000000001
 20
1026.9566666666667
 11
1623.4090666666668
 21
1000.29
  0
LINE
  8
_0-0_LAYER001
  6
CONTINUOUS
 62
    1
 10
1603.8134666666667
 20
1026.9566666666667
 11
1630.4801333333335
 21
1000.29
  0
LINE
  8
_0-0_LAYER001
  6
CONTINUOUS
 62
    1
 10
1610.8845333333331
 20
1026.9566666666667
 11
1637.5511999999999
 21
1000.29
  0
LINE
  8
_0-0_LAYER001
  6
CONTINUOUS
 62
    1
 10
1617.9556
 20
1026.9566666666667
 11
1644.6222666666665
 21
1000.29
  0
LINE
  8
_0-0_LAYER001
  6
CONTINUOUS
 62
    1
 10
1625.0266666666666
 20
1026.9566666666667
 11
1651.6933333333332
 21
1000.29
  0
LINE
  8
_0-0_LAYER001
  6
CONTINUOUS
 62
    1
 10
1632.0977333333335
 20
1026.9566666666667
 11
1658.7644
 21
1000.29
  0
LINE
  8
_0-0_LAYER001
  6
CONTINUOUS
 62
    1
 10
1639.1687999999999
 20
1026.9566666666667
 11
1665.8354666666669
 21
1000.29
  0
LINE
  8
_0-0_LAYER001
  6
CONTINUOUS
 62
    1
 10
1646.2398666666668
 20
1026.9566666666667
 11
1672.9065333333335
 21
1000.29
  0
LINE
  8
_0-0_LAYER001
  6
CONTINUOUS
 62
    1
 10
1653.3109333333332
 20
1026.9566666666667
 11
1679.9775999999997
 21
1000.29
  0
LINE
  8
_0-0_LAYER001
  6
CONTINUOUS
 62
    1
 10
1660.3820666666666
 20
1026.9566666666667
 11
1687.0487333333335
 21
1000.29
  0
LINE
  8
_0-0_LAYER001
  6
CONTINUOUS
 62
    1
 10
1667.4531333333334
 20
1026.9566666666667
 11
1694.1197999999999
 21
1000.29
  0
LINE
  8
_0-0_LAYER001
  6
CONTINUOUS
 62
    1
 10
1674.5242000000003
 20
1026.9566666666667
 11
1701.1908666666668
 21
1000.29
  0
LINE
  8
_0-0_LAYER001
  6
CONTINUOUS
 62
    1
 10
1681.5952666666667
 20
1026.9566666666667
 11
1708.2619333333332
 21
1000.29
  0
LINE
  8
_0-0_LAYER001
  6
CONTINUOUS
 62
    1
 10
1688.6663333333331
 20
1026.9566666666667
 11
1715.3330000000001
 21
1000.29
  0
LINE
  8
_0-0_LAYER001
  6
CONTINUOUS
 62
    1
 10
1695.7374
 20
1026.9566666666667
 11
1722.4040666666667
 21
1000.29
  0
LINE
  8
_0-0_LAYER001
  6
CONTINUOUS
 62
    1
 10
1702.8084666666666
 20
1026.9566666666667
 11
1729.4751333333334
 21
1000.29
  0
LINE
  8
_0-0_LAYER001
  6
CONTINUOUS
 62
    1
 10
1709.8795333333333
 20
1026.9566666666667
 11
1736.5462000000002
 21
1000.29
  0
LINE
  8
_0-0_LAYER001
  6
CONTINUOUS
 62
    1
 10
1716.9506000000001
 20
1026.9566666666667
 11
1743.6172666666666
 21
1000.29
  0
LINE
  8
_0-0_LAYER001
  6
CONTINUOUS
 62
    1
 10
1724.0216666666665
 20
1026.9566666666667
 11
1750.688333333333
 21
1000.29
  0
LINE
  8
_0-0_LAYER001
  6
CONTINUOUS
 62
    1
 10
1731.0927333333334
 20
1026.9566666666667
 11
1757.7593999999999
 21
1000.29
  0
LINE
  8
_0-0_LAYER001
  6
CONTINUOUS
 62
    1
 10
1738.1637999999998
 20
1026.9566666666667
 11
1764.8304666666668
 21
1000.29
  0
LINE
  8
_0-0_LAYER001
  6
CONTINUOUS
 62
    1
 10
1745.2348666666667
 20
1026.9566666666667
 11
1771.9015333333334
 21
1000.29
  0
LINE
  8
_0-0_LAYER001
  6
CONTINUOUS
 62
    1
 10
1752.3059333333333
 20
1026.9566666666667
 11
1778.9726000000001
 21
1000.29
  0
LINE
  8
_0-0_LAYER001
  6
CONTINUOUS
 62
    1
 10
1759.377
 20
1026.9566666666667
 11
1786.0436666666669
 21
1000.29
  0
LINE
  8
_0-0_LAYER001
  6
CONTINUOUS
 62
    1
 10
1766.4480666666666
 20
1026.9566666666667
 11
1793.1147333333331
 21
1000.29
  0
LINE
  8
_0-0_LAYER001
  6
CONTINUOUS
 62
    1
 10
1773.5191333333332
 20
1026.9566666666667
 11
1800.1857999999997
 21
1000.29
  0
LINE
  8
_0-0_LAYER001
  6
CONTINUOUS
 62
    1
 10
1780.5902000000001
 20
1026.9566666666667
 11
1807.2568666666666
 21
1000.29
  0
LINE
  8
_0-0_LAYER001
  6
CONTINUOUS
 62
    1
 10
1787.6612666666665
 20
1026.9566666666667
 11
1814.3279333333335
 21
1000.29
  0
LINE
  8
_0-0_LAYER001
  6
CONTINUOUS
 62
    1
 10
1794.7323333333334
 20
1026.9566666666667
 11
1821.3990000000001
 21
1000.29
  0
LINE
  8
_0-0_LAYER001
  6
CONTINUOUS
 62
    1
 10
1801.8034
 20
1026.9566666666667
 11
1828.4700666666668
 21
1000.29
  0
LINE
  8
_0-0_LAYER001
  6
CONTINUOUS
 62
    1
 10
1808.8744666666666
 20
1026.9566666666667
 11
1835.5411333333336
 21
1000.29
  0
LINE
  8
_0-0_LAYER001
  6
CONTINUOUS
 62
    1
 10
1815.9455333333333
 20
1026.9566666666667
 11
1842.6121999999998
 21
1000.29
  0
LINE
  8
_0-0_LAYER001
  6
CONTINUOUS
 62
    1
 10
1823.0165999999999
 20
1026.9566666666667
 11
1849.6832666666664
 21
1000.29
  0
LINE
  8
_0-0_LAYER001
  6
CONTINUOUS
 62
    1
 10
1830.0876666666663
 20
1026.9566666666667
 11
1856.7543333333333
 21
1000.29
  0
LINE
  8
_0-0_LAYER001
  6
CONTINUOUS
 62
    1
 10
1837.1587333333332
 20
1026.9566666666667
 11
1863.8254000000002
 21
1000.29
  0
LINE
  8
_0-0_LAYER001
  6
CONTINUOUS
 62
    1
 10
1844.2298000000001
 20
1026.9566666666667
 11
1870.8964666666668
 21
1000.29
  0
LINE
  8
_0-0_LAYER001
  6
CONTINUOUS
 62
    1
 10
1851.3008666666667
 20
1026.9566666666667
 11
1877.9675333333334
 21
1000.29
  0
LINE
  8
_0-0_LAYER001
  6
CONTINUOUS
 62
    1
 10
1858.3719333333331
 20
1026.9566666666667
 11
1885.0385999999999
 21
1000.29
  0
LINE
  8
_0-0_LAYER001
  6
CONTINUOUS
 62
    1
 10
1865.443
 20
1026.9566666666667
 11
1892.1096666666665
 21
1000.29
  0
LINE
  8
_0-0_LAYER001
  6
CONTINUOUS
 62
    1
 10
1872.5140666666666
 20
1026.9566666666667
 11
1899.1807333333331
 21
1000.29
  0
LINE
  8
_0-0_LAYER001
  6
CONTINUOUS
 62
    1
 10
1879.585133333333
 20
1026.9566666666667
 11
1906.2518
 21
1000.29
  0
LINE
  8
_0-0_LAYER001
  6
CONTINUOUS
 62
    1
 10
1886.6561999999999
 20
1026.9566666666667
 11
1913.3228666666669
 21
1000.29
  0
LINE
  8
_0-0_LAYER001
  6
CONTINUOUS
 62
    1
 10
1893.7272666666668
 20
1026.9566666666667
 11
1920.3939333333335
 21
1000.29
  0
LINE
  8
_0-0_LAYER001
  6
CONTINUOUS
 62
    1
 10
1900.7983333333334
 20
1026.9566666666667
 11
1927.4650000000001
 21
1000.29
  0
LINE
  8
_0-0_LAYER001
  6
CONTINUOUS
 62
    1
 10
1907.8693999999998
 20
1026.9566666666667
 11
1934.5360666666666
 21
1000.29
  0
LINE
  8
_0-0_LAYER001
  6
CONTINUOUS
 62
    1
 10
1914.9404666666667
 20
1026.9566666666667
 11
1941.6071333333332
 21
1000.29
  0
LINE
  8
_0-0_LAYER001
  6
CONTINUOUS
 62
    1
 10
1922.0115333333331
 20
1026.9566666666667
 11
1948.6781999999998
 21
1000.29
  0
LINE
  8
_0-0_LAYER001
  6
CONTINUOUS
 62
    1
 10
1929.0825999999997
 20
1026.9566666666667
 11
1955.7492666666667
 21
1000.29
  0
LINE
  8
_0-0_LAYER001
  6
CONTINUOUS
 62
    1
 10
1936.1536666666666
 20
1026.9566666666667
 11
1962.8203333333336
 21
1000.29
  0
LINE
  8
_0-0_LAYER001
  6
CONTINUOUS
 62
    1
 10
1943.2247333333335
 20
1026.9566666666667
 11
1968.8352
 21
1001.3462
  0
LINE
  8
_0-0_LAYER001
  6
CONTINUOUS
 62
    1
 10
1950.2957999999999
 20
1026.9566666666667
 11
1968.8352
 21
1008.4172666666667
  0
LINE
  8
_0-0_LAYER001
  6
CONTINUOUS
 62
    1
 10
1957.3668666666665
 20
1026.9566666666667
 11
1968.8352
 21
1015.4883333333333
  0
LINE
  8
_0-0_LAYER001
  6
CONTINUOUS
 62
    1
 10
1964.4379333333334
 20
1026.9566666666667
 11
1968.8352
 21
1022.5594
  0
LINE
  8
_0-0_LAYER001
  6
CONTINUOUS
 62
    2
 10
1082.9349999999999
 20
1126.9566666666667
 11
1117.9349999999999
 21
1126.9566666666667
  0
CIRCLE
  8
_0-0_LAYER001
  6
CONTINUOUS
 62
    2
 10
1084.6016666666667
 20
1126.9566666666667
 40
1.1333333333333331
  0
LINE
  8
_0-0_LAYER001
  6
CONTINUOUS
 62
    2
 10
1084.6016666666667
 20
1126.9566666666667
 11
1084.6016666666667
 21
1026.9566666666667
  0
CIRCLE
  8
_0-0_LAYER001
  6
CONTINUOUS
 62
    2
 10
1084.6016666666667
 20
1026.9566666666667
 40
1.1333333333333331
  0
LINE
  8
_0-0_LAYER001
  6
CONTINUOUS
 62
    2
 10
1082.9349999999999
 20
1026.9566666666667
 11
1117.9349999999999
 21
1026.9566666666667
  0
LINE
  8
_0-0_LAYER001
  6
CONTINUOUS
 62
    2
 10
1191.3420666666666
 20
952.12933333333331
 11
1191.3420666666666
 21
970.46266666666668
  0
CIRCLE
  8
_0-0_LAYER001
  6
CONTINUOUS
 62
    2
 10
1191.3420666666666
 20
953.79599999999994
 40
1.1333333333333331
  0
LINE
  8
_0-0_LAYER001
  6
CONTINUOUS
 62
    2
 10
1191.3420666666666
 20
953.79599999999994
 11
1251.3420666666666
 21
953.79599999999994
  0
CIRCLE
  8
_0-0_LAYER001
  6
CONTINUOUS
 62
    2
 10
1251.3420666666666
 20
953.79599999999994
 40
1.1333333333333331
  0
LINE
  8
_0-0_LAYER001
  6
CONTINUOUS
 62
    2
 10
1251.3420666666666
 20
952.12933333333331
 11
1251.3420666666666
 21
970.46266666666668
  0
LINE
  8
_0-0_LAYER001
  6
CONTINUOUS
 62
    2
 10
1205.6968000000002
 20
1025.8436666666666
 11
1209.2323333333334
 21
1029.3792000000001
  0
LINE
  8
_0-0_LAYER001
  6
CONTINUOUS
 62
    2
 10
1209.2323333333334
 20
1029.3792000000001
 11
1207.9382666666668
 21
1024.5496000000001
  0
LINE
  8
_0-0_LAYER001
  6
CONTINUOUS
 62
    2
 10
1209.2323333333334
 20
1029.3792000000001
 11
1153.8332
 21
933.42506666666668
  0
LINE
  8
_0-0_LAYER001
  6
CONTINUOUS
 62
    2
 10
1153.8332
 20
933.42506666666668
 11
1019.8332
 21
933.42506666666668
  0
LINE
  8
_0-1_LAYER004
  6
CONTINUOUS
 62
    3
 10
1207.4208000000001
 20
1009.279
 11
1968.8352
 21
1009.279
  0
CIRCLE
  8
_0-1_LAYER004
  6
CONTINUOUS
 62
    3
 10
1211.0696666666668
 20
1010.0957333333333
 40
0.8699479999999999
  0
CIRCLE
  8
_0-1_LAYER004
  6
CONTINUOUS
 62
    3
 10
1311.0696666666668
 20
1010.0957333333333
 40
0.8699479999999999
  0
CIRCLE
  8
_0-1_LAYER004
  6
CONTINUOUS
 62
    3
 10
1411.0696666666668
 20
1010.0957333333333
 40
0.8699479999999999
  0
CIRCLE
  8
_0-1_LAYER004
  6
CONTINUOUS
 62
    3
 10
1511.0696666666668
 20
1010.0957333333333
 40
0.8699479999999999
  0
CIRCLE
  8
_0-1_LAYER004
  6
CONTINUOUS
 62
    3
 10
1711.0696666666668
 20
1010.0957333333333
 40
0.8699479999999999
  0
CIRCLE
  8
_0-1_LAYER004
  6
CONTINUOUS
 62
    3
 10
1811.0696666666668
 20
1010.0957333333333
 40
0.8699479999999999
  0
CIRCLE
  8
_0-1_LAYER004
  6
CONTINUOUS
 62
    3
 10
1611.0696666666668
 20
1010.0957333333333
 40
0.8699479999999999
  0
LINE
  8
_0-1_LAYER004
  6
DASHED1
 62
    2
 10
1267.5862666666667
 20
1012.3984
 11
1260.9195999999999
 21
1012.3984
  0
LINE
  8
_0-1_LAYER004
  6
DASHED1
 62
    2
 10
1281.8330000000001
 20
976.38593333333336
 11
1281.8330000000001
 21
969.71926666666661
  0
LINE
  8
_0-1_LAYER004
  6
DASHED1
 62
    2
 10
1267.5862666666667
 20
1012.3984
 11
1267.5862666666667
 21
976.38593333333336
  0
LINE
  8
_0-1_LAYER004
  6
DASHED1
 62
    2
 10
1260.9195999999999
 20
1012.3984
 11
1260.9195999999999
 21
969.71926666666661
  0
LINE
  8
_0-1_LAYER004
  6
DASHED1
 62
    2
 10
1267.5862666666667
 20
976.38593333333336
 11
1281.8330000000001
 21
976.38593333333336
  0
LINE
  8
_0-1_LAYER004
  6
DASHED1
 62
    2
 10
1260.9195999999999
 20
969.71926666666661
 11
1281.8330000000001
 21
969.71926666666661
  0
LINE
  8
_0-1_LAYER004
  6
DASHED1
 62
    2
 10
1667.5862666666667
 20
1012.3984
 11
1660.9195999999997
 21
1012.3984
  0
LINE
  8
_0-1_LAYER004
  6
DASHED1
 62
    2
 10
1681.8330000000001
 20
976.38593333333336
 11
1681.8330000000001
 21
969.71926666666661
  0
LINE
  8
_0-1_LAYER004
  6
DASHED1
 62
    2
 10
1667.5862666666667
 20
1012.3984
 11
1667.5862666666667
 21
976.38593333333336
  0
LINE
  8
_0-1_LAYER004
  6
DASHED1
 62
    2
 10
1660.9195999999997
 20
1012.3984
 11
1660.9195999999997
 21
969.71926666666661
  0
LINE
  8
_0-1_LAYER004
  6
DASHED1
 62
    2
 10
1667.5862666666667
 20
976.38593333333336
 11
1681.8330000000001
 21
976.38593333333336
  0
LINE
  8
_0-1_LAYER004
  6
DASHED1
 62
    2
 10
1660.9195999999997
 20
969.71926666666661
 11
1681.8330000000001
 21
969.71926666666661
  0
LINE
  8
_0-1_LAYER004
  6
CONTINUOUS
 62
    2
 10
1269.8308
 20
968.39426666666668
 11
1268.5367333333334
 21
973.22393333333343
  0
LINE
  8
_0-1_LAYER004
  6
CONTINUOUS
 62
    2
 10
1268.5367333333334
 20
973.22393333333343
 11
1272.0722666666668
 21
969.6884
  0
LINE
  8
_0-1_LAYER004
  6
CONTINUOUS
 62
    2
 10
1358.8457333333336
 20
1004.2618666666667
 11
1357.5516666666667
 21
1009.0915333333334
  0
LINE
  8
_0-1_LAYER004
  6
CONTINUOUS
 62
    2
 10
1357.5516666666667
 20
1009.0915333333334
 11
1361.0871999999999
 21
1005.556
  0
LINE
  8
_0-1_LAYER004
  6
CONTINUOUS
 62
    2
 10
1357.5516666666667
 20
1009.0915333333334
 11
1382.5267333333331
 21
965.83339999999998
  0
LINE
  8
_0-1_LAYER004
  6
CONTINUOUS
 62
    2
 10
1382.5267333333331
 20
965.83339999999998
 11
1422.5267333333331
 21
965.83339999999998
  0
LINE
  8
_0-0_LAYER001
  6
CONTINUOUS
 62
    2
 10
1593.9589333333333
 20
813.8614
 11
1762.7361999999998
 21
813.8614
  0
LINE
  8
_0-0_LAYER001
  6
CONTINUOUS
 62
    2
 10
1535.0494666666666
 20
1028.7146
 11
1535.0494666666666
 21
1033.7146
  0
LINE
  8
_0-0_LAYER001
  6
CONTINUOUS
 62
    2
 10
1535.0494666666666
 20
1033.7146
 11
1537.5494666666666
 21
1029.3845333333334
  0
LINE
  8
_0-0_LAYER001
  6
CONTINUOUS
 62
    2
 10
1535.0494666666666
 20
1033.7146
 11
1593.9589333333333
 21
813.8614
  0
LINE
  8
_0-0_LAYER001
  6
CONTINUOUS
 62
    2
 10
1583.2273333333333
 20
853.91226666666671
 11
1719.7757999999999
 21
853.91226666666671
  0
LINE
  8
_0-0_LAYER001
  6
CONTINUOUS
 62
    2
 10
1264.2740666666666
 20
1091.8546666666666
 11
1264.2740666666666
 21
1100.29
  0
LINE
  8
_0-0_LAYER001
  6
CONTINUOUS
 62
    2
 10
1264.2740666666666
 20
1100.29
 11
1200.8600666666666
 21
1100.29
  0
LINE
  8
_0-0_LAYER001
  6
CONTINUOUS
 62
    2
 10
1200.8600666666666
 20
1166.9566666666667
 11
1192.0360666666668
 21
1166.9566666666667
  0
LINE
  8
_0-0_LAYER001
  6
CONTINUOUS
 62
    2
 10
1192.0360666666668
 20
1166.9566666666667
 11
1192.0360666666668
 21
1176.9566666666667
  0
LINE
  8
_0-0_LAYER001
  6
CONTINUOUS
 62
    2
 10
1202.6754000000001
 20
1180.29
 11
1189.3420666666666
 21
1180.29
  0
ARC
  8
_0-0_LAYER001
  6
CONTINUOUS
 62
    2
 10
1214.9093333333335
 20
1173.5270666666668
 40
15.509739333333332
 50
154.61902000000001
 51
205.06395000000001
  0
LINE
  8
_0-0_LAYER001
  6
CONTINUOUS
 62
    1
 10
1192.4779333333333
 20
1179.8593333333333
 11
1194.6878000000002
 21
1179.8593333333333
  0
LINE
  8
_0-0_LAYER001
  6
CONTINUOUS
 62
    1
 10
1194.6878000000002
 20
1179.8593333333333
 11
1194.6878000000002
 21
1167.1962666666668
  0
LINE
  8
_0-0_LAYER001
  6
CONTINUOUS
 62
    1
 10
1194.6878000000002
 20
1167.1962666666668
 11
1192.4779333333333
 21
1167.1962666666668
  0
LINE
  8
_0-0_LAYER001
  6
CONTINUOUS
 62
    1
 10
1192.4779333333333
 20
1167.1962666666668
 11
1192.4779333333333
 21
1179.8593333333333
  0
LINE
  8
_0-0_LAYER001
  6
CONTINUOUS
 62
    1
 10
1194.6878000000002
 20
1179.8593333333333
 11
1192.4779333333333
 21
1167.1962666666668
  0
LINE
  8
_0-0_LAYER001
  6
CONTINUOUS
 62
    1
 10
1199.7029333333332
 20
1167.1962666666668
 11
1200.4424666666669
 21
1167.9358
  0
LINE
  8
_0-0_LAYER001
  6
CONTINUOUS
 62
    1
 10
1197.3458666666668
 20
1167.1962666666668
 11
1199.8732
 21
1169.7235333333333
  0
LINE
  8
_0-0_LAYER001
  6
CONTINUOUS
 62
    1
 10
1194.9888666666668
 20
1167.1962666666668
 11
1199.5060000000001
 21
1171.7133999999999
  0
LINE
  8
_0-0_LAYER001
  6
CONTINUOUS
 62
    1
 10
1194.6878000000002
 20
1169.2522000000001
 11
1199.4059333333335
 21
1173.9703333333334
  0
LINE
  8
_0-0_LAYER001
  6
CONTINUOUS
 62
    1
 10
1194.6878000000002
 20
1171.6092666666666
 11
1199.7143333333333
 21
1176.6357333333333
  0
LINE
  8
_0-0_LAYER001
  6
CONTINUOUS
 62
    1
 10
1194.6878000000002
 20
1173.9662666666666
 11
1200.8966
 21
1180.1750666666667
  0
LINE
  8
_0-0_LAYER001
  6
CONTINUOUS
 62
    1
 10
1194.6878000000002
 20
1176.3232666666665
 11
1198.5396000000001
 21
1180.1750666666667
  0
LINE
  8
_0-0_LAYER001
  6
CONTINUOUS
 62
    1
 10
1194.6878000000002
 20
1178.6803333333335
 11
1196.1825999999999
 21
1180.1750666666667
  0
LINE
  8
_0-0_LAYER001
  6
CONTINUOUS
 62
    2
 10
1250.3685999999998
 20
1100.29
 11
1232.6513333333335
 21
1100.29
  0
LINE
  8
_0-0_LAYER001
  6
CONTINUOUS
 62
    2
 10
1232.6513333333335
 20
1100.29
 11
1232.6513333333335
 21
1081.5902666666666
  0
LINE
  8
_0-0_LAYER001
  6
CONTINUOUS
 62
    2
 10
1232.6513333333335
 20
1081.5902666666666
 11
1250.3685999999998
 21
1081.5902666666666
  0
LINE
  8
_0-0_LAYER001
  6
CONTINUOUS
 62
    2
 10
1250.3685999999998
 20
1081.5902666666666
 11
1250.3685999999998
 21
1100.29
  0
LINE
  8
_0-0_LAYER001
  6
CONTINUOUS
 62
    1
 10
1249.1504666666667
 20
1081.5902666666666
 11
1250.3685999999998
 21
1082.8083999999999
  0
LINE
  8
_0-0_LAYER001
  6
CONTINUOUS
 62
    1
 10
1246.7934666666667
 20
1081.5902666666666
 11
1250.3685999999998
 21
1085.1654000000001
  0
LINE
  8
_0-0_LAYER001
  6
CONTINUOUS
 62
    1
 10
1244.4364666666665
 20
1081.5902666666666
 11
1250.3685999999998
 21
1087.5224000000001
  0
LINE
  8
_0-0_LAYER001
  6
CONTINUOUS
 62
    1
 10
1242.0793999999999
 20
1081.5902666666666
 11
1250.3685999999998
 21
1089.8794666666665
  0
LINE
  8
_0-0_LAYER001
  6
CONTINUOUS
 62
    1
 10
1239.7224000000001
 20
1081.5902666666666
 11
1250.3685999999998
 21
1092.2364666666667
  0
LINE
  8
_0-0_LAYER001
  6
CONTINUOUS
 62
    1
 10
1237.3654000000001
 20
1081.5902666666666
 11
1250.3685999999998
 21
1094.5934666666667
  0
LINE
  8
_0-0_LAYER001
  6
CONTINUOUS
 62
    1
 10
1235.0083333333332
 20
1081.5902666666666
 11
1250.3685999999998
 21
1096.9505333333334
  0
LINE
  8
_0-0_LAYER001
  6
CONTINUOUS
 62
    1
 10
1232.6513333333335
 20
1081.5902666666666
 11
1250.3685999999998
 21
1099.3075333333334
  0
LINE
  8
_0-0_LAYER001
  6
CONTINUOUS
 62
    1
 10
1232.6513333333335
 20
1083.9472666666668
 11
1248.9940666666666
 21
1100.29
  0
LINE
  8
_0-0_LAYER001
  6
CONTINUOUS
 62
    1
 10
1232.6513333333335
 20
1086.3043333333333
 11
1246.6370000000002
 21
1100.29
  0
LINE
  8
_0-0_LAYER001
  6
CONTINUOUS
 62
    1
 10
1232.6513333333335
 20
1088.6613333333335
 11
1244.2800000000002
 21
1100.29
  0
LINE
  8
_0-0_LAYER001
  6
CONTINUOUS
 62
    1
 10
1232.6513333333335
 20
1091.0183333333334
 11
1241.9229999999998
 21
1100.29
  0
LINE
  8
_0-0_LAYER001
  6
CONTINUOUS
 62
    1
 10
1232.6513333333335
 20
1093.3754000000001
 11
1239.5659333333333
 21
1100.29
  0
LINE
  8
_0-0_LAYER001
  6
CONTINUOUS
 62
    1
 10
1232.6513333333335
 20
1095.7323999999999
 11
1237.2089333333333
 21
1100.29
  0
LINE
  8
_0-0_LAYER001
  6
CONTINUOUS
 62
    1
 10
1232.6513333333335
 20
1098.0893999999998
 11
1234.8519333333334
 21
1100.29
  0
LINE
  8
_0-0_LAYER001
  6
CONTINUOUS
 62
    1
 10
1232.6513333333335
 20
1083.9472666666668
 11
1235.0083333333332
 21
1081.5902666666666
  0
LINE
  8
_0-0_LAYER001
  6
CONTINUOUS
 62
    1
 10
1232.6513333333335
 20
1086.3043333333333
 11
1237.3654000000001
 21
1081.5902666666666
  0
LINE
  8
_0-0_LAYER001
  6
CONTINUOUS
 62
    1
 10
1232.6513333333335
 20
1088.6613333333335
 11
1239.7224000000001
 21
1081.5902666666666
  0
LINE
  8
_0-0_LAYER001
  6
CONTINUOUS
 62
    1
 10
1232.6513333333335
 20
1091.0183333333334
 11
1242.0793999999999
 21
1081.5902666666666
  0
LINE
  8
_0-0_LAYER001
  6
CONTINUOUS
 62
    1
 10
1232.6513333333335
 20
1093.3754000000001
 11
1244.4364666666665
 21
1081.5902666666666
  0
LINE
  8
_0-0_LAYER001
  6
CONTINUOUS
 62
    1
 10
1232.6513333333335
 20
1095.7323999999999
 11
1246.7934666666667
 21
1081.5902666666666
  0
LINE
  8
_0-0_LAYER001
  6
CONTINUOUS
 62
    1
 10
1232.6513333333335
 20
1098.0893999999998
 11
1249.1504666666667
 21
1081.5902666666666
  0
LINE
  8
_0-0_LAYER001
  6
CONTINUOUS
 62
    1
 10
1232.8078
 20
1100.29
 11
1250.3685999999998
 21
1082.7292000000002
  0
LINE
  8
_0-0_LAYER001
  6
CONTINUOUS
 62
    1
 10
1235.1648
 20
1100.29
 11
1250.3685999999998
 21
1085.0862000000002
  0
LINE
  8
_0-0_LAYER001
  6
CONTINUOUS
 62
    1
 10
1237.5218
 20
1100.29
 11
1250.3685999999998
 21
1087.4431999999999
  0
LINE
  8
_0-0_LAYER001
  6
CONTINUOUS
 62
    1
 10
1239.8788666666667
 20
1100.29
 11
1250.3685999999998
 21
1089.8002666666666
  0
LINE
  8
_0-0_LAYER001
  6
CONTINUOUS
 62
    1
 10
1242.2358666666669
 20
1100.29
 11
1250.3685999999998
 21
1092.1572666666666
  0
LINE
  8
_0-0_LAYER001
  6
CONTINUOUS
 62
    1
 10
1244.5928666666666
 20
1100.29
 11
1250.3685999999998
 21
1094.5142666666668
  0
LINE
  8
_0-0_LAYER001
  6
CONTINUOUS
 62
    1
 10
1246.9499333333333
 20
1100.29
 11
1250.3685999999998
 21
1096.8713333333333
  0
LINE
  8
_0-0_LAYER001
  6
CONTINUOUS
 62
    1
 10
1249.3069333333333
 20
1100.29
 11
1250.3685999999998
 21
1099.2283333333332
  0
LINE
  8
_0-0_LAYER001
  6
CONTINUOUS
 62
    2
 10
1242.2224000000001
 20
1097.7054666666666
 11
1239.7224000000001
 21
1093.3754000000001
  0
LINE
  8
_0-0_LAYER001
  6
CONTINUOUS
 62
    2
 10
1239.7224000000001
 20
1093.3754000000001
 11
1239.7224000000001
 21
1098.3754000000001
  0
LINE
  8
_0-0_LAYER001
  6
CONTINUOUS
 62
    2
 10
1239.7224000000001
 20
1093.3754000000001
 11
1261.6179999999999
 21
1175.0908666666667
  0
LINE
  8
_0-0_LAYER001
  6
CONTINUOUS
 62
    2
 10
1261.6179999999999
 20
1175.0908666666667
 11
1326.6179999999999
 21
1175.0908666666667
  0
LINE
  8
_0-0_LAYER001
  6
CONTINUOUS
 62
    2
 10
1325.6779333333334
 20
1100.29
 11
1290.6779333333334
 21
1100.29
  0
CIRCLE
  8
_0-0_LAYER001
  6
CONTINUOUS
 62
    2
 10
1324.0112666666666
 20
1100.29
 40
1.1333333333333331
  0
LINE
  8
_0-0_LAYER001
  6
CONTINUOUS
 62
    2
 10
1324.0112666666666
 20
1100.29
 11
1324.0112666666666
 21
1166.9566666666667
  0
CIRCLE
  8
_0-0_LAYER001
  6
CONTINUOUS
 62
    2
 10
1324.0112666666666
 20
1166.9566666666667
 40
1.1333333333333331
  0
LINE
  8
_0-0_LAYER001
  6
CONTINUOUS
 62
    2
 10
1325.6779333333334
 20
1166.9566666666667
 11
1290.6779333333334
 21
1166.9566666666667
  0
LINE
  8
_0-0_LAYER001
  6
CONTINUOUS
 62
    2
 10
1200.8600666666666
 20
1135.9146666666668
 11
1200.8600666666666
 21
1117.5813333333333
  0
CIRCLE
  8
_0-0_LAYER001
  6
CONTINUOUS
 62
    2
 10
1200.8600666666666
 20
1134.248
 40
1.1333333333333331
  0
LINE
  8
_0-0_LAYER001
  6
CONTINUOUS
 62
    2
 10
1200.8600666666666
 20
1134.248
 11
1264.2740666666666
 21
1134.248
  0
CIRCLE
  8
_0-0_LAYER001
  6
CONTINUOUS
 62
    2
 10
1264.2740666666666
 20
1134.248
 40
1.1333333333333331
  0
LINE
  8
_0-0_LAYER001
  6
CONTINUOUS
 62
    2
 10
1264.2740666666666
 20
1135.9146666666668
 11
1264.2740666666666
 21
1117.5813333333333
  0
ARC
  8
_0-0_LAYER001
  6
CONTINUOUS
 62
    4
 10
1389.3792666666668
 20
1037.6254666666666
 40
3.9935999999999998
 50
199.47121999999999
 51
344.27760999999998
  0
LINE
  8
_0-0_LAYER001
  6
CONTINUOUS
 62
    4
 10
1381.6930000000002
 20
1046.9438666666665
 11
1385.6866
 21
1036.1045333333332
  0
LINE
  8
_0-0_LAYER001
  6
CONTINUOUS
 62
    4
 10
1233.9574666666667
 20
1046.9438666666665
 11
1230.1652666666669
 21
1036.5432666666668
  0
LINE
  8
_0-0_LAYER001
  6
CONTINUOUS
 62
    4
 10
1394.1034
 20
1038.9566666666665
 11
1393.2234666666668
 21
1036.5432666666668
  0
LINE
  8
_0-0_LAYER001
  6
CONTINUOUS
 62
    4
 10
1218.1444000000001
 20
1048.2750666666668
 11
1193.3420666666666
 21
1048.2750666666668
  0
LINE
  8
_0-0_LAYER001
  6
CONTINUOUS
 62
    4
 10
1218.1444000000001
 20
1048.2750666666668
 11
1222.6284666666668
 21
1036.1045333333332
  0
LINE
  8
_0-0_LAYER001
  6
CONTINUOUS
 62
    4
 10
1381.6930000000002
 20
1046.9438666666665
 11
1355.069
 21
1046.9438666666665
  0
LINE
  8
_0-0_LAYER001
  6
CONTINUOUS
 62
    4
 10
1349.7442000000001
 20
1046.9438666666665
 11
1318.4609999999998
 21
1046.9438666666665
  0
LINE
  8
_0-0_LAYER001
  6
CONTINUOUS
 62
    4
 10
1313.1362000000001
 20
1046.9438666666665
 11
1277.8594000000001
 21
1046.9438666666665
  0
LINE
  8
_0-0_LAYER001
  6
CONTINUOUS
 62
    4
 10
1272.5346
 20
1046.9438666666665
 11
1233.9574666666667
 21
1046.9438666666665
  0
LINE
  8
_0-0_LAYER001
  6
CONTINUOUS
 62
    4
 10
1370.3916666666669
 20
1061.5870666666665
 11
1370.3916666666669
 21
1059.5902666666666
  0
LINE
  8
_0-0_LAYER001
  6
CONTINUOUS
 62
    4
 10
1219.9660666666668
 20
1059.5902666666666
 11
1370.3916666666669
 21
1059.5902666666666
  0
LINE
  8
_0-0_LAYER001
  6
CONTINUOUS
 62
    4
 10
1219.9660666666668
 20
1061.5870666666665
 11
1219.9660666666668
 21
1059.5902666666666
  0
LINE
  8
_0-0_LAYER001
  6
CONTINUOUS
 62
    4
 10
1219.9660666666668
 20
1061.5870666666665
 11
1193.3420666666666
 21
1061.5870666666665
  0
LINE
  8
_0-0_LAYER001
  6
CONTINUOUS
 62
    4
 10
1272.5346
 20
1046.9438666666665
 11
1272.5346
 21
1039.6222666666667
  0
LINE
  8
_0-0_LAYER001
  6
CONTINUOUS
 62
    4
 10
1277.8594000000001
 20
1039.6222666666667
 11
1272.5346
 21
1039.6222666666667
  0
LINE
  8
_0-0_LAYER001
  6
CONTINUOUS
 62
    4
 10
1277.8594000000001
 20
1046.9438666666665
 11
1277.8594000000001
 21
1039.6222666666667
  0
LINE
  8
_0-0_LAYER001
  6
CONTINUOUS
 62
    4
 10
1313.1362000000001
 20
1046.9438666666665
 11
1313.1362000000001
 21
1039.6222666666667
  0
LINE
  8
_0-0_LAYER001
  6
CONTINUOUS
 62
    4
 10
1318.4609999999998
 20
1039.6222666666667
 11
1313.1362000000001
 21
1039.6222666666667
  0
LINE
  8
_0-0_LAYER001
  6
CONTINUOUS
 62
    4
 10
1318.4609999999998
 20
1046.9438666666665
 11
1318.4609999999998
 21
1039.6222666666667
  0
LINE
  8
_0-0_LAYER001
  6
CONTINUOUS
 62
    4
 10
1349.7442000000001
 20
1046.9438666666665
 11
1349.7442000000001
 21
1039.6222666666667
  0
LINE
  8
_0-0_LAYER001
  6
CONTINUOUS
 62
    4
 10
1355.069
 20
1039.6222666666667
 11
1349.7442000000001
 21
1039.6222666666667
  0
LINE
  8
_0-0_LAYER001
  6
CONTINUOUS
 62
    4
 10
1355.069
 20
1039.6222666666667
 11
1355.069
 21
1046.9438666666665
  0
LINE
  8
_0-0_LAYER001
  6
CONTINUOUS
 62
    4
 10
1193.3420666666666
 20
1061.5870666666665
 11
1193.3420666666666
 21
1048.2750666666668
  0
ARC
  8
_0-0_LAYER001
  6
CONTINUOUS
 62
    4
 10
1226.2715333333333
 20
1037.6254666666666
 40
3.9935999999999998
 50
199.47121999999999
 51
344.27760999999998
  0
LINE
  8
_0-0_LAYER001
  6
CONTINUOUS
 62
    4
 10
1397.3420666666666
 20
1061.5870666666665
 11
1370.3916666666669
 21
1061.5870666666665
  0
LINE
  8
_0-0_LAYER001
  6
CONTINUOUS
 62
    4
 10
1397.3420666666666
 20
1061.5870666666665
 11
1397.3420666666666
 21
1046.9438666666665
  0
LINE
  8
_0-0_LAYER001
  6
CONTINUOUS
 62
    4
 10
1397.3420666666666
 20
1061.5870666666665
 11
1397.3420666666666
 21
1048.2750666666668
  0
LINE
  8
_0-0_LAYER001
  6
CONTINUOUS
 62
    4
 10
1423.3420666666666
 20
1038.9566666666665
 11
1394.1034
 21
1038.9566666666665
  0
LINE
  8
_0-0_LAYER001
  6
CONTINUOUS
 62
    4
 10
1423.3420666666666
 20
1038.9566666666665
 11
1423.3420666666666
 21
1046.9438666666665
  0
LINE
  8
_0-0_LAYER001
  6
CONTINUOUS
 62
    4
 10
1423.3420666666666
 20
1046.9438666666665
 11
1397.3420666666666
 21
1046.9438666666665
  0
LINE
  8
_0-0_LAYER001
  6
CONTINUOUS
 62
    2
 10
1193.3420666666666
 20
1063.9457333333332
 11
1193.3420666666666
 21
1081.5902666666666
  0
LINE
  8
_0-0_LAYER001
  6
CONTINUOUS
 62
    2
 10
1833.3015333333333
 20
1068.9438666666665
 11
1833.3015333333333
 21
1063.9457333333332
  0
LINE
  8
_0-0_LAYER001
  6
CONTINUOUS
 62
    2
 10
1834.1444000000001
 20
1070.2750666666666
 11
1834.1444000000001
 21
1063.9457333333332
  0
LINE
  8
_0-0_LAYER001
  6
CONTINUOUS
 62
    2
 10
1834.1444000000001
 20
1070.2750666666666
 11
1809.3420666666668
 21
1070.2750666666666
  0
LINE
  8
_0-0_LAYER001
  6
CONTINUOUS
 62
    2
 10
1833.3015333333333
 20
1068.9438666666665
 11
1808.0087333333336
 21
1068.9438666666665
  0
LINE
  8
_0-0_LAYER001
  6
CONTINUOUS
 62
    2
 10
1627.9682
 20
1068.9438666666665
 11
1627.9682
 21
1063.9457333333332
  0
LINE
  8
_0-0_LAYER001
  6
CONTINUOUS
 62
    2
 10
1628.8110666666669
 20
1070.2750666666666
 11
1628.8110666666669
 21
1063.9457333333332
  0
LINE
  8
_0-0_LAYER001
  6
CONTINUOUS
 62
    2
 10
1628.8110666666669
 20
1070.2750666666666
 11
1604.0087333333336
 21
1070.2750666666666
  0
LINE
  8
_0-0_LAYER001
  6
CONTINUOUS
 62
    2
 10
1627.9682
 20
1068.9438666666665
 11
1602.6754000000001
 21
1068.9438666666665
  0
LINE
  8
_0-0_LAYER001
  6
CONTINUOUS
 62
    2
 10
1422.6348666666668
 20
1068.9438666666665
 11
1422.6348666666668
 21
1063.9457333333332
  0
LINE
  8
_0-0_LAYER001
  6
CONTINUOUS
 62
    2
 10
1423.4777333333332
 20
1070.2750666666666
 11
1398.6754000000001
 21
1070.2750666666666
  0
LINE
  8
_0-0_LAYER001
  6
CONTINUOUS
 62
    2
 10
1422.6348666666668
 20
1068.9438666666665
 11
1397.3420666666666
 21
1068.9438666666665
  0
LINE
  8
_0-0_LAYER001
  6
CONTINUOUS
 62
    2
 10
1968.8352
 20
1063.9457333333332
 11
1834.1444000000001
 21
1063.9457333333332
  0
LINE
  8
_0-0_LAYER001
  6
CONTINUOUS
 62
    2
 10
1833.3015333333333
 20
1063.9457333333332
 11
1628.8110666666669
 21
1063.9457333333332
  0
LINE
  8
_0-0_LAYER001
  6
CONTINUOUS
 62
    2
 10
1627.9682
 20
1063.9457333333332
 11
1423.4777333333332
 21
1063.9457333333332
  0
LINE
  8
_0-0_LAYER001
  6
CONTINUOUS
 62
    2
 10
1370.3916666666669
 20
1083.5870666666667
 11
1370.3916666666669
 21
1081.5902666666666
  0
LINE
  8
_0-0_LAYER001
  6
CONTINUOUS
 62
    2
 10
1320.4716666666668
 20
1081.5902666666666
 11
1370.3916666666669
 21
1081.5902666666666
  0
LINE
  8
_0-0_LAYER001
  6
CONTINUOUS
 62
    2
 10
1193.3420666666666
 20
1081.5902666666666
 11
1320.4716666666668
 21
1081.5902666666666
  0
LINE
  8
_0-0_LAYER001
  6
CONTINUOUS
 62
    2
 10
1397.3420666666666
 20
1083.5870666666667
 11
1397.3420666666666
 21
1068.9438666666665
  0
LINE
  8
_0-0_LAYER001
  6
CONTINUOUS
 62
    2
 10
1575.7249999999999
 20
1083.5870666666667
 11
1575.7249999999999
 21
1081.5902666666666
  0
LINE
  8
_0-0_LAYER001
  6
CONTINUOUS
 62
    2
 10
1525.8050000000001
 20
1081.5902666666666
 11
1575.7249999999999
 21
1081.5902666666666
  0
LINE
  8
_0-0_LAYER001
  6
CONTINUOUS
 62
    2
 10
1425.2994000000001
 20
1081.5902666666666
 11
1525.8050000000001
 21
1081.5902666666666
  0
LINE
  8
_0-0_LAYER001
  6
CONTINUOUS
 62
    2
 10
1425.2994000000001
 20
1083.5870666666667
 11
1425.2994000000001
 21
1081.5902666666666
  0
LINE
  8
_0-0_LAYER001
  6
CONTINUOUS
 62
    2
 10
1425.2994000000001
 20
1083.5870666666667
 11
1398.6754000000001
 21
1083.5870666666667
  0
LINE
  8
_0-0_LAYER001
  6
CONTINUOUS
 62
    2
 10
1398.6754000000001
 20
1083.5870666666667
 11
1398.6754000000001
 21
1070.2750666666666
  0
LINE
  8
_0-0_LAYER001
  6
CONTINUOUS
 62
    2
 10
1602.6754000000001
 20
1083.5870666666667
 11
1575.7249999999999
 21
1083.5870666666667
  0
LINE
  8
_0-0_LAYER001
  6
CONTINUOUS
 62
    2
 10
1602.6754000000001
 20
1083.5870666666667
 11
1602.6754000000001
 21
1068.9438666666665
  0
LINE
  8
_0-0_LAYER001
  6
CONTINUOUS
 62
    2
 10
1602.6754000000001
 20
1083.5870666666667
 11
1602.6754000000001
 21
1070.2750666666666
  0
LINE
  8
_0-0_LAYER001
  6
CONTINUOUS
 62
    2
 10
1781.0583333333334
 20
1083.5870666666667
 11
1781.0583333333334
 21
1081.5902666666666
  0
LINE
  8
_0-0_LAYER001
  6
CONTINUOUS
 62
    2
 10
1731.1383333333333
 20
1081.5902666666666
 11
1781.0583333333334
 21
1081.5902666666666
  0
LINE
  8
_0-0_LAYER001
  6
CONTINUOUS
 62
    2
 10
1630.6327333333331
 20
1081.5902666666666
 11
1731.1383333333333
 21
1081.5902666666666
  0
LINE
  8
_0-0_LAYER001
  6
CONTINUOUS
 62
    2
 10
1630.6327333333331
 20
1083.5870666666667
 11
1630.6327333333331
 21
1081.5902666666666
  0
LINE
  8
_0-0_LAYER001
  6
CONTINUOUS
 62
    2
 10
1630.6327333333331
 20
1083.5870666666667
 11
1604.0087333333336
 21
1083.5870666666667
  0
LINE
  8
_0-0_LAYER001
  6
CONTINUOUS
 62
    2
 10
1604.0087333333336
 20
1083.5870666666667
 11
1604.0087333333336
 21
1070.2750666666666
  0
LINE
  8
_0-0_LAYER001
  6
CONTINUOUS
 62
    2
 10
1808.0087333333336
 20
1083.5870666666667
 11
1781.0583333333334
 21
1083.5870666666667
  0
LINE
  8
_0-0_LAYER001
  6
CONTINUOUS
 62
    2
 10
1808.0087333333336
 20
1083.5870666666667
 11
1808.0087333333336
 21
1068.9438666666665
  0
LINE
  8
_0-0_LAYER001
  6
CONTINUOUS
 62
    2
 10
1808.0087333333336
 20
1083.5870666666667
 11
1808.0087333333336
 21
1070.2750666666666
  0
LINE
  8
_0-0_LAYER001
  6
CONTINUOUS
 62
    2
 10
1835.9660666666664
 20
1081.5902666666666
 11
1968.8352
 21
1081.5902666666666
  0
LINE
  8
_0-0_LAYER001
  6
CONTINUOUS
 62
    2
 10
1835.9660666666664
 20
1083.5870666666667
 11
1835.9660666666664
 21
1081.5902666666666
  0
LINE
  8
_0-0_LAYER001
  6
CONTINUOUS
 62
    2
 10
1835.9660666666664
 20
1083.5870666666667
 11
1809.3420666666668
 21
1083.5870666666667
  0
LINE
  8
_0-0_LAYER001
  6
CONTINUOUS
 62
    2
 10
1809.3420666666668
 20
1083.5870666666667
 11
1809.3420666666668
 21
1070.2750666666666
  0
LINE
  8
_0-0_LAYER001
  6
CONTINUOUS
 62
    2
 10
1191.3420666666666
 20
1126.9566666666667
 11
1194.8315333333333
 21
1120.2247333333332
  0
LINE
  8
_0-0_LAYER001
  6
CONTINUOUS
 62
    2
 10
1189.3420666666666
 20
1026.9566666666667
 11
1189.3420666666666
 21
1180.29
  0
LINE
  8
_0-0_LAYER001
  6
DASHED3
 62
    2
 10
1190.3420666666666
 20
1027.9566666666667
 11
1190.3420666666666
 21
1160.29
  0
LINE
  8
_0-0_LAYER001
  6
CONTINUOUS
 62
    2
 10
1023.8911333333334
 20
1026.9566666666667
 11
1058.8911333333335
 21
1026.9566666666667
  0
CIRCLE
  8
_0-0_LAYER001
  6
CONTINUOUS
 62
    2
 10
1025.5578
 20
1026.9566666666667
 40
1.1333333333333331
  0
LINE
  8
_0-0_LAYER001
  6
CONTINUOUS
 62
    2
 10
1025.5578
 20
1026.9566666666667
 11
1025.5578
 21
1160.29
  0
CIRCLE
  8
_0-0_LAYER001
  6
CONTINUOUS
 62
    2
 10
1025.5578
 20
1160.29
 40
1.1333333333333331
  0
LINE
  8
_0-0_LAYER001
  6
CONTINUOUS
 62
    2
 10
1023.8911333333334
 20
1160.29
 11
1058.8911333333335
 21
1160.29
  0
LINE
  8
_0-0_LAYER001
  6
CONTINUOUS
 62
    2
 10
1193.3937333333333
 20
1178.6857333333335
 11
1194.6878000000002
 21
1173.8560666666667
  0
LINE
  8
_0-0_LAYER001
  6
CONTINUOUS
 62
    2
 10
1194.6878000000002
 20
1173.8560666666667
 11
1191.1522666666667
 21
1177.3915999999999
  0
LINE
  8
_0-0_LAYER001
  6
CONTINUOUS
 62
    2
 10
1194.6878000000002
 20
1173.8560666666667
 11
1144.0420666666669
 21
1261.5771333333332
  0
LINE
  8
_0-0_LAYER001
  6
CONTINUOUS
 62
    2
 10
1144.0420666666669
 20
1261.5771333333332
 11
1090.0420666666669
 21
1261.5771333333332
  0
LINE
  8
_0-0_LAYER001
  6
CONTINUOUS
 62
    2
 10
1213.7749333333334
 20
1105.2147333333335
 11
1211.2749333333334
 21
1100.8845999999999
  0
LINE
  8
_0-0_LAYER001
  6
CONTINUOUS
 62
    2
 10
1211.2749333333334
 20
1100.8845999999999
 11
1211.2749333333334
 21
1105.8845999999999
  0
LINE
  8
_0-0_LAYER001
  6
CONTINUOUS
 62
    2
 10
1211.2749333333334
 20
1100.8845999999999
 11
1237.4193333333333
 21
1198.4569333333334
  0
LINE
  8
_0-0_LAYER001
  6
CONTINUOUS
 62
    2
 10
1237.4193333333333
 20
1198.4569333333334
 11
1393.4193333333333
 21
1198.4569333333334
  0
LINE
  8
_0-0_LAYER001
  6
CONTINUOUS
 62
    4
 10
1849.9574666666667
 20
1046.9438666666665
 11
1846.1652666666666
 21
1036.5432666666668
  0
LINE
  8
_0-0_LAYER001
  6
CONTINUOUS
 62
    4
 10
1834.1444000000001
 20
1048.2750666666668
 11
1809.3420666666668
 21
1048.2750666666668
  0
LINE
  8
_0-0_LAYER001
  6
CONTINUOUS
 62
    4
 10
1834.1444000000001
 20
1048.2750666666668
 11
1838.6284666666666
 21
1036.1045333333332
  0
LINE
  8
_0-0_LAYER001
  6
CONTINUOUS
 62
    4
 10
1965.7442000000001
 20
1046.9438666666665
 11
1934.461
 21
1046.9438666666665
  0
LINE
  8
_0-0_LAYER001
  6
CONTINUOUS
 62
    4
 10
1929.1361999999999
 20
1046.9438666666665
 11
1893.8594000000001
 21
1046.9438666666665
  0
LINE
  8
_0-0_LAYER001
  6
CONTINUOUS
 62
    4
 10
1888.5346
 20
1046.9438666666665
 11
1849.9574666666667
 21
1046.9438666666665
  0
LINE
  8
_0-0_LAYER001
  6
CONTINUOUS
 62
    4
 10
1936.4716666666666
 20
1059.5902666666666
 11
1968.8352
 21
1059.5902666666666
  0
LINE
  8
_0-0_LAYER001
  6
CONTINUOUS
 62
    4
 10
1835.9660666666664
 20
1059.5902666666666
 11
1936.4716666666666
 21
1059.5902666666666
  0
LINE
  8
_0-0_LAYER001
  6
CONTINUOUS
 62
    4
 10
1835.9660666666664
 20
1061.5870666666665
 11
1835.9660666666664
 21
1059.5902666666666
  0
LINE
  8
_0-0_LAYER001
  6
CONTINUOUS
 62
    4
 10
1835.9660666666664
 20
1061.5870666666665
 11
1809.3420666666668
 21
1061.5870666666665
  0
LINE
  8
_0-0_LAYER001
  6
CONTINUOUS
 62
    4
 10
1888.5346
 20
1046.9438666666665
 11
1888.5346
 21
1039.6222666666667
  0
LINE
  8
_0-0_LAYER001
  6
CONTINUOUS
 62
    4
 10
1893.8594000000001
 20
1039.6222666666667
 11
1888.5346
 21
1039.6222666666667
  0
LINE
  8
_0-0_LAYER001
  6
CONTINUOUS
 62
    4
 10
1893.8594000000001
 20
1046.9438666666665
 11
1893.8594000000001
 21
1039.6222666666667
  0
LINE
  8
_0-0_LAYER001
  6
CONTINUOUS
 62
    4
 10
1929.1361999999999
 20
1046.9438666666665
 11
1929.1361999999999
 21
1039.6222666666667
  0
LINE
  8
_0-0_LAYER001
  6
CONTINUOUS
 62
    4
 10
1934.461
 20
1039.6222666666667
 11
1929.1361999999999
 21
1039.6222666666667
  0
LINE
  8
_0-0_LAYER001
  6
CONTINUOUS
 62
    4
 10
1934.461
 20
1046.9438666666665
 11
1934.461
 21
1039.6222666666667
  0
LINE
  8
_0-0_LAYER001
  6
CONTINUOUS
 62
    4
 10
1965.7442000000001
 20
1046.9438666666665
 11
1965.7442000000001
 21
1039.6222666666667
  0
LINE
  8
_0-0_LAYER001
  6
CONTINUOUS
 62
    4
 10
1968.8352
 20
1039.6222666666667
 11
1965.7442000000001
 21
1039.6222666666667
  0
LINE
  8
_0-0_LAYER001
  6
CONTINUOUS
 62
    4
 10
1809.3420666666668
 20
1061.5870666666665
 11
1809.3420666666668
 21
1048.2750666666668
  0
ARC
  8
_0-0_LAYER001
  6
CONTINUOUS
 62
    4
 10
1842.2715333333331
 20
1037.6254666666666
 40
3.9935999999999998
 50
199.47121999999999
 51
344.27760999999998
  0
ARC
  8
_0-0_LAYER001
  6
CONTINUOUS
 62
    4
 10
1800.0459333333333
 20
1037.6254666666666
 40
3.9935999999999998
 50
199.47121999999999
 51
344.27760999999998
  0
LINE
  8
_0-0_LAYER001
  6
CONTINUOUS
 62
    4
 10
1792.3596666666665
 20
1046.9438666666665
 11
1796.3532666666665
 21
1036.1045333333332
  0
LINE
  8
_0-0_LAYER001
  6
CONTINUOUS
 62
    4
 10
1644.6241333333332
 20
1046.9438666666665
 11
1640.8319333333334
 21
1036.5432666666668
  0
LINE
  8
_0-0_LAYER001
  6
CONTINUOUS
 62
    4
 10
1804.7700666666665
 20
1038.9566666666665
 11
1803.8901333333333
 21
1036.5432666666668
  0
LINE
  8
_0-0_LAYER001
  6
CONTINUOUS
 62
    4
 10
1628.8110666666669
 20
1048.2750666666668
 11
1604.0087333333336
 21
1048.2750666666668
  0
LINE
  8
_0-0_LAYER001
  6
CONTINUOUS
 62
    4
 10
1628.8110666666669
 20
1048.2750666666668
 11
1633.2951333333335
 21
1036.1045333333332
  0
LINE
  8
_0-0_LAYER001
  6
CONTINUOUS
 62
    4
 10
1792.3596666666665
 20
1046.9438666666665
 11
1765.7356666666669
 21
1046.9438666666665
  0
LINE
  8
_0-0_LAYER001
  6
CONTINUOUS
 62
    4
 10
1760.4108666666666
 20
1046.9438666666665
 11
1729.1276666666668
 21
1046.9438666666665
  0
LINE
  8
_0-0_LAYER001
  6
CONTINUOUS
 62
    4
 10
1723.8028666666664
 20
1046.9438666666665
 11
1688.5260666666668
 21
1046.9438666666665
  0
LINE
  8
_0-0_LAYER001
  6
CONTINUOUS
 62
    4
 10
1683.2012666666665
 20
1046.9438666666665
 11
1644.6241333333332
 21
1046.9438666666665
  0
LINE
  8
_0-0_LAYER001
  6
CONTINUOUS
 62
    4
 10
1781.0583333333334
 20
1061.5870666666665
 11
1781.0583333333334
 21
1059.5902666666666
  0
LINE
  8
_0-0_LAYER001
  6
CONTINUOUS
 62
    4
 10
1731.1383333333333
 20
1059.5902666666666
 11
1781.0583333333334
 21
1059.5902666666666
  0
LINE
  8
_0-0_LAYER001
  6
CONTINUOUS
 62
    4
 10
1630.6327333333331
 20
1059.5902666666666
 11
1731.1383333333333
 21
1059.5902666666666
  0
LINE
  8
_0-0_LAYER001
  6
CONTINUOUS
 62
    4
 10
1630.6327333333331
 20
1061.5870666666665
 11
1630.6327333333331
 21
1059.5902666666666
  0
LINE
  8
_0-0_LAYER001
  6
CONTINUOUS
 62
    4
 10
1630.6327333333331
 20
1061.5870666666665
 11
1604.0087333333336
 21
1061.5870666666665
  0
LINE
  8
_0-0_LAYER001
  6
CONTINUOUS
 62
    4
 10
1683.2012666666665
 20
1046.9438666666665
 11
1683.2012666666665
 21
1039.6222666666667
  0
LINE
  8
_0-0_LAYER001
  6
CONTINUOUS
 62
    4
 10
1688.5260666666668
 20
1039.6222666666667
 11
1683.2012666666665
 21
1039.6222666666667
  0
LINE
  8
_0-0_LAYER001
  6
CONTINUOUS
 62
    4
 10
1688.5260666666668
 20
1046.9438666666665
 11
1688.5260666666668
 21
1039.6222666666667
  0
LINE
  8
_0-0_LAYER001
  6
CONTINUOUS
 62
    4
 10
1723.8028666666664
 20
1046.9438666666665
 11
1723.8028666666664
 21
1039.6222666666667
  0
LINE
  8
_0-0_LAYER001
  6
CONTINUOUS
 62
    4
 10
1729.1276666666668
 20
1039.6222666666667
 11
1723.8028666666664
 21
1039.6222666666667
  0
LINE
  8
_0-0_LAYER001
  6
CONTINUOUS
 62
    4
 10
1729.1276666666668
 20
1046.9438666666665
 11
1729.1276666666668
 21
1039.6222666666667
  0
LINE
  8
_0-0_LAYER001
  6
CONTINUOUS
 62
    4
 10
1760.4108666666666
 20
1046.9438666666665
 11
1760.4108666666666
 21
1039.6222666666667
  0
LINE
  8
_0-0_LAYER001
  6
CONTINUOUS
 62
    4
 10
1765.7356666666669
 20
1039.6222666666667
 11
1760.4108666666666
 21
1039.6222666666667
  0
LINE
  8
_0-0_LAYER001
  6
CONTINUOUS
 62
    4
 10
1765.7356666666669
 20
1039.6222666666667
 11
1765.7356666666669
 21
1046.9438666666665
  0
LINE
  8
_0-0_LAYER001
  6
CONTINUOUS
 62
    4
 10
1604.0087333333336
 20
1061.5870666666665
 11
1604.0087333333336
 21
1048.2750666666668
  0
ARC
  8
_0-0_LAYER001
  6
CONTINUOUS
 62
    4
 10
1636.9381999999998
 20
1037.6254666666666
 40
3.9935999999999998
 50
199.47121999999999
 51
344.27760999999998
  0
LINE
  8
_0-0_LAYER001
  6
CONTINUOUS
 62
    4
 10
1808.0087333333336
 20
1061.5870666666665
 11
1781.0583333333334
 21
1061.5870666666665
  0
LINE
  8
_0-0_LAYER001
  6
CONTINUOUS
 62
    4
 10
1808.0087333333336
 20
1061.5870666666665
 11
1808.0087333333336
 21
1046.9438666666665
  0
LINE
  8
_0-0_LAYER001
  6
CONTINUOUS
 62
    4
 10
1808.0087333333336
 20
1061.5870666666665
 11
1808.0087333333336
 21
1048.2750666666668
  0
LINE
  8
_0-0_LAYER001
  6
CONTINUOUS
 62
    4
 10
1834.0087333333331
 20
1038.9566666666665
 11
1804.7700666666665
 21
1038.9566666666665
  0
LINE
  8
_0-0_LAYER001
  6
CONTINUOUS
 62
    4
 10
1834.0087333333331
 20
1038.9566666666665
 11
1834.0087333333331
 21
1046.9438666666665
  0
LINE
  8
_0-0_LAYER001
  6
CONTINUOUS
 62
    4
 10
1834.0087333333331
 20
1046.9438666666665
 11
1808.0087333333336
 21
1046.9438666666665
  0
ARC
  8
_0-0_LAYER001
  6
CONTINUOUS
 62
    4
 10
1594.7126000000003
 20
1037.6254666666666
 40
3.9935999999999998
 50
199.47121999999999
 51
344.27760999999998
  0
LINE
  8
_0-0_LAYER001
  6
CONTINUOUS
 62
    4
 10
1587.0263333333332
 20
1046.9438666666665
 11
1591.0199333333333
 21
1036.1045333333332
  0
LINE
  8
_0-0_LAYER001
  6
CONTINUOUS
 62
    4
 10
1439.2908
 20
1046.9438666666665
 11
1435.4985999999999
 21
1036.5432666666668
  0
LINE
  8
_0-0_LAYER001
  6
CONTINUOUS
 62
    4
 10
1599.4367333333332
 20
1038.9566666666665
 11
1598.5568000000001
 21
1036.5432666666668
  0
LINE
  8
_0-0_LAYER001
  6
CONTINUOUS
 62
    4
 10
1423.4777333333332
 20
1048.2750666666668
 11
1398.6754000000001
 21
1048.2750666666668
  0
LINE
  8
_0-0_LAYER001
  6
CONTINUOUS
 62
    4
 10
1423.4777333333332
 20
1048.2750666666668
 11
1427.9618
 21
1036.1045333333332
  0
LINE
  8
_0-0_LAYER001
  6
CONTINUOUS
 62
    4
 10
1587.0263333333332
 20
1046.9438666666665
 11
1560.4023333333334
 21
1046.9438666666665
  0
LINE
  8
_0-0_LAYER001
  6
CONTINUOUS
 62
    4
 10
1555.0775333333333
 20
1046.9438666666665
 11
1523.7943333333333
 21
1046.9438666666665
  0
LINE
  8
_0-0_LAYER001
  6
CONTINUOUS
 62
    4
 10
1518.4695333333332
 20
1046.9438666666665
 11
1483.1927333333333
 21
1046.9438666666665
  0
LINE
  8
_0-0_LAYER001
  6
CONTINUOUS
 62
    4
 10
1477.8679333333332
 20
1046.9438666666665
 11
1439.2908
 21
1046.9438666666665
  0
LINE
  8
_0-0_LAYER001
  6
CONTINUOUS
 62
    4
 10
1575.7249999999999
 20
1061.5870666666665
 11
1575.7249999999999
 21
1059.5902666666666
  0
LINE
  8
_0-0_LAYER001
  6
CONTINUOUS
 62
    4
 10
1525.8050000000001
 20
1059.5902666666666
 11
1575.7249999999999
 21
1059.5902666666666
  0
LINE
  8
_0-0_LAYER001
  6
CONTINUOUS
 62
    4
 10
1425.2994000000001
 20
1059.5902666666666
 11
1528.9552000000001
 21
1059.5902666666666
  0
LINE
  8
_0-0_LAYER001
  6
CONTINUOUS
 62
    4
 10
1425.2994000000001
 20
1061.5870666666665
 11
1425.2994000000001
 21
1059.5902666666666
  0
LINE
  8
_0-0_LAYER001
  6
CONTINUOUS
 62
    4
 10
1425.2994000000001
 20
1061.5870666666665
 11
1398.6754000000001
 21
1061.5870666666665
  0
LINE
  8
_0-0_LAYER001
  6
CONTINUOUS
 62
    4
 10
1477.8679333333332
 20
1046.9438666666665
 11
1477.8679333333332
 21
1039.6222666666667
  0
LINE
  8
_0-0_LAYER001
  6
CONTINUOUS
 62
    4
 10
1483.1927333333333
 20
1039.6222666666667
 11
1477.8679333333332
 21
1039.6222666666667
  0
LINE
  8
_0-0_LAYER001
  6
CONTINUOUS
 62
    4
 10
1483.1927333333333
 20
1046.9438666666665
 11
1483.1927333333333
 21
1039.6222666666667
  0
LINE
  8
_0-0_LAYER001
  6
CONTINUOUS
 62
    4
 10
1518.4695333333332
 20
1046.9438666666665
 11
1518.4695333333332
 21
1039.6222666666667
  0
LINE
  8
_0-0_LAYER001
  6
CONTINUOUS
 62
    4
 10
1523.7943333333333
 20
1039.6222666666667
 11
1518.4695333333332
 21
1039.6222666666667
  0
LINE
  8
_0-0_LAYER001
  6
CONTINUOUS
 62
    4
 10
1523.7943333333333
 20
1046.9438666666665
 11
1523.7943333333333
 21
1039.6222666666667
  0
LINE
  8
_0-0_LAYER001
  6
CONTINUOUS
 62
    4
 10
1555.0775333333333
 20
1046.9438666666665
 11
1555.0775333333333
 21
1039.6222666666667
  0
LINE
  8
_0-0_LAYER001
  6
CONTINUOUS
 62
    4
 10
1560.4023333333334
 20
1039.6222666666667
 11
1555.0775333333333
 21
1039.6222666666667
  0
LINE
  8
_0-0_LAYER001
  6
CONTINUOUS
 62
    4
 10
1560.4023333333334
 20
1039.6222666666667
 11
1560.4023333333334
 21
1046.9438666666665
  0
LINE
  8
_0-0_LAYER001
  6
CONTINUOUS
 62
    4
 10
1398.6754000000001
 20
1061.5870666666665
 11
1398.6754000000001
 21
1048.2750666666668
  0
ARC
  8
_0-0_LAYER001
  6
CONTINUOUS
 62
    4
 10
1431.6048666666668
 20
1037.6254666666666
 40
3.9935999999999998
 50
199.47121999999999
 51
344.27760999999998
  0
LINE
  8
_0-0_LAYER001
  6
CONTINUOUS
 62
    4
 10
1602.6754000000001
 20
1061.5870666666665
 11
1575.7249999999999
 21
1061.5870666666665
  0
LINE
  8
_0-0_LAYER001
  6
CONTINUOUS
 62
    4
 10
1602.6754000000001
 20
1061.5870666666665
 11
1602.6754000000001
 21
1046.9438666666665
  0
LINE
  8
_0-0_LAYER001
  6
CONTINUOUS
 62
    4
 10
1602.6754000000001
 20
1061.5870666666665
 11
1602.6754000000001
 21
1048.2750666666668
  0
LINE
  8
_0-0_LAYER001
  6
CONTINUOUS
 62
    4
 10
1628.6754000000001
 20
1038.9566666666665
 11
1599.4367333333332
 21
1038.9566666666665
  0
LINE
  8
_0-0_LAYER001
  6
CONTINUOUS
 62
    4
 10
1628.6754000000001
 20
1038.9566666666665
 11
1628.6754000000001
 21
1046.9438666666665
  0
LINE
  8
_0-0_LAYER001
  6
CONTINUOUS
 62
    4
 10
1628.6754000000001
 20
1046.9438666666665
 11
1602.6754000000001
 21
1046.9438666666665
  0
LINE
  8
_0-1_LAYER004
  6
CONTINUOUS
 62
   18
 10
1023.8911333333334
 20
1160.29
 11
1058.8911333333335
 21
1160.29
  0
LINE
  8
_0-1_LAYER004
  6
CONTINUOUS
 62
   18
 10
1025.5578
 20
1160.29
 11
1025.5578
 21
1026.9566666666667
  0
LINE
  8
_0-1_LAYER004
  6
CONTINUOUS
 62
   18
 10
1023.8911333333334
 20
1026.9566666666667
 11
1058.8911333333335
 21
1026.9566666666667
  0
LINE
  8
_0-1_LAYER004
  6
CONTINUOUS
 62
   18
 10
1082.9349999999999
 20
1026.9566666666667
 11
1117.9349999999999
 21
1026.9566666666667
  0
LINE
  8
_0-1_LAYER004
  6
CONTINUOUS
 62
   18
 10
1084.6016666666667
 20
1026.9566666666667
 11
1084.6016666666667
 21
1126.9566666666667
  0
LINE
  8
_0-1_LAYER004
  6
CONTINUOUS
 62
   18
 10
1084.6016666666667
 20
1126.9566666666667
 11
1083.4683333333332
 21
1126.9566666666667
  0
LINE
  8
_0-1_LAYER004
  6
CONTINUOUS
 62
   18
 10
1083.4683333333332
 20
1126.9566666666667
 11
1117.9349999999999
 21
1126.9566666666667
  0
LINE
  8
_0-1_LAYER004
  6
CONTINUOUS
 62
   18
 10
1110.4745333333333
 20
1153.6097333333332
 11
1202.6754000000001
 21
1245.8106
  0
LINE
  8
_0-1_LAYER004
  6
CONTINUOUS
 62
   18
 10
1202.6754000000001
 20
1255.2386666666666
 11
1110.4745333333333
 21
1163.0378000000001
  0
LINE
  8
_0-1_LAYER004
  6
CONTINUOUS
 62
   18
 10
1110.4745333333333
 20
1163.0378000000001
 11
1202.6754000000001
 21
1255.2386666666666
  0
LINE
  8
_0-1_LAYER004
  6
CONTINUOUS
 62
   18
 10
1202.6754000000001
 20
1264.6668
 11
1110.4745333333333
 21
1172.4658666666667
  0
LINE
  8
_0-1_LAYER004
  6
CONTINUOUS
 62
   18
 10
1090.0420666666669
 20
1261.5771333333332
 11
1144.0420666666669
 21
1261.5771333333332
  0
LINE
  8
_0-1_LAYER004
  6
CONTINUOUS
 62
   18
 10
1144.0420666666669
 20
1261.5771333333332
 11
1194.6878000000002
 21
1173.8560666666667
  0
LINE
  8
_0-1_LAYER004
  6
CONTINUOUS
 62
   18
 10
1194.6878000000002
 20
1173.8560666666667
 11
1193.3937333333333
 21
1178.6857333333335
  0
LINE
  8
_0-1_LAYER004
  6
CONTINUOUS
 62
   18
 10
1191.1522666666667
 20
1177.3915999999999
 11
1194.6878000000002
 21
1173.8560666666667
  0
LINE
  8
_0-1_LAYER004
  6
CONTINUOUS
 62
   18
 10
1202.6754000000001
 20
1180.29
 11
1189.3420666666666
 21
1180.29
  0
LINE
  8
_0-1_LAYER004
  6
CONTINUOUS
 62
   18
 10
1189.3420666666666
 20
1180.29
 11
1189.3420666666666
 21
1026.9566666666667
  0
LINE
  8
_0-1_LAYER004
  6
CONTINUOUS
 62
   18
 10
1191.3420666666666
 20
1028.9566666666665
 11
1191.3420666666666
 21
1126.9566666666667
  0
LINE
  8
_0-1_LAYER004
  6
CONTINUOUS
 62
   18
 10
1191.3420666666666
 20
1126.9566666666667
 11
1194.8315333333333
 21
1120.2247333333332
  0
LINE
  8
_0-1_LAYER004
  6
CONTINUOUS
 62
   18
 10
1190.3420666666666
 20
1160.29
 11
1190.3420666666666
 21
1027.9566666666667
  0
LINE
  8
_0-1_LAYER004
  6
CONTINUOUS
 62
   18
 10
1190.3420666666666
 20
1027.9566666666667
 11
1968.8352
 21
1027.9566666666667
  0
LINE
  8
_0-1_LAYER004
  6
CONTINUOUS
 62
   18
 10
1968.8352
 20
1028.9566666666665
 11
1191.3420666666666
 21
1028.9566666666665
  0
LINE
  8
_0-1_LAYER004
  6
CONTINUOUS
 62
   18
 10
1189.3420666666666
 20
1026.9566666666667
 11
1968.8352
 21
1026.9566666666667
  0
LINE
  8
_0-1_LAYER004
  6
CONTINUOUS
 62
   18
 10
1968.8352
 20
1000.29
 11
1189.3420666666666
 21
1000.29
  0
LINE
  8
_0-1_LAYER004
  6
CONTINUOUS
 62
   18
 10
1189.3420666666666
 20
1026.9566666666667
 11
1189.3420666666666
 21
1000.29
  0
LINE
  8
_0-1_LAYER004
  6
CONTINUOUS
 62
   18
 10
1153.8332
 20
933.42506666666668
 11
1019.8332
 21
933.42506666666668
  0
LINE
  8
_0-1_LAYER004
  6
CONTINUOUS
 62
   18
 10
1209.2323333333334
 20
1029.3792000000001
 11
1205.6968000000002
 21
1025.8436666666666
  0
LINE
  8
_0-1_LAYER004
  6
CONTINUOUS
 62
   18
 10
1207.9382666666668
 20
1024.5496000000001
 11
1209.2323333333334
 21
1029.3792000000001
  0
LINE
  8
_0-1_LAYER004
  6
CONTINUOUS
 62
   18
 10
1209.2323333333334
 20
1029.3792000000001
 11
1153.8332
 21
933.42506666666668
  0
LINE
  8
_0-1_LAYER004
  6
CONTINUOUS
 62
   18
 10
1393.4193333333333
 20
1198.4569333333334
 11
1237.4193333333333
 21
1198.4569333333334
  0
LINE
  8
_0-1_LAYER004
  6
CONTINUOUS
 62
   18
 10
1237.4193333333333
 20
1198.4569333333334
 11
1211.2749333333334
 21
1100.8845999999999
  0
LINE
  8
_0-1_LAYER004
  6
CONTINUOUS
 62
   18
 10
1211.2749333333334
 20
1105.8845999999999
 11
1211.2749333333334
 21
1100.8845999999999
  0
LINE
  8
_0-1_LAYER004
  6
CONTINUOUS
 62
   18
 10
1211.2749333333334
 20
1100.8845999999999
 11
1213.7749333333334
 21
1105.2147333333335
  0
LINE
  8
_0-1_LAYER004
  6
CONTINUOUS
 62
   18
 10
1200.8600666666666
 20
1100.29
 11
1200.8600666666666
 21
1166.9566666666667
  0
LINE
  8
_0-1_LAYER004
  6
CONTINUOUS
 62
   18
 10
1202.6754000000001
 20
1180.29
 11
1202.6754000000001
 21
1286.138533333333
  0
LINE
  8
_0-1_LAYER004
  6
CONTINUOUS
 62
   18
 10
1200.8600666666666
 20
1134.248
 11
1264.2740666666666
 21
1134.248
  0
LINE
  8
_0-1_LAYER004
  6
CONTINUOUS
 62
   18
 10
1264.2740666666666
 20
1134.248
 11
1264.2740666666666
 21
1117.5813333333333
  0
LINE
  8
_0-1_LAYER004
  6
CONTINUOUS
 62
   18
 10
1261.6179999999999
 20
1175.0908666666667
 11
1326.6179999999999
 21
1175.0908666666667
  0
LINE
  8
_0-1_LAYER004
  6
CONTINUOUS
 62
   18
 10
1290.6779333333334
 20
1166.9566666666667
 11
1322.8779333333332
 21
1166.9566666666667
  0
LINE
  8
_0-1_LAYER004
  6
CONTINUOUS
 62
   18
 10
1324.0112666666666
 20
1166.9566666666667
 11
1324.0112666666666
 21
1100.29
  0
LINE
  8
_0-1_LAYER004
  6
CONTINUOUS
 62
   18
 10
1290.6779333333334
 20
1100.29
 11
1325.6779333333334
 21
1100.29
  0
LINE
  8
_0-1_LAYER004
  6
CONTINUOUS
 62
   18
 10
1322.8779333333332
 20
1166.9566666666667
 11
1325.1446000000001
 21
1166.9566666666667
  0
LINE
  8
_0-1_LAYER004
  6
CONTINUOUS
 62
   18
 10
1200.8600666666666
 20
1100.29
 11
1264.2740666666666
 21
1100.29
  0
LINE
  8
_0-1_LAYER004
  6
CONTINUOUS
 62
   18
 10
1264.2740666666666
 20
1100.29
 11
1264.2740666666666
 21
1091.8546666666666
  0
LINE
  8
_0-1_LAYER004
  6
CONTINUOUS
 62
   18
 10
1261.6179999999999
 20
1175.0908666666667
 11
1239.7224000000001
 21
1093.3754000000001
  0
LINE
  8
_0-1_LAYER004
  6
CONTINUOUS
 62
   18
 10
1239.7224000000001
 20
1093.3754000000001
 11
1239.7224000000001
 21
1098.0893999999998
  0
LINE
  8
_0-1_LAYER004
  6
CONTINUOUS
 62
   18
 10
1239.7224000000001
 20
1093.3754000000001
 11
1242.2224000000001
 21
1097.7054666666666
  0
LINE
  8
_0-1_LAYER004
  6
CONTINUOUS
 62
   18
 10
1232.6513333333335
 20
1100.29
 11
1232.6513333333335
 21
1081.5902666666666
  0
LINE
  8
_0-1_LAYER004
  6
CONTINUOUS
 62
   18
 10
1250.3685999999998
 20
1081.5902666666666
 11
1250.3685999999998
 21
1100.29
  0
LINE
  8
_0-1_LAYER004
  6
CONTINUOUS
 62
   18
 10
1193.3420666666666
 20
1081.5902666666666
 11
1193.3420666666666
 21
1063.9457333333332
  0
LINE
  8
_0-1_LAYER004
  6
CONTINUOUS
 62
   18
 10
1422.6348666666668
 20
1068.9438666666665
 11
1397.3420666666666
 21
1068.9438666666665
  0
LINE
  8
_0-1_LAYER004
  6
CONTINUOUS
 62
   18
 10
1370.3916666666669
 20
1083.5870666666667
 11
1370.3916666666669
 21
1081.5902666666666
  0
LINE
  8
_0-1_LAYER004
  6
CONTINUOUS
 62
   18
 10
1370.3916666666669
 20
1081.5902666666666
 11
1193.3420666666666
 21
1081.5902666666666
  0
LINE
  8
_0-0_LAYER001
  6
CONTINUOUS
 62
    2
 10
1397.3420666666666
 20
1083.5870666666667
 11
1370.3916666666669
 21
1083.5870666666667
  0
LINE
  8
_0-1_LAYER004
  6
CONTINUOUS
 62
   18
 10
1397.3420666666666
 20
1083.5870666666667
 11
1370.3916666666669
 21
1083.5870666666667
  0
LINE
  8
_0-1_LAYER004
  6
CONTINUOUS
 62
   18
 10
1397.3420666666666
 20
1068.9438666666665
 11
1397.3420666666666
 21
1083.5870666666667
  0
LINE
  8
_0-0_LAYER001
  6
CONTINUOUS
 62
    2
 10
1422.6348666666668
 20
1063.9457333333332
 11
1193.3420666666666
 21
1063.9457333333332
  0
LINE
  8
_0-1_LAYER004
  6
CONTINUOUS
 62
   18
 10
1193.3420666666666
 20
1063.9457333333332
 11
1422.6348666666668
 21
1063.9457333333332
  0
LINE
  8
_0-1_LAYER004
  6
CONTINUOUS
 62
   18
 10
1422.6348666666668
 20
1063.9457333333332
 11
1422.6348666666668
 21
1068.9438666666665
  0
LINE
  8
_0-1_LAYER004
  6
CONTINUOUS
 62
   18
 10
1398.6754000000001
 20
1083.5870666666667
 11
1398.6754000000001
 21
1070.2750666666666
  0
LINE
  8
_0-1_LAYER004
  6
CONTINUOUS
 62
   18
 10
1398.6754000000001
 20
1070.2750666666666
 11
1423.4777333333332
 21
1070.2750666666666
  0
LINE
  8
_0-1_LAYER004
  6
CONTINUOUS
 62
   18
 10
1423.4777333333332
 20
1070.2750666666666
 11
1423.4777333333332
 21
1063.9457333333332
  0
LINE
  8
_0-1_LAYER004
  6
CONTINUOUS
 62
   18
 10
1398.6754000000001
 20
1083.5870666666667
 11
1425.2994000000001
 21
1083.5870666666667
  0
LINE
  8
_0-1_LAYER004
  6
CONTINUOUS
 62
   18
 10
1425.2994000000001
 20
1083.5870666666667
 11
1425.2994000000001
 21
1081.5902666666666
  0
LINE
  8
_0-1_LAYER004
  6
CONTINUOUS
 62
   18
 10
1575.7249999999999
 20
1081.5902666666666
 11
1425.2994000000001
 21
1081.5902666666666
  0
LINE
  8
_0-1_LAYER004
  6
CONTINUOUS
 62
   18
 10
1423.4777333333332
 20
1063.9457333333332
 11
1627.9682
 21
1063.9457333333332
  0
LINE
  8
_0-1_LAYER004
  6
CONTINUOUS
 62
   18
 10
1627.9682
 20
1063.9457333333332
 11
1627.9682
 21
1068.9438666666665
  0
LINE
  8
_0-1_LAYER004
  6
CONTINUOUS
 62
   18
 10
1627.9682
 20
1068.9438666666665
 11
1602.6754000000001
 21
1068.9438666666665
  0
LINE
  8
_0-1_LAYER004
  6
CONTINUOUS
 62
   18
 10
1602.6754000000001
 20
1068.9438666666665
 11
1602.6754000000001
 21
1083.5870666666667
  0
LINE
  8
_0-1_LAYER004
  6
CONTINUOUS
 62
   18
 10
1602.6754000000001
 20
1083.5870666666667
 11
1575.7249999999999
 21
1083.5870666666667
  0
LINE
  8
_0-1_LAYER004
  6
CONTINUOUS
 62
   18
 10
1575.7249999999999
 20
1083.5870666666667
 11
1575.7249999999999
 21
1081.5902666666666
  0
LINE
  8
_0-1_LAYER004
  6
CONTINUOUS
 62
   18
 10
1604.0087333333336
 20
1083.5870666666667
 11
1604.0087333333336
 21
1070.2750666666666
  0
LINE
  8
_0-1_LAYER004
  6
CONTINUOUS
 62
   18
 10
1604.0087333333336
 20
1070.2750666666666
 11
1628.8110666666669
 21
1070.2750666666666
  0
LINE
  8
_0-1_LAYER004
  6
CONTINUOUS
 62
   18
 10
1628.8110666666669
 20
1070.2750666666666
 11
1628.8110666666669
 21
1063.9457333333332
  0
LINE
  8
_0-1_LAYER004
  6
CONTINUOUS
 62
   18
 10
1604.0087333333336
 20
1083.5870666666667
 11
1630.6327333333331
 21
1083.5870666666667
  0
LINE
  8
_0-1_LAYER004
  6
CONTINUOUS
 62
   18
 10
1630.6327333333331
 20
1083.5870666666667
 11
1630.6327333333331
 21
1081.5902666666666
  0
LINE
  8
_0-1_LAYER004
  6
CONTINUOUS
 62
   18
 10
1808.0087333333336
 20
1083.5870666666667
 11
1808.0087333333336
 21
1068.9438666666665
  0
LINE
  8
_0-1_LAYER004
  6
CONTINUOUS
 62
   18
 10
1833.3015333333333
 20
1068.9438666666665
 11
1808.0087333333336
 21
1068.9438666666665
  0
LINE
  8
_0-1_LAYER004
  6
CONTINUOUS
 62
   18
 10
1833.3015333333333
 20
1068.9438666666665
 11
1833.3015333333333
 21
1063.9457333333332
  0
LINE
  8
_0-1_LAYER004
  6
CONTINUOUS
 62
   18
 10
1833.3015333333333
 20
1063.9457333333332
 11
1628.8110666666669
 21
1063.9457333333332
  0
LINE
  8
_0-1_LAYER004
  6
CONTINUOUS
 62
   18
 10
1630.6327333333331
 20
1081.5902666666666
 11
1781.0583333333334
 21
1081.5902666666666
  0
LINE
  8
_0-1_LAYER004
  6
CONTINUOUS
 62
   18
 10
1781.0583333333334
 20
1081.5902666666666
 11
1781.0583333333334
 21
1083.5870666666667
  0
LINE
  8
_0-1_LAYER004
  6
CONTINUOUS
 62
   18
 10
1781.0583333333334
 20
1083.5870666666667
 11
1808.0087333333336
 21
1083.5870666666667
  0
LINE
  8
_0-1_LAYER004
  6
CONTINUOUS
 62
   18
 10
1809.3420666666668
 20
1083.5870666666667
 11
1809.3420666666668
 21
1070.2750666666666
  0
LINE
  8
_0-1_LAYER004
  6
CONTINUOUS
 62
   18
 10
1809.3420666666668
 20
1070.2750666666666
 11
1834.1444000000001
 21
1070.2750666666666
  0
LINE
  8
_0-1_LAYER004
  6
CONTINUOUS
 62
   18
 10
1834.1444000000001
 20
1070.2750666666666
 11
1834.1444000000001
 21
1063.9457333333332
  0
LINE
  8
_0-1_LAYER004
  6
CONTINUOUS
 62
   18
 10
1809.3420666666668
 20
1083.5870666666667
 11
1835.9660666666664
 21
1083.5870666666667
  0
LINE
  8
_0-1_LAYER004
  6
CONTINUOUS
 62
   18
 10
1835.9660666666664
 20
1083.5870666666667
 11
1835.9660666666664
 21
1081.5902666666666
  0
LINE
  8
_0-1_LAYER004
  6
CONTINUOUS
 62
   18
 10
1835.9660666666664
 20
1081.5902666666666
 11
1968.8352
 21
1081.5902666666666
  0
LINE
  8
_0-1_LAYER004
  6
CONTINUOUS
 62
   18
 10
1834.1444000000001
 20
1063.9457333333332
 11
1968.8352
 21
1063.9457333333332
  0
LINE
  8
_0-1_LAYER004
  6
CONTINUOUS
 62
   18
 10
1965.7442000000001
 20
1039.6222666666667
 11
1257.9767333333334
 21
1038.9566666666665
  0
LINE
  8
_0-1_LAYER004
  6
CONTINUOUS
 62
   18
 10
1257.9767333333334
 20
1038.9566666666665
 11
1257.9767333333334
 21
1028.9566666666665
  0
LINE
  8
_0-1_LAYER004
  6
CONTINUOUS
 62
   18
 10
1251.3420666666666
 20
1028.9566666666665
 11
1251.3420666666666
 21
1033.6233333333332
  0
LINE
  8
_0-1_LAYER004
  6
CONTINUOUS
 62
   18
 10
1251.3420666666666
 20
1033.6233333333332
 11
1246.0504000000001
 21
1033.6233333333332
  0
LINE
  8
_0-1_LAYER004
  6
CONTINUOUS
 62
   18
 10
1260.9195999999999
 20
1012.3984
 11
1267.5862666666667
 21
1012.3984
  0
LINE
  8
_0-1_LAYER004
  6
CONTINUOUS
 62
   18
 10
1267.5862666666667
 20
1012.3984
 11
1267.5862666666667
 21
976.38593333333336
  0
LINE
  8
_0-1_LAYER004
  6
CONTINUOUS
 62
   18
 10
1267.5862666666667
 20
976.38593333333336
 11
1281.8330000000001
 21
976.38593333333336
  0
LINE
  8
_0-1_LAYER004
  6
CONTINUOUS
 62
   18
 10
1281.8330000000001
 20
976.38593333333336
 11
1281.8330000000001
 21
969.71926666666661
  0
LINE
  8
_0-1_LAYER004
  6
CONTINUOUS
 62
   18
 10
1281.8330000000001
 20
969.71926666666661
 11
1260.9195999999999
 21
969.71926666666661
  0
LINE
  8
_0-1_LAYER004
  6
CONTINUOUS
 62
   18
 10
1260.9195999999999
 20
969.71926666666661
 11
1260.9195999999999
 21
1012.3984
  0
LINE
  8
_0-1_LAYER004
  6
CONTINUOUS
 62
   18
 10
1268.5367333333334
 20
973.22393333333343
 11
1269.4757779142799
 21
969.71926666666661
  0
LINE
  8
_0-1_LAYER004
  6
CONTINUOUS
 62
   18
 10
1269.4757779142799
 20
969.71926666666661
 11
1269.8308
 21
968.39426666666668
  0
LINE
  8
_0-1_LAYER004
  6
CONTINUOUS
 62
   18
 10
1269.8308
 20
968.39426666666668
 11
1268.5367333333334
 21
973.22393333333343
  0
LINE
  8
_0-1_LAYER004
  6
CONTINUOUS
 62
   18
 10
1268.5367333333334
 20
973.22393333333343
 11
1272.0722666666668
 21
969.6884
  0
LINE
  8
_0-1_LAYER004
  6
CONTINUOUS
 62
   18
 10
1251.3420666666666
 20
970.46266666666668
 11
1251.3420666666666
 21
952.66266666666661
  0
LINE
  8
_0-1_LAYER004
  6
CONTINUOUS
 62
   18
 10
1251.3420666666666
 20
953.79599999999994
 11
1191.3420666666666
 21
953.79599999999994
  0
LINE
  8
_0-1_LAYER004
  6
CONTINUOUS
 62
   18
 10
1191.3420666666666
 20
952.66266666666661
 11
1191.3420666666666
 21
970.46266666666668
  0
LINE
  8
_0-1_LAYER004
  6
CONTINUOUS
 62
   18
 10
1189.3420666666666
 20
900.28999999999996
 11
1968.8352
 21
900.28999999999996
  0
LINE
  8
_0-1_LAYER004
  6
CONTINUOUS
 62
   18
 10
1535.0494666666666
 20
1033.7146
 11
1535.0494666666666
 21
1028.9566666666665
  0
LINE
  8
_0-1_LAYER004
  6
CONTINUOUS
 62
   18
 10
1535.0494666666666
 20
1033.7146
 11
1537.5494666666666
 21
1029.3845333333334
  0
LINE
  8
_0-1_LAYER004
  6
CONTINUOUS
 62
   18
 10
1535.0494666666666
 20
1033.7146
 11
1593.9589333333333
 21
813.8614
  0
LINE
  8
_0-1_LAYER004
  6
CONTINUOUS
 62
   18
 10
1593.9589333333333
 20
813.8614
 11
1762.7361999999998
 21
813.8614
  0
LINE
  8
_0-1_LAYER004
  6
CONTINUOUS
 62
   18
 10
1762.7361999999998
 20
813.8614
 11
1593.9589333333333
 21
813.8614
  0
LINE
  8
_0-1_LAYER004
  6
CONTINUOUS
 62
   18
 10
1588.1498666666666
 20
833.92500000000018
 11
1751.3961333333332
 21
833.92500000000018
  0
LINE
  8
_0-1_LAYER004
  6
CONTINUOUS
 62
   18
 10
1583.2273333333333
 20
853.91226666666671
 11
1719.7757999999999
 21
853.91226666666671
  0
LINE
  8
_0-1_LAYER004
  6
CONTINUOUS
 62
   18
 10
1358.8457333333336
 20
1004.2618666666667
 11
1357.5516666666667
 21
1009.0915333333334
  0
LINE
  8
_0-1_LAYER004
  6
CONTINUOUS
 62
   18
 10
1357.5516666666667
 20
1009.0915333333334
 11
1361.0871999999999
 21
1005.556
  0
LINE
  8
_0-1_LAYER004
  6
CONTINUOUS
 62
   18
 10
1357.5516666666667
 20
1009.0915333333334
 11
1382.5267333333331
 21
965.83339999999998
  0
LINE
  8
_0-1_LAYER004
  6
CONTINUOUS
 62
   18
 10
1382.5267333333331
 20
965.83339999999998
 11
1429.60372718023
 21
965.83339999999998
  0
LINE
  8
_0-1_LAYER004
  6
CONTINUOUS
 62
   18
 10
1369.3979999999999
 20
1000.29
 11
1269.3980000000001
 21
900.28999999999996
  0
LINE
  8
_0-1_LAYER004
  6
CONTINUOUS
 62
   18
 10
1259.9699333333333
 20
900.28999999999996
 11
1359.9699333333333
 21
1000.29
  0
LINE
  8
_0-1_LAYER004
  6
CONTINUOUS
 62
   18
 10
1350.5418666666665
 20
1000.29
 11
1250.5418666666667
 21
900.28999999999996
  0
LINE
  8
_0-1_LAYER004
  6
CONTINUOUS
 62
   18
 10
1576.816
 20
1000.29
 11
1476.816
 21
900.28999999999996
  0
LINE
  8
_0-1_LAYER004
  6
CONTINUOUS
 62
   18
 10
1567.3879333333334
 20
1000.29
 11
1467.3879333333334
 21
900.28999999999996
  0
LINE
  8
_0-1_LAYER004
  6
CONTINUOUS
 62
   18
 10
1457.9598666666666
 20
900.28999999999996
 11
1557.9598666666666
 21
1000.29
  0
LINE
  8
_0-1_LAYER004
  6
CONTINUOUS
 62
   18
 10
1968.8352
 20
1038.9566666666665
 11
1257.9767333333334
 21
1038.9566666666665
  0
LINE
  8
_0-1_LAYER004
  6
CONTINUOUS
 62
   18
 10
1765.3778
 20
1000.29
 11
1665.3778
 21
900.28999999999996
  0
LINE
  8
_0-1_LAYER004
  6
CONTINUOUS
 62
   18
 10
1665.3778
 20
900.28999999999996
 11
1674.8059333333333
 21
900.28999999999996
  0
LINE
  8
_0-1_LAYER004
  6
CONTINUOUS
 62
   18
 10
1674.8059333333333
 20
900.28999999999996
 11
1774.8059333333333
 21
1000.29
  0
LINE
  8
_0-1_LAYER004
  6
CONTINUOUS
 62
   18
 10
1774.8059333333333
 20
1000.29
 11
1784.2340000000002
 21
1000.29
  0
LINE
  8
_0-1_LAYER004
  6
CONTINUOUS
 62
   18
 10
1784.2340000000002
 20
1000.29
 11
1684.2340000000002
 21
900.28999999999996
  0
LINE
  8
_0-1_LAYER004
  6
CONTINUOUS
 62
   18
 10
1968.8352
 20
996.32939999999985
 11
1872.7957999999999
 21
900.28999999999996
  0
LINE
  8
_0-1_LAYER004
  6
CONTINUOUS
 62
   18
 10
1882.2239333333334
 20
900.28999999999996
 11
1968.8352
 21
986.90126666666652
  0
LINE
  8
_0-1_LAYER004
  6
CONTINUOUS
 62
   18
 10
1968.8352
 20
977.47320000000002
 11
1891.652
 21
900.28999999999996
  0
TEXT
  8
_0-0_LAYER001
 62
    7
 10
1077.3062261518637
 20
1026.0040633786521
 40
15
 41
1
 50
90
  1
水切り鉄板立上がり寸法
  0
TEXT
  8
_0-0_LAYER001
 62
    7
 10
1014.5452579498717
 20
1013.8567792105246
 40
15
 41
1
 50
90
  1
下葺き材立上がり寸法
  0
TEXT
  8
_0-0_LAYER001
 62
    7
 10
893.07241626859707
 20
936.92397947905067
 40
15
 41
1
 50
0
  1
捨谷カラー鋼板０．３５ｍｍ以上
  0
TEXT
  8
_0-1_LAYER004
 62
    7
 10
1387.061972439114
 20
970.32901094140118
 40
15
 41
1
 50
0
  1
溶接金網
  0
TEXT
  8
_0-0_LAYER001
 62
    7
 10
1586.47988753254
 20
858.97890606689941
 40
15
 41
1
 50
0
  1
　瓦桟：１５ｘ３０以上
  0
TEXT
  8
_0-0_LAYER001
 62
    7
 10
1599.6394453813446
 20
816.46341147845317
 40
15
 41
1
 50
0
  1
　パーライト系モルタルｔ＝４０
  0
TEXT
  8
_0-0_LAYER001
 62
    7
 10
1206.8772572785565
 20
1204.1642311778548
 40
15
 41
1
 50
0
  1
登り水切カラー鋼板０．３５ｍｍ以上
  0
LINE
  8
_0-1_LAYER004
  6
CONTINUOUS
 62
    2
 10
1268.5367333333334
 20
973.22393333333343
 11
1297.6766096028514
 21
922.75214794956855
  0
LINE
  8
_0-1_LAYER004
  6
CONTINUOUS
 62
   18
 10
1268.5367333333334
 20
973.22393333333343
 11
1297.6766096028514
 21
922.75214794956855
  0
LINE
  8
_0-0_LAYER001
  6
CONTINUOUS
 62
    7
 10
1297.6766096028514
 20
922.75214794956855
 11
1363.7796777835365
 21
922.75214794956855
  0
TEXT
  8
_0-1_LAYER004
 62
    7
 10
1309.1168990269628
 20
925.78896899160043
 40
15
 41
1
 50
0
  1
アンカー
  0
TEXT
  8
_0-0_LAYER001
 62
    7
 10
1053.428863887905
 20
1088.6420655803881
 40
20
 41
1
 50
90
  1
200
  0
TEXT
  8
_0-0_LAYER001
 62
    7
 10
1112.4327816177954
 20
1058.5834659821421
 40
20
 41
1
 50
90
  1
150
  0
TEXT
  8
_0-0_LAYER001
 62
    7
 10
1321.7296973389159
 20
1117.5873837120325
 40
20
 41
1
 50
90
  1
100
  0
TEXT
  8
_0-0_LAYER001
 62
    7
 10
1205.9484248123385
 20
1136.5131686442614
 40
20
 41
1
 50
0
  1
９５
  0
LINE
  8
_0-0_LAYER001
  6
CONTINUOUS
 62
    7
 10
1090.0420666666669
 20
1261.5771333333332
 11
1071.236975710666
 21
1261.5771333333332
  0
LINE
  8
_0-0_LAYER001
  6
CONTINUOUS
 62
    7
 10
1019.8332
 20
933.42506666666668
 11
885.02253489470775
 21
933.42506666666668
  0
LINE
  8
_0-0_LAYER001
  6
CONTINUOUS
 62
    7
 10
1719.7757999999999
 20
853.91226666666671
 11
1794.4921155506131
 21
853.91226666666671
  0
LINE
  8
_0-0_LAYER001
  6
CONTINUOUS
 62
    7
 10
1751.3961333333332
 20
833.92500000000018
 11
1855.6194907858114
 21
833.92500000000018
  0
LINE
  8
_0-0_LAYER001
  6
CONTINUOUS
 62
    7
 10
1762.7361999999998
 20
813.8614
 11
1855.6194907858114
 21
813.8614
  0
LINE
  8
_0-0_LAYER001
  6
CONTINUOUS
 62
    7
 10
1326.6179999999999
 20
1175.0908666666667
 11
1365.1789220382898
 21
1175.0908666666667
  0
LINE
  8
_0-0_LAYER001
  6
CONTINUOUS
 62
    7
 10
1393.4193333333333
 20
1198.4569333333334
 11
1511.6742528897055
 21
1198.4569333333334
  0
CIRCLE
  8
_0-0_LAYER001
  6
CONTINUOUS
 62
    2
 10
1193.3420666666666
 20
1269.9595384491013
 40
1.1333333333333331
  0
LINE
  8
_0-0_LAYER001
  6
CONTINUOUS
 62
    2
 10
1193.3420666666666
 20
1269.9595384491013
 11
1398.6754000000001
 21
1269.9595384491013
  0
CIRCLE
  8
_0-0_LAYER001
  6
CONTINUOUS
 62
    2
 10
1398.6754000000001
 20
1269.9595384491013
 40
1.1333333333333331
  0
CIRCLE
  8
_0-0_LAYER001
  6
CONTINUOUS
 62
    2
 10
1398.6754000000001
 20
1269.9595384491013
 40
1.1333333333333331
  0
LINE
  8
_0-0_LAYER001
  6
CONTINUOUS
 62
    2
 10
1398.6754000000001
 20
1269.9595384491013
 11
1604.0087333333336
 21
1269.9595384491013
  0
CIRCLE
  8
_0-0_LAYER001
  6
CONTINUOUS
 62
    2
 10
1604.0087333333336
 20
1269.9595384491013
 40
1.1333333333333331
  0
CIRCLE
  8
_0-0_LAYER001
  6
CONTINUOUS
 62
    2
 10
1604.0087333333336
 20
1269.9595384491013
 40
1.1333333333333331
  0
LINE
  8
_0-0_LAYER001
  6
CONTINUOUS
 62
    2
 10
1604.0087333333336
 20
1269.9595384491013
 11
1809.3420666666668
 21
1269.9595384491013
  0
CIRCLE
  8
_0-0_LAYER001
  6
CONTINUOUS
 62
    2
 10
1809.3420666666668
 20
1269.9595384491013
 40
1.1333333333333331
  0
LINE
  8
_0-1_LAYER004
  6
CONTINUOUS
 62
   18
 10
1193.3420666666666
 20
1269.9595384491013
 11
1809.3420666666668
 21
1269.9595384491013
  0
LINE
  8
_0-0_LAYER001
  6
CONTINUOUS
 62
    2
 10
1809.3420666666668
 20
1271.6262051157678
 11
1809.3420666666668
 21
1236.6262051157678
  0
LINE
  8
_0-0_LAYER001
  6
CONTINUOUS
 62
    2
 10
1604.0087333333336
 20
1271.6262051157678
 11
1604.0087333333336
 21
1236.6262051157678
  0
LINE
  8
_0-0_LAYER001
  6
CONTINUOUS
 62
    2
 10
1398.6754000000001
 20
1271.6262051157678
 11
1398.6754000000001
 21
1236.6262051157678
  0
LINE
  8
_0-0_LAYER001
  6
CONTINUOUS
 62
    2
 10
1193.3420666666666
 20
1271.6262051157678
 11
1193.3420666666666
 21
1236.6262051157678
  0
LINE
  8
_0-1_LAYER004
  6
CONTINUOUS
 62
   18
 10
1809.3420666666668
 20
1272.8630599401006
 11
1809.3420666666668
 21
1237.8630599401006
  0
LINE
  8
_0-1_LAYER004
  6
CONTINUOUS
 62
   18
 10
1604.0087333333336
 20
1237.8630599401006
 11
1604.0087333333336
 21
1272.3297266067671
  0
LINE
  8
_0-1_LAYER004
  6
CONTINUOUS
 62
   18
 10
1398.6754000000001
 20
1237.8630599401006
 11
1398.6754000000001
 21
1272.8630599401006
  0
LINE
  8
_0-1_LAYER004
  6
CONTINUOUS
 62
   18
 10
1193.3420666666666
 20
1237.8630599401006
 11
1193.3420666666666
 21
1272.3297266067671
  0
LINE
  8
_0-0_LAYER001
  6
CONTINUOUS
 62
    7
 10
1429.60372718023
 20
965.83339999999998
 11
1457.902783829124
 21
965.83339999999998
  0
LINE
  8
_0-0_LAYER001
  6
CONTINUOUS
 62
    7
 10
1363.7796777835365
 20
922.75214794956855
 11
1372.7372261455469
 21
922.75214794956855
  0
TEXT
  8
_0-0_LAYER001
 62
    7
 10
1071.3821758805827
 20
1267.8811062036712
 40
15
 41
1
 50
0
  1
シ-リング
  0
TEXT
  8
_0-0_LAYER001
 62
    7
 10
1263.0046806686305
 20
1177.8021509614266
 40
15
 41
1
 50
0
  1
弾性シール材
  0
TEXT
  8
_0-0_LAYER001
 62
    7
 10
1214.3354288407252
 20
957.58082770922624
 40
20
 41
1
 50
0
  1
90
  0
TEXT
  8
_0-0_LAYER001
 62
    7
 10
1297.0549392537202
 20
1238.106325573382
 40
20
 41
1
 50
0
  1
308
  0
TEXT
  8
_0-0_LAYER001
 62
    7
 10
1479.5781567198019
 20
1235.4482204646526
 40
20
 41
1
 50
0
  1
308
  0
TEXT
  8
_0-0_LAYER001
 62
    7
 10
1694.8846705268788
 20
1239.8783956458683
 40
20
 41
1
 50
0
  1
308
  0
TEXT
  8
_0-0_LAYER001
 62
    7
 10
1589.5167085745718
 20
834.68433773064453
 40
15
 41
1
 50
0
  1
　下葺材：ルーフィング
  0
ENDSEC
  0
EOF
