  0
SECTION
  2
HEADER
  9
$ACADVER
  1
AC1009
  9
$INSBASE
 10
0
 20
0
 30
0
  9
$EXTMIN
 10
0
 20
0
  9
$EXTMAX
 10
2970
 20
2100
  9
$LIMMIN
 10
0
 20
0
  9
$LIMMAX
 10
2970
 20
2100
  9
$LTSCALE
 40
10
  0
ENDSEC
  0
SECTION
  2
TABLES
  0
TABLE
  2
LTYPE
 70
     9
  0
LTYPE
  2
CONTINUOUS
 70
    64
  3
実線
 72
    65
 73
     0
 40
0.0
  0
LTYPE
  2
DASHED1
 70
    64
  3
--  --  --  --  --  --  --  --  
 72
    65
 73
     2
 40
2.5
 49
1.25
 49
-1.25
  0
LTYPE
  2
DASHED2
 70
    64
  3
----    ----    ----    ----    
 72
    65
 73
     2
 40
5.0
 49
2.5
 49
-2.5
  0
LTYPE
  2
DASHED3
 70
    64
  3
------  ------  ------  ------  
 72
    65
 73
     2
 40
5.0
 49
3.75
 49
-1.25
  0
LTYPE
  2
CENTER1
 70
    64
  3
----- - ----- - ----- - ----- - 
 72
    65
 73
     4
 40
10.0
 49
6.25
 49
-1.25
 49
1.25
 49
-1.25
  0
LTYPE
  2
CENTER2
 70
    64
  3
----------  --  ----------  --  
 72
    65
 73
     4
 40
20.0
 49
12.5
 49
-2.5
 49
2.5
 49
-2.5
  0
LTYPE
  2
PHANTOM1
 70
    64
  3
--- - - --- - - --- - - --- - - 
 72
    65
 73
     6
 40
10.0
 49
3.25
 49
-1.25
 49
1.25
 49
-1.25
 49
1.25
 49
-1.25
  0
LTYPE
  2
PHANTOM2
 70
    64
  3
--------  -  -  --------  -  -  
 72
    65
 73
     6
 40
20.0
 49
10.0
 49
-2.5
 49
1.25
 49
-2.5
 49
1.25
 49
-2.5
  0
LTYPE
  2
DOT
 70
    64
  3
-   -   -   -   -   -   -   -   
 72
    65
 73
     2
 40
2.5
 49
0.625
 49
-1.875
  0
LTYPE
  2
DUMMY
 70
    64
  3
ダミー
 72
    65
 73
     0
 40
0.0
  0
LTYPE
  2
RAND1
 70
    64
  3
ランダム線1
 72
    65
 73
     4
 40
10.0
 49
1.0
 49
-2.0
 49
3.0
 49
-4.0
  0
LTYPE
  2
RAND2
 70
    64
  3
ランダム線2
 72
    65
 73
     4
 40
14.0
 49
2.0
 49
-3.0
 49
4.0
 49
-5.0
  0
LTYPE
  2
RAND3
 70
    64
  3
ランダム線3
 72
    65
 73
     4
 40
18.0
 49
3.0
 49
-4.0
 49
5.0
 49
-6.0
  0
LTYPE
  2
RAND4
 70
    64
  3
ランダム線4
 72
    65
 73
     4
 40
22.0
 49
4.0
 49
-5.0
 49
6.0
 49
-7.0
  0
LTYPE
  2
RAND5
 70
    64
  3
ランダム線5
 72
    65
 73
     4
 40
26.0
 49
5.0
 49
-6.0
 49
7.0
 49
-8.0
  0
LTYPE
  2
LONG1
 70
    64
  3
----------  --  ----------  --  
 72
    65
 73
     4
 40
40.0
 49
32.5
 49
-2.5
 49
2.5
 49
-2.5
  0
LTYPE
  2
LONG2
 70
    64
  3
--------  -  -  --------  -  -  
 72
    65
 73
     6
 40
40.0
 49
30.0
 49
-2.5
 49
1.25
 49
-2.5
 49
1.25
 49
-2.5
  0
LTYPE
  2
LONG3
 70
    64
  3
+++++++++++++++..+++++++++++++++
 72
    65
 73
     2
 40
40.0
 49
37.5
 49
-2.5
  0
LTYPE
  2
LONG4
 70
    64
  3
+++++++++++++++..+++++++++++++++
 72
    65
 73
     2
 40
80.0
 49
75.0
 49
-5.0
  0
LTYPE
  2
LONG5
 70
    64
  3
----------  --  ----------  --  
 72
    65
 73
     4
 40
60.0
 49
37.5
 49
-7.5
 49
7.5
 49
-7.5
  0
LTYPE
  2
dashed
 70
   64
  3
-------   -------------   ------
 72
   65
 73
    2
 40
7.5
 49
6
 49
-1.5
  0
LTYPE
  2
dashed_spaced
 70
   64
  3
----        --------        ----
 72
   65
 73
    2
 40
12
 49
6
 49
-6
  0
LTYPE
  2
long_dashed_dotted
 70
   64
  3
------------- --- --------------
 72
   65
 73
    4
 40
15.25
 49
12
 49
-1.5
 49
0.25
 49
-1.5
  0
LTYPE
  2
long_dashed_double-dotted
 70
   64
  3
----------- --- --- ------------
 72
   65
 73
    6
 40
17
 49
12
 49
-1.5
 49
0.25
 49
-1.5
 49
0.25
 49
-1.5
  0
LTYPE
  2
long_dashed_triplicate-dotted
 70
   64
  3
--------- --- --- --- ----------
 72
   65
 73
    8
 40
18.75
 49
12
 49
-1.5
 49
0.25
 49
-1.5
 49
0.25
 49
-1.5
 49
0.25
 49
-1.5
  0
LTYPE
  2
dotted
 70
   64
  3
   -       -       -       -    
 72
   65
 73
    2
 40
1.75
 49
0.25
 49
-1.5
  0
LTYPE
  2
chain
 70
   64
  3
-------------- -- --------------
 72
   65
 73
    4
 40
18.5
 49
12
 49
-1.5
 49
3.5
 49
-1.5
  0
LTYPE
  2
chain_double_dash
 70
   64
  3
------------ -- -- -------------
 72
   65
 73
    6
 40
23.5
 49
12
 49
-1.5
 49
3.5
 49
-1.5
 49
3.5
 49
-1.5
  0
LTYPE
  2
dashed_dotted
 70
   64
  3
-----------     -     ----------
 72
   65
 73
    4
 40
9.25
 49
6
 49
-1.5
 49
0.25
 49
-1.5
  0
LTYPE
  2
double-dashed_dotted
 70
   64
  3
------   -----------   -   -----
 72
   65
 73
    6
 40
16.75
 49
6
 49
-1.5
 49
6
 49
-1.5
 49
0.25
 49
-1.5
  0
LTYPE
  2
dashed_double-dotted
 70
   64
  3
---------    -    -    ---------
 72
   65
 73
    6
 40
11
 49
6
 49
-1.5
 49
0.25
 49
-1.5
 49
0.25
 49
-1.5
  0
LTYPE
  2
double-dashed_double-dotted
 70
   64
  3
-----   ---------   -   -   ----
 72
   65
 73
    8
 40
18.5
 49
6
 49
-1.5
 49
6
 49
-1.5
 49
0.25
 49
-1.5
 49
0.25
 49
-1.5
  0
LTYPE
  2
dashed_triplicate-dotted
 70
   64
  3
-------    -    -    -    ------
 72
   65
 73
    8
 40
12.75
 49
6
 49
-1.5
 49
0.25
 49
-1.5
 49
0.25
 49
-1.5
 49
0.25
 49
-1.5
  0
LTYPE
  2
double-dashed_triplicate-dotted
 70
   64
  3
-----  ---------  -  -  -  -----
 72
   65
 73
   10
 40
20.25
 49
6
 49
-1.5
 49
6
 49
-1.5
 49
0.25
 49
-1.5
 49
0.25
 49
-1.5
 49
0.25
 49
-1.5
  0
LTYPE
  2
undefined
 70
   64
  3
--------------------------------
 72
   65
 73
    0
 40
0
  0
ENDTAB
  0
TABLE
  2
STYLE
  5
3
100
AcDbSymbolTable
 70
     1
  0
STYLE
  5
10
100
AcDbSymbolTableRecord
100
AcDbTextStyleTableRecord
  2
STANDARD
 70
     0
 40
0.0
 41
1.0
 50
0.0
 71
     0
 42
0.2
  3
txt
  4
bigfont.shx
  0
STYLE
  5
26
100
AcDbSymbolTableRecord
100
AcDbTextStyleTableRecord
  2
TATEGAKI
 70
    68
 40
0.0
 41
1.0
 50
0.0
 71
     0
 42
1.0
  3
txt
  4
bigfont.shx
  0
ENDTAB
  0
TABLE
  2
LAYER
 70
    3
  0
LAYER
  2
_0-0_LAYER001
 70
   64
 62
    7
  6
CONTINUOUS
  0
LAYER
  2
_0-1_ADD_LINE
 70
   64
 62
    7
  6
CONTINUOUS
  0
LAYER
  2
ADD_LINE
 70
   64
 62
    7
  6
CONTINUOUS
  0
ENDTAB
  0
ENDSEC
  0
SECTION
  2
BLOCKS
  0
ENDSEC
  0
SECTION
  2
ENTITIES
  0
LINE
  8
_0-0_LAYER001
  6
CONTINUOUS
 62
    4
 10
1211.8077000000001
 20
1044.0485000000001
 11
1218.2992488255566
 21
1030.5209062531335
  0
LINE
  8
_0-0_LAYER001
  6
CONTINUOUS
 62
    2
 10
1485
 20
1148.2065
 11
2345.8213999999998
 21
760.83660000000009
  0
LINE
  8
_0-0_LAYER001
  6
CONTINUOUS
 62
    2
 10
1485
 20
1148.2065
 11
627.6715999999999
 21
762.4085
  0
LINE
  8
_0-0_LAYER001
  6
CONTINUOUS
 62
    2
 10
1485
 20
1069.2523000000001
 11
2319.9812999999999
 21
693.51039999999989
  0
LINE
  8
_0-0_LAYER001
  6
CONTINUOUS
 62
    2
 10
1485
 20
1069.2523000000001
 11
657.2179000000001
 21
696.75009999999997
  0
LINE
  8
_0-0_LAYER001
  6
CONTINUOUS
 62
    2
 10
1485
 20
1135.0474999999999
 11
2341.5147999999999
 21
749.61550000000011
  0
LINE
  8
_0-0_LAYER001
  6
CONTINUOUS
 62
    2
 10
1485
 20
1135.0474999999999
 11
632.596
 21
751.46540000000005
  0
LINE
  8
_0-0_LAYER001
  6
CONTINUOUS
 62
    2
 10
1485
 20
1148.2065
 11
1485
 21
1069.2523000000001
  0
LINE
  8
_0-0_LAYER001
  6
CONTINUOUS
 62
    2
 10
1546.3977
 20
1041.6233
 11
1546.3977
 21
926.46129999999994
  0
LINE
  8
_0-0_LAYER001
  6
CONTINUOUS
 62
    2
 10
1546.3977
 20
926.46129999999994
 11
1426.3977
 21
926.46129999999994
  0
LINE
  8
_0-0_LAYER001
  6
CONTINUOUS
 62
    2
 10
1426.3977
 20
926.46129999999994
 11
1426.3977
 21
1042.8813
  0
LINE
  8
_0-0_LAYER001
  6
CONTINUOUS
 62
    2
 10
1546.3977
 20
1041.6233
 11
1426.3977
 21
926.46129999999994
  0
LINE
  8
_0-0_LAYER001
  6
CONTINUOUS
 62
    2
 10
1546.3977
 20
926.46129999999994
 11
1426.3977
 21
1042.8813
  0
LINE
  8
_0-0_LAYER001
  6
CONTINUOUS
 62
    2
 10
1890.5695000000001
 20
1018.1024
 11
1885.2662
 21
1012.7991
  0
LINE
  8
_0-0_LAYER001
  6
CONTINUOUS
 62
    2
 10
1885.2662
 20
1012.7991
 11
1887.2073999999998
 21
1020.0435
  0
LINE
  8
_0-0_LAYER001
  6
CONTINUOUS
 62
    2
 10
1885.2662
 20
1012.7991
 11
1946.8402000000001
 21
1119.4484
  0
LINE
  8
_0-0_LAYER001
  6
CONTINUOUS
 62
    2
 10
1946.8402000000001
 20
1119.4484
 11
1987.3402000000001
 21
1119.4484
  0
LINE
  8
_0-0_LAYER001
  6
CONTINUOUS
 62
    2
 10
1455.3238000000001
 20
1055.8979999999999
 11
1516.1921000000002
 21
1055.8979999999999
  0
LINE
  8
_0-0_LAYER001
  6
DASHED3
 62
    2
 10
627.05610000000001
 20
763.77629999999999
 11
1485
 21
1149.8514
  0
LINE
  8
_0-0_LAYER001
  6
DASHED3
 62
    2
 10
2346.3595999999998
 20
762.23880000000008
 11
1485
 21
1149.8514
  0
LINE
  8
_0-0_LAYER001
  6
CONTINUOUS
 62
    4
 10
742.8261
 20
816.55749999999989
 11
715.46019999999999
 21
804.24279999999999
  0
LINE
  8
_0-0_LAYER001
  6
CONTINUOUS
 62
    4
 10
980.56269999999995
 20
923.53919999999994
 11
953.19679999999994
 21
911.22460000000001
  0
LINE
  8
_0-0_LAYER001
  6
CONTINUOUS
 62
    4
 10
1378.9226000000003
 20
1236.1572000000001
 11
1406.2603999999999
 21
1158.5691999999999
  0
LINE
  8
_0-0_LAYER001
  6
CONTINUOUS
 62
    4
 10
968.94920000000002
 20
958.32349999999997
 11
969.94609999999989
 21
955.49399999999991
  0
LINE
  8
_0-0_LAYER001
  6
CONTINUOUS
 62
    4
 10
968.94920000000002
 20
958.32349999999997
 11
977.43769999999995
 21
961.31439999999998
  0
LINE
  8
_0-0_LAYER001
  6
CONTINUOUS
 62
    4
 10
902.7007000000001
 20
1023.5636
 11
930.03850000000011
 21
945.97569999999996
  0
LINE
  8
_0-0_LAYER001
  6
CONTINUOUS
 62
    4
 10
930.03850000000011
 20
945.97569999999996
 11
1213.9317000000001
 21
1046.0039999999999
  0
LINE
  8
_0-0_LAYER001
  6
CONTINUOUS
 62
    4
 10
921.38319999999999
 20
974.12290000000007
 11
1159.8493000000001
 21
1076.1216999999999
  0
LINE
  8
_0-0_LAYER001
  6
CONTINUOUS
 62
    4
 10
1213.9317000000001
 20
1046.0039999999999
 11
1217.9195
 21
1034.6859999999999
  0
LINE
  8
_0-0_LAYER001
  6
CONTINUOUS
 62
    4
 10
1217.9195
 20
1034.6859999999999
 11
1226.4079999999999
 21
1037.6768
  0
LINE
  8
_0-0_LAYER001
  6
CONTINUOUS
 62
    4
 10
1206.9529
 20
1065.8105
 11
1207.9498000000001
 21
1062.981
  0
LINE
  8
_0-0_LAYER001
  6
CONTINUOUS
 62
    4
 10
924.05670000000009
 20
962.95270000000005
 11
1207.9498000000001
 21
1062.981
  0
LINE
  8
_0-0_LAYER001
  6
CONTINUOUS
 62
    4
 10
902.71060000000011
 20
1023.9659999999999
 11
1147.799
 21
1110.3217
  0
LINE
  8
_0-0_LAYER001
  6
CONTINUOUS
 62
    4
 10
1206.9529
 20
1065.8105
 11
1215.4413
 21
1068.8014000000001
  0
LINE
  8
_0-0_LAYER001
  6
CONTINUOUS
 62
    4
 10
1215.4413
 20
1068.8014000000001
 11
1226.4079999999999
 21
1037.6768
  0
LINE
  8
_0-0_LAYER001
  6
CONTINUOUS
 62
    4
 10
1141.0099
 20
1130.0224000000001
 11
1168.3476000000001
 21
1052.4344000000001
  0
LINE
  8
_0-0_LAYER001
  6
CONTINUOUS
 62
    4
 10
1168.3476000000001
 20
1052.4344000000001
 11
1452.2408
 21
1152.4628
  0
LINE
  8
_0-0_LAYER001
  6
CONTINUOUS
 62
    4
 10
1159.6922999999999
 20
1080.5816
 11
1398.1584
 21
1182.5805
  0
LINE
  8
_0-0_LAYER001
  6
CONTINUOUS
 62
    4
 10
1452.2408
 20
1152.4628
 11
1456.2285999999999
 21
1141.1448
  0
LINE
  8
_0-0_LAYER001
  6
CONTINUOUS
 62
    4
 10
1456.2285999999999
 20
1141.1448
 11
1464.7170999999998
 21
1144.1357
  0
LINE
  8
_0-0_LAYER001
  6
CONTINUOUS
 62
    4
 10
1445.2620000000002
 20
1172.2692999999999
 11
1446.2588999999998
 21
1169.4396999999999
  0
LINE
  8
_0-0_LAYER001
  6
CONTINUOUS
 62
    4
 10
1162.3658
 20
1069.4114
 11
1446.2588999999998
 21
1169.4396999999999
  0
LINE
  8
_0-0_LAYER001
  6
CONTINUOUS
 62
    4
 10
1141.0196000000001
 20
1130.4247
 11
1386.1081999999999
 21
1216.7804000000001
  0
LINE
  8
_0-0_LAYER001
  6
CONTINUOUS
 62
    4
 10
1445.2620000000002
 20
1172.2692999999999
 11
1453.7505999999998
 21
1175.2601
  0
LINE
  8
_0-0_LAYER001
  6
CONTINUOUS
 62
    4
 10
1453.7505999999998
 20
1175.2601
 11
1464.7170999999998
 21
1144.1357
  0
LINE
  8
_0-0_LAYER001
  6
CONTINUOUS
 62
    4
 10
583.00649999999996
 20
777.36590000000001
 11
738.40609999999992
 21
832.12020000000007
  0
LINE
  8
_0-0_LAYER001
  6
CONTINUOUS
 62
    4
 10
571.33940000000007
 20
813.91120000000001
 11
684.32369999999992
 21
862.23780000000011
  0
LINE
  8
_0-0_LAYER001
  6
CONTINUOUS
 62
    4
 10
738.40609999999992
 20
832.12020000000007
 11
742.39400000000001
 21
820.80220000000008
  0
LINE
  8
_0-0_LAYER001
  6
CONTINUOUS
 62
    4
 10
742.39400000000001
 20
820.80220000000008
 11
750.88249999999994
 21
823.79299999999989
  0
LINE
  8
_0-0_LAYER001
  6
CONTINUOUS
 62
    4
 10
731.42740000000003
 20
851.92669999999998
 11
732.42440000000011
 21
849.09719999999993
  0
LINE
  8
_0-0_LAYER001
  6
CONTINUOUS
 62
    4
 10
577.52980000000002
 20
794.52080000000001
 11
732.42440000000011
 21
849.09719999999993
  0
LINE
  8
_0-0_LAYER001
  6
CONTINUOUS
 62
    4
 10
557.86249999999995
 20
856.12570000000005
 11
672.27350000000001
 21
896.43779999999992
  0
LINE
  8
_0-0_LAYER001
  6
CONTINUOUS
 62
    4
 10
731.42740000000003
 20
851.92669999999998
 11
739.91589999999997
 21
854.91750000000002
  0
LINE
  8
_0-0_LAYER001
  6
CONTINUOUS
 62
    4
 10
739.91589999999997
 20
854.91750000000002
 11
750.88249999999994
 21
823.79299999999989
  0
LINE
  8
_0-0_LAYER001
  6
CONTINUOUS
 62
    4
 10
664.69699999999989
 20
916.07670000000007
 11
692.03469999999993
 21
838.48870000000011
  0
LINE
  8
_0-0_LAYER001
  6
CONTINUOUS
 62
    4
 10
692.03469999999993
 20
838.48870000000011
 11
975.92789999999991
 21
938.51700000000005
  0
LINE
  8
_0-0_LAYER001
  6
CONTINUOUS
 62
    4
 10
683.37940000000003
 20
866.63599999999997
 11
921.8454999999999
 21
968.63470000000007
  0
LINE
  8
_0-0_LAYER001
  6
CONTINUOUS
 62
    4
 10
975.92789999999991
 20
938.51700000000005
 11
979.91570000000002
 21
927.19900000000007
  0
LINE
  8
_0-0_LAYER001
  6
CONTINUOUS
 62
    4
 10
979.91570000000002
 20
927.19900000000007
 11
988.40419999999995
 21
930.18990000000008
  0
LINE
  8
_0-0_LAYER001
  6
CONTINUOUS
 62
    4
 10
686.05300000000011
 20
855.46569999999997
 11
969.94609999999989
 21
955.49399999999991
  0
LINE
  8
_0-0_LAYER001
  6
CONTINUOUS
 62
    4
 10
664.70679999999993
 20
916.47900000000004
 11
909.7953
 21
1002.8347000000001
  0
LINE
  8
_0-0_LAYER001
  6
CONTINUOUS
 62
    4
 10
977.43769999999995
 20
961.31439999999998
 11
988.40419999999995
 21
930.18990000000008
  0
LINE
  8
_0-0_LAYER001
  6
CONTINUOUS
 62
    4
 10
1449.5443
 20
1151.0301999999999
 11
1422.1784
 21
1138.7156
  0
LINE
  8
_0-0_LAYER001
  6
CONTINUOUS
 62
    4
 10
1211.8077000000001
 20
1044.0485000000001
 11
1184.4418000000001
 21
1031.7338
  0
LINE
  8
_0-0_LAYER001
  6
CONTINUOUS
 62
    4
 10
946.7052000000001
 20
924.75209999999993
 11
953.19679999999994
 21
911.22460000000001
  0
LINE
  8
_0-0_LAYER001
  6
CONTINUOUS
 62
    4
 10
736.33439999999996
 20
830.08500000000004
 11
742.8261
 21
816.55749999999989
  0
LINE
  8
_0-0_LAYER001
  6
CONTINUOUS
 62
    4
 10
708.96849999999995
 20
817.77040000000011
 11
715.46019999999999
 21
804.24279999999999
  0
LINE
  8
_0-0_LAYER001
  6
CONTINUOUS
 62
    4
 10
736.33439999999996
 20
830.08500000000004
 11
708.96849999999995
 21
817.77040000000011
  0
LINE
  8
_0-0_LAYER001
  6
CONTINUOUS
 62
    4
 10
1449.5443
 20
1151.0301999999999
 11
1455.5446999999999
 21
1138.5264
  0
LINE
  8
_0-0_LAYER001
  6
CONTINUOUS
 62
    4
 10
1422.1784
 20
1138.7156
 11
1428.0925999999999
 21
1126.3910000000001
  0
LINE
  8
_0-0_LAYER001
  6
CONTINUOUS
 62
    4
 10
1184.4418000000001
 20
1031.7338
 11
1190.9333999999999
 21
1018.2062000000001
  0
LINE
  8
_0-0_LAYER001
  6
CONTINUOUS
 62
    4
 10
1218.5639000000001
 20
1030.6400000000001
 11
1190.9333999999999
 21
1018.2062000000001
  0
LINE
  8
_0-0_LAYER001
  6
CONTINUOUS
 62
    4
 10
974.07109999999989
 20
937.06680000000006
 11
946.7052000000001
 21
924.75209999999993
  0
LINE
  8
_0-0_LAYER001
  6
CONTINUOUS
 62
    4
 10
974.07109999999989
 20
937.06680000000006
 11
980.56269999999995
 21
923.53919999999994
  0
LINE
  8
_0-0_LAYER001
  6
CONTINUOUS
 62
    4
 10
1406.2603999999999
 20
1158.5691999999999
 11
1485
 21
1186.3126999999999
  0
LINE
  8
_0-0_LAYER001
  6
CONTINUOUS
 62
    4
 10
1400.2786000000001
 20
1175.5463
 11
1485
 21
1205.3974000000001
  0
LINE
  8
_0-0_LAYER001
  6
CONTINUOUS
 62
    4
 10
1397.6051000000002
 20
1186.7165
 11
1485
 21
1224.0978
  0
LINE
  8
_0-0_LAYER001
  6
CONTINUOUS
 62
    4
 10
1378.9323999999999
 20
1236.5596
 11
1485
 21
1273.9319
  0
LINE
  8
_0-0_LAYER001
  6
CONTINUOUS
 62
    4
 10
1455.5446999999999
 20
1138.5264
 11
1428.0925999999999
 21
1126.3910000000001
  0
LINE
  8
_0-0_LAYER001
  6
DASHED1
 62
    1
 10
1427.3434
 20
1169.4833000000001
 11
1442.6916999999999
 21
1174.0033000000001
  0
LINE
  8
_0-0_LAYER001
  6
DASHED1
 62
    1
 10
1442.6916999999999
 20
1174.0033000000001
 11
1443.5392000000002
 21
1171.1255000000001
  0
LINE
  8
_0-0_LAYER001
  6
DASHED1
 62
    1
 10
1427.3434
 20
1169.4833000000001
 11
1428.1909000000001
 21
1166.6054999999999
  0
LINE
  8
_0-0_LAYER001
  6
DASHED1
 62
    1
 10
1428.1909000000001
 20
1166.6054999999999
 11
1443.5392000000002
 21
1171.1255000000001
  0
LINE
  8
_0-0_LAYER001
  6
DASHED1
 62
    1
 10
1453.5927000000001
 20
1107.4005
 11
1445.3690000000001
 21
1125.9747
  0
LINE
  8
_0-0_LAYER001
  6
DASHED1
 62
    1
 10
1432.9872999999998
 20
1168.0179000000001
 11
1445.3690000000001
 21
1125.9747
  0
LINE
  8
_0-0_LAYER001
  6
DASHED1
 62
    1
 10
1453.7854000000002
 20
1106.7460000000001
 11
1452.1170999999999
 21
1124.2992999999999
  0
LINE
  8
_0-0_LAYER001
  6
DASHED1
 62
    1
 10
1438.7429000000002
 20
1169.713
 11
1452.1170999999999
 21
1124.2992999999999
  0
LINE
  8
_0-0_LAYER001
  6
DASHED1
 62
    1
 10
1185.3289
 20
1063.3223
 11
1200.6772000000001
 21
1067.8424
  0
LINE
  8
_0-0_LAYER001
  6
DASHED1
 62
    1
 10
1200.6772000000001
 20
1067.8424
 11
1201.5246999999999
 21
1064.9645
  0
LINE
  8
_0-0_LAYER001
  6
DASHED1
 62
    1
 10
1185.3289
 20
1063.3223
 11
1186.1764000000001
 21
1060.4445000000001
  0
LINE
  8
_0-0_LAYER001
  6
DASHED1
 62
    1
 10
1186.1764000000001
 20
1060.4445000000001
 11
1201.5246999999999
 21
1064.9645
  0
LINE
  8
_0-0_LAYER001
  6
DASHED1
 62
    1
 10
1211.5780999999999
 20
1001.2394999999999
 11
1203.3544999999999
 21
1019.8136999999999
  0
LINE
  8
_0-0_LAYER001
  6
DASHED1
 62
    1
 10
1190.9728
 20
1061.857
 11
1203.3544999999999
 21
1019.8136999999999
  0
LINE
  8
_0-0_LAYER001
  6
DASHED1
 62
    1
 10
1211.7709
 20
1000.585
 11
1210.1025999999999
 21
1018.1383000000001
  0
LINE
  8
_0-0_LAYER001
  6
DASHED1
 62
    1
 10
1196.7284
 20
1063.5521000000001
 11
1210.1025999999999
 21
1018.1383000000001
  0
LINE
  8
_0-0_LAYER001
  6
DASHED1
 62
    1
 10
945.74530000000004
 20
958.0933
 11
961.09349999999995
 21
962.61329999999998
  0
LINE
  8
_0-0_LAYER001
  6
DASHED1
 62
    1
 10
961.09349999999995
 20
962.61329999999998
 11
961.94100000000003
 21
959.7355
  0
LINE
  8
_0-0_LAYER001
  6
DASHED1
 62
    1
 10
945.74530000000004
 20
958.0933
 11
946.5927999999999
 21
955.21550000000002
  0
LINE
  8
_0-0_LAYER001
  6
DASHED1
 62
    1
 10
946.5927999999999
 20
955.21550000000002
 11
961.94100000000003
 21
959.7355
  0
LINE
  8
_0-0_LAYER001
  6
DASHED1
 62
    1
 10
971.99450000000002
 20
896.01050000000009
 11
963.77080000000001
 21
914.58470000000011
  0
LINE
  8
_0-0_LAYER001
  6
DASHED1
 62
    1
 10
951.3891000000001
 20
956.62799999999993
 11
963.77080000000001
 21
914.58470000000011
  0
LINE
  8
_0-0_LAYER001
  6
DASHED1
 62
    1
 10
972.18730000000005
 20
895.35599999999999
 11
970.51900000000001
 21
912.90930000000003
  0
LINE
  8
_0-0_LAYER001
  6
DASHED1
 62
    1
 10
957.14470000000006
 20
958.32300000000009
 11
970.51900000000001
 21
912.90930000000003
  0
LINE
  8
_0-0_LAYER001
  6
DASHED1
 62
    1
 10
710.02109999999993
 20
846.82979999999998
 11
725.36930000000007
 21
851.34989999999993
  0
LINE
  8
_0-0_LAYER001
  6
DASHED1
 62
    1
 10
725.36930000000007
 20
851.34989999999993
 11
726.21679999999992
 21
848.47209999999995
  0
LINE
  8
_0-0_LAYER001
  6
DASHED1
 62
    1
 10
710.02109999999993
 20
846.82979999999998
 11
710.86860000000001
 21
843.952
  0
LINE
  8
_0-0_LAYER001
  6
DASHED1
 62
    1
 10
710.86860000000001
 20
843.952
 11
726.21679999999992
 21
848.47209999999995
  0
LINE
  8
_0-0_LAYER001
  6
DASHED1
 62
    1
 10
736.27029999999991
 20
784.74700000000007
 11
728.0465999999999
 21
803.32120000000009
  0
LINE
  8
_0-0_LAYER001
  6
DASHED1
 62
    1
 10
715.66489999999999
 20
845.36449999999991
 11
728.0465999999999
 21
803.32120000000009
  0
LINE
  8
_0-0_LAYER001
  6
DASHED1
 62
    1
 10
736.46309999999994
 20
784.09249999999997
 11
734.7947999999999
 21
801.64580000000001
  0
LINE
  8
_0-0_LAYER001
  6
DASHED1
 62
    1
 10
721.42049999999995
 20
847.05950000000007
 11
734.7947999999999
 21
801.64580000000001
  0
LINE
  8
_0-0_LAYER001
  6
CONTINUOUS
 62
    4
 10
2227.1738
 20
816.55749999999989
 11
2254.5396999999998
 21
804.24279999999999
  0
LINE
  8
_0-0_LAYER001
  6
CONTINUOUS
 62
    4
 10
1989.4371999999998
 20
923.53919999999994
 11
2016.8031000000001
 21
911.22460000000001
  0
LINE
  8
_0-0_LAYER001
  6
CONTINUOUS
 62
    4
 10
1591.0772999999999
 20
1236.1572000000001
 11
1563.7395000000001
 21
1158.5691999999999
  0
LINE
  8
_0-0_LAYER001
  6
CONTINUOUS
 62
    4
 10
2001.0508
 20
958.32349999999997
 11
2000.0538000000001
 21
955.49399999999991
  0
LINE
  8
_0-0_LAYER001
  6
CONTINUOUS
 62
    4
 10
2001.0508
 20
958.32349999999997
 11
1992.5623000000001
 21
961.31439999999998
  0
LINE
  8
_0-0_LAYER001
  6
CONTINUOUS
 62
    4
 10
2067.2991999999999
 20
1023.5636
 11
2039.9614000000001
 21
945.97569999999996
  0
LINE
  8
_0-0_LAYER001
  6
CONTINUOUS
 62
    4
 10
2039.9614000000001
 20
945.97569999999996
 11
1756.0682000000002
 21
1046.0039999999999
  0
LINE
  8
_0-0_LAYER001
  6
CONTINUOUS
 62
    4
 10
2048.6167
 20
974.12290000000007
 11
1810.1505999999999
 21
1076.1216999999999
  0
LINE
  8
_0-0_LAYER001
  6
CONTINUOUS
 62
    4
 10
1756.0682000000002
 20
1046.0039999999999
 11
1752.0803999999998
 21
1034.6859999999999
  0
LINE
  8
_0-0_LAYER001
  6
CONTINUOUS
 62
    4
 10
1752.0803999999998
 20
1034.6859999999999
 11
1743.5918999999999
 21
1037.6768
  0
LINE
  8
_0-0_LAYER001
  6
CONTINUOUS
 62
    4
 10
1763.047
 20
1065.8105
 11
1762.0500999999999
 21
1062.981
  0
LINE
  8
_0-0_LAYER001
  6
CONTINUOUS
 62
    4
 10
2045.9432000000002
 20
962.95270000000005
 11
1762.0500999999999
 21
1062.981
  0
LINE
  8
_0-0_LAYER001
  6
CONTINUOUS
 62
    4
 10
2067.2892999999999
 20
1023.9659999999999
 11
1822.2008999999998
 21
1110.3217
  0
LINE
  8
_0-0_LAYER001
  6
CONTINUOUS
 62
    4
 10
1763.047
 20
1065.8105
 11
1754.5585999999998
 21
1068.8014000000001
  0
LINE
  8
_0-0_LAYER001
  6
CONTINUOUS
 62
    4
 10
1754.5585999999998
 20
1068.8014000000001
 11
1743.5918999999999
 21
1037.6768
  0
LINE
  8
_0-0_LAYER001
  6
CONTINUOUS
 62
    4
 10
1828.9899999999998
 20
1130.0224000000001
 11
1801.6523000000002
 21
1052.4344000000001
  0
LINE
  8
_0-0_LAYER001
  6
CONTINUOUS
 62
    4
 10
1801.6523000000002
 20
1052.4344000000001
 11
1517.7591000000002
 21
1152.4628
  0
LINE
  8
_0-0_LAYER001
  6
CONTINUOUS
 62
    4
 10
1810.3076000000001
 20
1080.5816
 11
1571.8415
 21
1182.5805
  0
LINE
  8
_0-0_LAYER001
  6
CONTINUOUS
 62
    4
 10
1517.7591000000002
 20
1152.4628
 11
1513.7712999999999
 21
1141.1448
  0
LINE
  8
_0-0_LAYER001
  6
CONTINUOUS
 62
    4
 10
1513.7712999999999
 20
1141.1448
 11
1505.2828
 21
1144.1357
  0
LINE
  8
_0-0_LAYER001
  6
CONTINUOUS
 62
    4
 10
1524.7379000000001
 20
1172.2692999999999
 11
1523.741
 21
1169.4396999999999
  0
LINE
  8
_0-0_LAYER001
  6
CONTINUOUS
 62
    4
 10
1807.6341000000002
 20
1069.4114
 11
1523.741
 21
1169.4396999999999
  0
LINE
  8
_0-0_LAYER001
  6
CONTINUOUS
 62
    4
 10
1828.9803000000002
 20
1130.4247
 11
1583.8917000000001
 21
1216.7804000000001
  0
LINE
  8
_0-0_LAYER001
  6
CONTINUOUS
 62
    4
 10
1524.7379000000001
 20
1172.2692999999999
 11
1516.2492999999999
 21
1175.2601
  0
LINE
  8
_0-0_LAYER001
  6
CONTINUOUS
 62
    4
 10
1516.2492999999999
 20
1175.2601
 11
1505.2828
 21
1144.1357
  0
LINE
  8
_0-0_LAYER001
  6
CONTINUOUS
 62
    4
 10
2386.9933999999998
 20
777.36590000000001
 11
2231.5938000000001
 21
832.12020000000007
  0
LINE
  8
_0-0_LAYER001
  6
CONTINUOUS
 62
    4
 10
2398.6605
 20
813.91120000000001
 11
2285.6761999999999
 21
862.23780000000011
  0
LINE
  8
_0-0_LAYER001
  6
CONTINUOUS
 62
    4
 10
2231.5938000000001
 20
832.12020000000007
 11
2227.6059
 21
820.80220000000008
  0
LINE
  8
_0-0_LAYER001
  6
CONTINUOUS
 62
    4
 10
2227.6059
 20
820.80220000000008
 11
2219.1174000000001
 21
823.79299999999989
  0
LINE
  8
_0-0_LAYER001
  6
CONTINUOUS
 62
    4
 10
2238.5725000000002
 20
851.92669999999998
 11
2237.5754999999999
 21
849.09719999999993
  0
LINE
  8
_0-0_LAYER001
  6
CONTINUOUS
 62
    4
 10
2392.4701
 20
794.52080000000001
 11
2237.5754999999999
 21
849.09719999999993
  0
LINE
  8
_0-0_LAYER001
  6
CONTINUOUS
 62
    4
 10
2412.1374000000001
 20
856.12570000000005
 11
2297.7264
 21
896.43779999999992
  0
LINE
  8
_0-0_LAYER001
  6
CONTINUOUS
 62
    4
 10
2238.5725000000002
 20
851.92669999999998
 11
2230.0839999999998
 21
854.91750000000002
  0
LINE
  8
_0-0_LAYER001
  6
CONTINUOUS
 62
    4
 10
2230.0839999999998
 20
854.91750000000002
 11
2219.1174000000001
 21
823.79299999999989
  0
LINE
  8
_0-0_LAYER001
  6
CONTINUOUS
 62
    4
 10
2305.3029000000001
 20
916.07670000000007
 11
2277.9652000000001
 21
838.48870000000011
  0
LINE
  8
_0-0_LAYER001
  6
CONTINUOUS
 62
    4
 10
2277.9652000000001
 20
838.48870000000011
 11
1994.0720000000001
 21
938.51700000000005
  0
LINE
  8
_0-0_LAYER001
  6
CONTINUOUS
 62
    4
 10
2286.6205
 20
866.63599999999997
 11
2048.1543999999999
 21
968.63470000000007
  0
LINE
  8
_0-0_LAYER001
  6
CONTINUOUS
 62
    4
 10
1994.0720000000001
 20
938.51700000000005
 11
1990.0841999999998
 21
927.19900000000007
  0
LINE
  8
_0-0_LAYER001
  6
CONTINUOUS
 62
    4
 10
1990.0841999999998
 20
927.19900000000007
 11
1981.5956999999999
 21
930.18990000000008
  0
LINE
  8
_0-0_LAYER001
  6
CONTINUOUS
 62
    4
 10
2283.9468999999999
 20
855.46569999999997
 11
2000.0538000000001
 21
955.49399999999991
  0
LINE
  8
_0-0_LAYER001
  6
CONTINUOUS
 62
    4
 10
2305.2930999999999
 20
916.47900000000004
 11
2060.2046
 21
1002.8347000000001
  0
LINE
  8
_0-0_LAYER001
  6
CONTINUOUS
 62
    4
 10
1992.5623000000001
 20
961.31439999999998
 11
1981.5956999999999
 21
930.18990000000008
  0
LINE
  8
_0-0_LAYER001
  6
CONTINUOUS
 62
    4
 10
1520.4555999999998
 20
1151.0301999999999
 11
1547.8215
 21
1138.7156
  0
LINE
  8
_0-0_LAYER001
  6
CONTINUOUS
 62
    4
 10
1758.1922
 20
1044.0485000000001
 11
1785.5581000000002
 21
1031.7338
  0
LINE
  8
_0-0_LAYER001
  6
CONTINUOUS
 62
    4
 10
2023.2946999999999
 20
924.75209999999993
 11
2016.8031000000001
 21
911.22460000000001
  0
LINE
  8
_0-0_LAYER001
  6
CONTINUOUS
 62
    4
 10
2233.6655000000001
 20
830.08500000000004
 11
2227.1738
 21
816.55749999999989
  0
LINE
  8
_0-0_LAYER001
  6
CONTINUOUS
 62
    4
 10
2261.0313999999998
 20
817.77040000000011
 11
2254.5396999999998
 21
804.24279999999999
  0
LINE
  8
_0-0_LAYER001
  6
CONTINUOUS
 62
    4
 10
2233.6655000000001
 20
830.08500000000004
 11
2261.0313999999998
 21
817.77040000000011
  0
LINE
  8
_0-0_LAYER001
  6
CONTINUOUS
 62
    4
 10
1520.4555999999998
 20
1151.0301999999999
 11
1514.4551999999999
 21
1138.5264
  0
LINE
  8
_0-0_LAYER001
  6
CONTINUOUS
 62
    4
 10
1547.8215
 20
1138.7156
 11
1541.9072999999999
 21
1126.3910000000001
  0
LINE
  8
_0-0_LAYER001
  6
CONTINUOUS
 62
    4
 10
1785.5581000000002
 20
1031.7338
 11
1779.0664999999999
 21
1018.2062000000001
  0
LINE
  8
_0-0_LAYER001
  6
CONTINUOUS
 62
    4
 10
1995.9288000000001
 20
937.06680000000006
 11
2023.2946999999999
 21
924.75209999999993
  0
LINE
  8
_0-0_LAYER001
  6
CONTINUOUS
 62
    4
 10
1995.9288000000001
 20
937.06680000000006
 11
1989.4371999999998
 21
923.53919999999994
  0
LINE
  8
_0-0_LAYER001
  6
CONTINUOUS
 62
    4
 10
1563.7395000000001
 20
1158.5691999999999
 11
1485
 21
1186.3126999999999
  0
LINE
  8
_0-0_LAYER001
  6
CONTINUOUS
 62
    4
 10
1569.7213000000002
 20
1175.5463
 11
1485
 21
1205.3974000000001
  0
LINE
  8
_0-0_LAYER001
  6
CONTINUOUS
 62
    4
 10
1572.3948
 20
1186.7165
 11
1485
 21
1224.0978
  0
LINE
  8
_0-0_LAYER001
  6
CONTINUOUS
 62
    4
 10
1591.0675000000001
 20
1236.5596
 11
1485
 21
1273.9319
  0
LINE
  8
_0-0_LAYER001
  6
CONTINUOUS
 62
    4
 10
1514.4551999999999
 20
1138.5264
 11
1541.9072999999999
 21
1126.3910000000001
  0
LINE
  8
_0-0_LAYER001
  6
DASHED1
 62
    1
 10
1542.6565000000001
 20
1169.4833000000001
 11
1527.3081999999999
 21
1174.0033000000001
  0
LINE
  8
_0-0_LAYER001
  6
DASHED1
 62
    1
 10
1527.3081999999999
 20
1174.0033000000001
 11
1526.4607000000001
 21
1171.1255000000001
  0
LINE
  8
_0-0_LAYER001
  6
DASHED1
 62
    1
 10
1542.6565000000001
 20
1169.4833000000001
 11
1541.8090000000002
 21
1166.6054999999999
  0
LINE
  8
_0-0_LAYER001
  6
DASHED1
 62
    1
 10
1541.8090000000002
 20
1166.6054999999999
 11
1526.4607000000001
 21
1171.1255000000001
  0
LINE
  8
_0-0_LAYER001
  6
DASHED1
 62
    1
 10
1516.4072000000001
 20
1107.4005
 11
1524.6309000000001
 21
1125.9747
  0
LINE
  8
_0-0_LAYER001
  6
DASHED1
 62
    1
 10
1537.0126
 20
1168.0179000000001
 11
1524.6309000000001
 21
1125.9747
  0
LINE
  8
_0-0_LAYER001
  6
DASHED1
 62
    1
 10
1516.2145
 20
1106.7460000000001
 11
1517.8827999999999
 21
1124.2992999999999
  0
LINE
  8
_0-0_LAYER001
  6
DASHED1
 62
    1
 10
1531.2570000000001
 20
1169.713
 11
1517.8827999999999
 21
1124.2992999999999
  0
LINE
  8
_0-0_LAYER001
  6
DASHED1
 62
    1
 10
1784.6709999999998
 20
1063.3223
 11
1769.3227000000002
 21
1067.8424
  0
LINE
  8
_0-0_LAYER001
  6
DASHED1
 62
    1
 10
1769.3227000000002
 20
1067.8424
 11
1768.4751999999999
 21
1064.9645
  0
LINE
  8
_0-0_LAYER001
  6
DASHED1
 62
    1
 10
1784.6709999999998
 20
1063.3223
 11
1783.8235
 21
1060.4445000000001
  0
LINE
  8
_0-0_LAYER001
  6
DASHED1
 62
    1
 10
1783.8235
 20
1060.4445000000001
 11
1768.4751999999999
 21
1064.9645
  0
LINE
  8
_0-0_LAYER001
  6
DASHED1
 62
    1
 10
1758.4218000000001
 20
1001.2394999999999
 11
1766.6453999999999
 21
1019.8136999999999
  0
LINE
  8
_0-0_LAYER001
  6
DASHED1
 62
    1
 10
1779.0270999999998
 20
1061.857
 11
1766.6453999999999
 21
1019.8136999999999
  0
LINE
  8
_0-0_LAYER001
  6
DASHED1
 62
    1
 10
1758.2289999999998
 20
1000.585
 11
1759.8973000000001
 21
1018.1383000000001
  0
LINE
  8
_0-0_LAYER001
  6
DASHED1
 62
    1
 10
1773.2714999999998
 20
1063.5521000000001
 11
1759.8973000000001
 21
1018.1383000000001
  0
LINE
  8
_0-0_LAYER001
  6
DASHED1
 62
    1
 10
2024.2546000000002
 20
958.0933
 11
2008.9063999999998
 21
962.61329999999998
  0
LINE
  8
_0-0_LAYER001
  6
DASHED1
 62
    1
 10
2008.9063999999998
 20
962.61329999999998
 11
2008.0589
 21
959.7355
  0
LINE
  8
_0-0_LAYER001
  6
DASHED1
 62
    1
 10
2024.2546000000002
 20
958.0933
 11
2023.4070999999999
 21
955.21550000000002
  0
LINE
  8
_0-0_LAYER001
  6
DASHED1
 62
    1
 10
2023.4070999999999
 20
955.21550000000002
 11
2008.0589
 21
959.7355
  0
LINE
  8
_0-0_LAYER001
  6
DASHED1
 62
    1
 10
1998.0054
 20
896.01050000000009
 11
2006.2291
 21
914.58470000000011
  0
LINE
  8
_0-0_LAYER001
  6
DASHED1
 62
    1
 10
2018.6107999999999
 20
956.62799999999993
 11
2006.2291
 21
914.58470000000011
  0
LINE
  8
_0-0_LAYER001
  6
DASHED1
 62
    1
 10
1997.8126000000002
 20
895.35599999999999
 11
1999.4809
 21
912.90930000000003
  0
LINE
  8
_0-0_LAYER001
  6
DASHED1
 62
    1
 10
2012.8552
 20
958.32300000000009
 11
1999.4809
 21
912.90930000000003
  0
LINE
  8
_0-0_LAYER001
  6
DASHED1
 62
    1
 10
2259.9787999999999
 20
846.82979999999998
 11
2244.6306
 21
851.34989999999993
  0
LINE
  8
_0-0_LAYER001
  6
DASHED1
 62
    1
 10
2244.6306
 20
851.34989999999993
 11
2243.7831000000001
 21
848.47209999999995
  0
LINE
  8
_0-0_LAYER001
  6
DASHED1
 62
    1
 10
2259.9787999999999
 20
846.82979999999998
 11
2259.1313
 21
843.952
  0
LINE
  8
_0-0_LAYER001
  6
DASHED1
 62
    1
 10
2259.1313
 20
843.952
 11
2243.7831000000001
 21
848.47209999999995
  0
LINE
  8
_0-0_LAYER001
  6
DASHED1
 62
    1
 10
2233.7296000000001
 20
784.74700000000007
 11
2241.9533000000001
 21
803.32120000000009
  0
LINE
  8
_0-0_LAYER001
  6
DASHED1
 62
    1
 10
2254.335
 20
845.36449999999991
 11
2241.9533000000001
 21
803.32120000000009
  0
LINE
  8
_0-0_LAYER001
  6
DASHED1
 62
    1
 10
2233.5367999999999
 20
784.09249999999997
 11
2235.2051000000001
 21
801.64580000000001
  0
LINE
  8
_0-0_LAYER001
  6
DASHED1
 62
    1
 10
2248.5794000000001
 20
847.05950000000007
 11
2235.2051000000001
 21
801.64580000000001
  0
LINE
  8
_0-0_LAYER001
  6
CONTINUOUS
 62
    2
 10
1449.5443
 20
1151.0301999999999
 11
1428.0925999999999
 21
1126.3910000000001
  0
LINE
  8
_0-0_LAYER001
  6
CONTINUOUS
 62
    2
 10
1514.4551999999999
 20
1138.5264
 11
1547.8215
 21
1138.7156
  0
LINE
  8
_0-0_LAYER001
  6
CONTINUOUS
 62
    2
 10
1211.8077000000001
 20
1044.0485000000001
 11
1190.9333999999999
 21
1018.2062000000001
  0
LINE
  8
_0-0_LAYER001
  6
CONTINUOUS
 62
    2
 10
974.07109999999989
 20
937.06680000000006
 11
953.19679999999994
 21
911.22460000000001
  0
LINE
  8
_0-0_LAYER001
  6
CONTINUOUS
 62
    2
 10
736.33439999999996
 20
830.08500000000004
 11
715.46019999999999
 21
804.24279999999999
  0
LINE
  8
_0-0_LAYER001
  6
CONTINUOUS
 62
    2
 10
2023.2946999999999
 20
924.75209999999993
 11
1989.4371999999998
 21
923.53919999999994
  0
LINE
  8
_0-0_LAYER001
  6
CONTINUOUS
 62
    2
 10
2261.0313999999998
 20
817.77040000000011
 11
2227.1738
 21
816.55749999999989
  0
LINE
  8
_0-0_LAYER001
  6
CONTINUOUS
 62
    1
 10
1481.3101000000001
 20
1149.2874999999999
 11
1449.1291999999999
 21
1134.8061
  0
LINE
  8
_0-0_LAYER001
  6
CONTINUOUS
 62
    1
 10
1487.7692999999999
 20
1149.7018
 11
1520.3044
 21
1135.0608999999999
  0
ARC
  8
_0-0_LAYER001
  6
CONTINUOUS
 62
    4
 10
1485.1916999999999
 20
1213.9237000000001
 40
135.21229
 50
4.5960760000000001
 51
175.43228999999997
  0
LINE
  8
_0-0_LAYER001
  6
CONTINUOUS
 62
    4
 10
1392.3670999999999
 20
1242.7999
 11
1350.4087999999999
 21
1224.6916000000001
  0
ARC
  8
_0-0_LAYER001
  6
CONTINUOUS
 62
    4
 10
1485.1916999999999
 20
1213.9237000000001
 40
115.21229
 50
10.237284000000001
 51
170.02013000000002
  0
LINE
  8
_0-0_LAYER001
  6
CONTINUOUS
 62
    4
 10
1577.6979999999999
 20
1243.8036
 11
1619.9692
 21
1224.7583
  0
ARC
  8
_0-0_LAYER001
  6
CONTINUOUS
 62
    4
 10
1485.1916999999999
 20
1213.9237000000001
 40
97.212295999999995
 50
17.900656000000001
 51
162.71990000000002
  0
LINE
  8
_0-0_LAYER001
  6
CONTINUOUS
 62
    1
 10
1469.5590999999999
 20
1309.9321
 11
1469.5590999999999
 21
1279.9321
  0
LINE
  8
_0-0_LAYER001
  6
CONTINUOUS
 62
    1
 10
1469.5590999999999
 20
1309.9321
 11
1499.5590999999999
 21
1309.9321
  0
LINE
  8
_0-0_LAYER001
  6
CONTINUOUS
 62
    1
 10
1469.5590999999999
 20
1279.9321
 11
1499.5590999999999
 21
1279.9321
  0
LINE
  8
_0-0_LAYER001
  6
CONTINUOUS
 62
    1
 10
1499.5590999999999
 20
1309.9321
 11
1499.5590999999999
 21
1279.9321
  0
LINE
  8
_0-0_LAYER001
  6
CONTINUOUS
 62
    1
 10
1469.8092000000001
 20
1309.8123000000001
 11
1499.2532999999999
 21
1280.3683000000001
  0
LINE
  8
_0-0_LAYER001
  6
CONTINUOUS
 62
    1
 10
1469.6909999999998
 20
1280.6048000000001
 11
1499.3715000000002
 21
1309.8123000000001
  0
LINE
  8
_0-0_LAYER001
  6
CONTINUOUS
 62
    1
 10
1467.5590999999999
 20
1309.9321
 11
1467.5590999999999
 21
1277.9321
  0
LINE
  8
_0-0_LAYER001
  6
CONTINUOUS
 62
    1
 10
1467.5590999999999
 20
1309.9321
 11
1467.5590999999999
 21
1277.9321
  0
LINE
  8
_0-0_LAYER001
  6
CONTINUOUS
 62
    1
 10
1467.5590999999999
 20
1277.9321
 11
1501.5590999999999
 21
1277.9321
  0
LINE
  8
_0-0_LAYER001
  6
CONTINUOUS
 62
    1
 10
1501.5590999999999
 20
1309.9321
 11
1501.5590999999999
 21
1277.9321
  0
LINE
  8
_0-0_LAYER001
  6
DASHED1
 62
    1
 10
1476.3694
 20
1332.5601000000001
 11
1492.3694
 21
1332.5601000000001
  0
LINE
  8
_0-0_LAYER001
  6
DASHED1
 62
    1
 10
1492.3694
 20
1332.5601000000001
 11
1492.3694
 21
1329.5600999999999
  0
LINE
  8
_0-0_LAYER001
  6
DASHED1
 62
    1
 10
1476.3694
 20
1332.5601000000001
 11
1476.3694
 21
1329.5600999999999
  0
LINE
  8
_0-0_LAYER001
  6
DASHED1
 62
    1
 10
1476.3694
 20
1329.5600999999999
 11
1492.3694
 21
1329.5600999999999
  0
LINE
  8
_0-0_LAYER001
  6
DASHED1
 62
    1
 10
1484.23
 20
1285.2478000000001
 11
1481.3694
 21
1298.1203
  0
LINE
  8
_0-0_LAYER001
  6
DASHED1
 62
    1
 10
1481.3694
 20
1329.5600999999999
 11
1481.3694
 21
1298.1203
  0
LINE
  8
_0-0_LAYER001
  6
DASHED1
 62
    1
 10
1484.23
 20
1284.5796999999998
 11
1487.3694
 21
1298.1839
  0
LINE
  8
_0-0_LAYER001
  6
DASHED1
 62
    1
 10
1487.3694
 20
1329.5600999999999
 11
1487.3694
 21
1298.1839
  0
LINE
  8
_0-0_LAYER001
  6
CONTINUOUS
 62
    1
 10
1486.5590999999999
 20
1277.9321
 11
1486.5590999999999
 21
1149.1496999999999
  0
LINE
  8
_0-0_LAYER001
  6
CONTINUOUS
 62
    1
 10
1482.5590999999999
 20
1277.9321
 11
1482.5590999999999
 21
1148.7529999999999
  0
LINE
  8
_0-0_LAYER001
  6
CONTINUOUS
 62
    1
 10
1481.3101000000001
 20
1149.2874999999999
 11
1481.7314999999999
 21
1191.8498
  0
LINE
  8
_0-0_LAYER001
  6
CONTINUOUS
 62
    1
 10
1487.3519000000001
 20
1191.8498
 11
1487.7692999999999
 21
1149.7018
  0
LINE
  8
_0-0_LAYER001
  6
CONTINUOUS
 62
    2
 10
1532.7788
 20
1335.1968999999999
 11
1527.4755
 21
1329.8936000000001
  0
LINE
  8
_0-0_LAYER001
  6
CONTINUOUS
 62
    2
 10
1527.4755
 20
1329.8936000000001
 11
1529.4166
 21
1337.1379999999999
  0
LINE
  8
_0-0_LAYER001
  6
CONTINUOUS
 62
    2
 10
1527.4755
 20
1329.8936000000001
 11
1576.3631
 21
1414.5694000000001
  0
LINE
  8
_0-0_LAYER001
  6
CONTINUOUS
 62
    2
 10
1576.3631
 20
1414.5694000000001
 11
1616.8631
 21
1414.5694000000001
  0
LINE
  8
_0-0_LAYER001
  6
CONTINUOUS
 62
    2
 10
1489.7413999999999
 20
1198.8353999999999
 11
1484.4380999999998
 21
1193.5320999999999
  0
LINE
  8
_0-0_LAYER001
  6
CONTINUOUS
 62
    2
 10
1484.4380999999998
 20
1193.5320999999999
 11
1486.3793000000001
 21
1200.7765999999999
  0
LINE
  8
_0-0_LAYER001
  6
CONTINUOUS
 62
    2
 10
1484.4380999999998
 20
1193.5320999999999
 11
1585.0549000000001
 21
1367.8054
  0
LINE
  8
_0-0_LAYER001
  6
CONTINUOUS
 62
    2
 10
1585.0549000000001
 20
1367.8054
 11
1682.7024999999999
 21
1367.8054
  0
LINE
  8
_0-0_LAYER001
  6
CONTINUOUS
 62
    2
 10
613.70849999999996
 20
1060.1993
 11
631.1552999999999
 21
1010.6831
  0
CIRCLE
  8
_0-0_LAYER001
  6
CONTINUOUS
 62
    2
 10
614.53929999999991
 20
1057.8414
 40
1.6999999999999997
  0
LINE
  8
_0-0_LAYER001
  6
CONTINUOUS
 62
    2
 10
614.53929999999991
 20
1057.8414
 11
859.76260000000002
 21
1144.2446
  0
CIRCLE
  8
_0-0_LAYER001
  6
CONTINUOUS
 62
    2
 10
859.76260000000002
 20
1144.2446
 40
1.6999999999999997
  0
LINE
  8
_0-0_LAYER001
  6
CONTINUOUS
 62
    2
 10
858.93180000000007
 20
1146.6025
 11
876.37860000000001
 21
1097.0862999999999
  0
LINE
  8
_0-0_LAYER001
  6
CONTINUOUS
 62
    2
 10
848.96219999999994
 20
1174.8975
 11
866.40900000000011
 21
1125.3813
  0
CIRCLE
  8
_0-0_LAYER001
  6
CONTINUOUS
 62
    2
 10
849.79299999999989
 20
1172.5396000000001
 40
1.6999999999999997
  0
LINE
  8
_0-0_LAYER001
  6
CONTINUOUS
 62
    2
 10
849.79299999999989
 20
1172.5396000000001
 11
1095.0162
 21
1258.9428
  0
CIRCLE
  8
_0-0_LAYER001
  6
CONTINUOUS
 62
    2
 10
1095.0162
 20
1258.9428
 40
1.6999999999999997
  0
LINE
  8
_0-0_LAYER001
  6
CONTINUOUS
 62
    2
 10
1094.1854000000001
 20
1261.3007
 11
1111.6322
 21
1211.7845
  0
LINE
  8
_0-0_LAYER001
  6
CONTINUOUS
 62
    2
 10
1084.2157999999999
 20
1289.5957000000001
 11
1101.6626000000001
 21
1240.0795000000001
  0
CIRCLE
  8
_0-0_LAYER001
  6
CONTINUOUS
 62
    2
 10
1085.0465999999999
 20
1287.2378000000001
 40
1.6999999999999997
  0
LINE
  8
_0-0_LAYER001
  6
CONTINUOUS
 62
    2
 10
1085.0465999999999
 20
1287.2378000000001
 11
1330.4576
 21
1373.7071000000001
  0
CIRCLE
  8
_0-0_LAYER001
  6
CONTINUOUS
 62
    2
 10
1330.4576
 20
1373.7071000000001
 40
1.6999999999999997
  0
LINE
  8
_0-0_LAYER001
  6
CONTINUOUS
 62
    2
 10
1329.6268
 20
1376.0651000000003
 11
1347.0735999999999
 21
1326.5488
  0
LINE
  8
_0-0_LAYER001
  6
CONTINUOUS
 62
    2
 10
1471.9123
 20
1303.3368
 11
1473.8534
 21
1296.0924
  0
LINE
  8
_0-0_LAYER001
  6
CONTINUOUS
 62
    2
 10
1473.8534
 20
1296.0924
 11
1468.5500999999999
 21
1301.3957
  0
LINE
  8
_0-0_LAYER001
  6
CONTINUOUS
 62
    2
 10
1473.8534
 20
1296.0924
 11
1416.3258999999998
 21
1395.7329999999999
  0
LINE
  8
_0-0_LAYER001
  6
CONTINUOUS
 62
    2
 10
1416.3258999999998
 20
1395.7329999999999
 11
1237.5799
 21
1395.7329999999999
  0
LINE
  8
_0-0_LAYER001
  6
CONTINUOUS
 62
    2
 10
1490.4025999999999
 20
1331.3544999999999
 11
1485.0992999999999
 21
1326.0511999999999
  0
LINE
  8
_0-0_LAYER001
  6
CONTINUOUS
 62
    2
 10
1485.0992999999999
 20
1326.0511999999999
 11
1487.0403999999999
 21
1333.2956999999999
  0
LINE
  8
_0-0_LAYER001
  6
CONTINUOUS
 62
    2
 10
1485.0992999999999
 20
1326.0511999999999
 11
1558.5212999999999
 21
1453.2219
  0
LINE
  8
_0-0_LAYER001
  6
CONTINUOUS
 62
    2
 10
1558.5212999999999
 20
1453.2219
 11
1753.0862999999999
 21
1453.2219
  0
LINE
  8
_0-0_LAYER001
  6
CONTINUOUS
 62
    2
 10
1037.6642999999999
 20
629.27800000000002
 11
1102.2994000000001
 21
629.27800000000002
  0
LINE
  8
_0-0_LAYER001
  6
CONTINUOUS
 62
    2
 10
1030.4911
 20
659.14460000000008
 11
1251.4317000000001
 21
659.14460000000008
  0
LINE
  8
_0-0_LAYER001
  6
CONTINUOUS
 62
    2
 10
1020.9480000000001
 20
689.23990000000003
 11
1262.5613000000001
 21
689.23990000000003
  0
LINE
  8
_0-0_LAYER001
  6
CONTINUOUS
 62
    2
 10
960.05639999999994
 20
911.41439999999989
 11
960.05639999999994
 21
918.91439999999989
  0
LINE
  8
_0-0_LAYER001
  6
CONTINUOUS
 62
    2
 10
960.05639999999994
 20
918.91439999999989
 11
963.80639999999994
 21
912.41920000000005
  0
LINE
  8
_0-0_LAYER001
  6
CONTINUOUS
 62
    2
 10
960.05639999999994
 20
918.91439999999989
 11
1037.6642999999999
 21
629.27800000000002
  0
LINE
  8
_0-0_LAYER001
  6
CONTINUOUS
 62
    2
 10
1013.5641000000001
 20
719.22080000000005
 11
1218.3869
 21
719.22080000000005
  0
LINE
  8
_0-1_ADD_LINE
  6
CONTINUOUS
 62
    7
 10
1558.5212999999999
 20
1453.2219
 11
1753.0862999999999
 21
1453.2219
  0
LINE
  8
_0-1_ADD_LINE
  6
CONTINUOUS
 62
    7
 10
1576.3631
 20
1414.5694000000001
 11
1616.8631
 21
1414.5694000000001
  0
LINE
  8
_0-1_ADD_LINE
  6
CONTINUOUS
 62
    7
 10
1585.0549000000001
 20
1367.8054
 11
1682.7024999999999
 21
1367.8054
  0
LINE
  8
_0-1_ADD_LINE
  6
CONTINUOUS
 62
    7
 10
1237.5799
 20
1395.7329999999999
 11
1416.3258999999998
 21
1395.7329999999999
  0
LINE
  8
_0-1_ADD_LINE
  6
CONTINUOUS
 62
    7
 10
1013.5641805808938
 20
719.22080000000005
 11
1218.3869
 21
719.22080000000005
  0
LINE
  8
_0-1_ADD_LINE
  6
CONTINUOUS
 62
    7
 10
1021.5975447889491
 20
689.23990000000003
 11
1262.5613000000001
 21
689.23990000000003
  0
LINE
  8
_0-1_ADD_LINE
  6
CONTINUOUS
 62
    7
 10
1030.4911
 20
659.14460000000008
 11
1251.4317000000001
 21
659.14460000000008
  0
LINE
  8
_0-1_ADD_LINE
  6
CONTINUOUS
 62
    7
 10
1037.6642999999999
 20
629.27800000000002
 11
1102.2994000000001
 21
629.27800000000002
  0
LINE
  8
_0-1_ADD_LINE
  6
CONTINUOUS
 62
    7
 10
1455.3238000000001
 20
1055.8979999999999
 11
1514.6761973434161
 21
1055.8979999999999
  0
LINE
  8
_0-1_ADD_LINE
  6
CONTINUOUS
 62
    7
 10
1426.3977373565654
 20
1042.8812637579053
 11
1426.3977373565654
 21
926.46129999999994
  0
LINE
  8
_0-1_ADD_LINE
  6
CONTINUOUS
 62
    7
 10
1426.3977
 20
926.46129999999994
 11
1546.3977
 21
926.46129999999994
  0
LINE
  8
_0-1_ADD_LINE
  6
CONTINUOUS
 62
    7
 10
1546.3977
 20
926.46129999999994
 11
1546.3977
 21
1041.6233
  0
LINE
  8
_0-1_ADD_LINE
  6
CONTINUOUS
 62
    7
 10
1558.5212999999999
 20
1453.2219
 11
1485.0992999999999
 21
1326.0511999999999
  0
LINE
  8
_0-1_ADD_LINE
  6
CONTINUOUS
 62
    7
 10
1485.0992999999999
 20
1326.0511999999999
 11
1487.0403999999999
 21
1333.2956999999999
  0
LINE
  8
_0-1_ADD_LINE
  6
CONTINUOUS
 62
    7
 10
1485.0992999999999
 20
1326.0511999999999
 11
1490.4025999999999
 21
1331.3544999999999
  0
LINE
  8
_0-1_ADD_LINE
  6
CONTINUOUS
 62
    7
 10
1529.4166
 20
1337.1379999999999
 11
1527.4755
 21
1329.8936000000001
  0
LINE
  8
_0-1_ADD_LINE
  6
CONTINUOUS
 62
    7
 10
1527.4755
 20
1329.8936000000001
 11
1532.7788
 21
1335.1968999999999
  0
LINE
  8
_0-1_ADD_LINE
  6
CONTINUOUS
 62
    7
 10
1527.4755
 20
1329.8936000000001
 11
1576.3631
 21
1414.5694000000001
  0
LINE
  8
_0-1_ADD_LINE
  6
CONTINUOUS
 62
    7
 10
1585.0549000000001
 20
1367.8054
 11
1484.4380999999998
 21
1193.5320999999999
  0
LINE
  8
_0-1_ADD_LINE
  6
CONTINUOUS
 62
    7
 10
1486.3793000000001
 20
1200.7765999999999
 11
1484.4380999999998
 21
1193.5320999999999
  0
LINE
  8
_0-1_ADD_LINE
  6
CONTINUOUS
 62
    7
 10
1484.4380999999998
 20
1193.5320999999999
 11
1489.7413999999999
 21
1198.8353999999999
  0
LINE
  8
_0-1_ADD_LINE
  6
CONTINUOUS
 62
    7
 10
1471.9123
 20
1303.3368
 11
1473.8534
 21
1296.0924
  0
LINE
  8
_0-1_ADD_LINE
  6
CONTINUOUS
 62
    7
 10
1473.8534
 20
1296.0924
 11
1468.5500999999999
 21
1301.3957
  0
LINE
  8
_0-1_ADD_LINE
  6
CONTINUOUS
 62
    7
 10
1473.8534
 20
1296.0924
 11
1416.3258999999998
 21
1395.7329999999999
  0
LINE
  8
_0-1_ADD_LINE
  6
CONTINUOUS
 62
    7
 10
1329.892681864718
 20
1375.31049249731
 11
1347.0735999999999
 21
1326.5488
  0
LINE
  8
_0-1_ADD_LINE
  6
CONTINUOUS
 62
    7
 10
1330.4576
 20
1373.7071000000001
 11
1085.0465999999999
 21
1287.2378000000001
  0
LINE
  8
_0-1_ADD_LINE
  6
CONTINUOUS
 62
    7
 10
1084.4816509989616
 20
1288.8411816221433
 11
1111.6322
 21
1211.7845
  0
LINE
  8
_0-1_ADD_LINE
  6
CONTINUOUS
 62
    7
 10
1095.0162
 20
1258.9428
 11
849.79299999999989
 21
1172.5396000000001
  0
LINE
  8
_0-1_ADD_LINE
  6
CONTINUOUS
 62
    7
 10
848.96219999999994
 20
1174.8975
 11
876.37860000000001
 21
1097.0862999999999
  0
LINE
  8
_0-1_ADD_LINE
  6
CONTINUOUS
 62
    7
 10
859.76260000000002
 20
1144.2446
 11
614.53929999999991
 21
1057.8414
  0
LINE
  8
_0-1_ADD_LINE
  6
CONTINUOUS
 62
    7
 10
613.70849999999996
 20
1060.1993
 11
631.1552999999999
 21
1010.6831
  0
LINE
  8
_0-1_ADD_LINE
  6
CONTINUOUS
 62
    7
 10
657.2179000000001
 20
696.75009999999997
 11
1485
 21
1069.2523000000001
  0
LINE
  8
_0-1_ADD_LINE
  6
CONTINUOUS
 62
    7
 10
1485
 20
1069.2523000000001
 11
2319.9812999999999
 21
693.51039999999989
  0
LINE
  8
_0-1_ADD_LINE
  6
CONTINUOUS
 62
    7
 10
2341.5147999999999
 20
749.61550000000011
 11
1485
 21
1135.0474999999999
  0
LINE
  8
_0-1_ADD_LINE
  6
CONTINUOUS
 62
    7
 10
1485
 20
1135.0474999999999
 11
632.596
 21
751.46540000000005
  0
LINE
  8
_0-1_ADD_LINE
  6
CONTINUOUS
 62
    7
 10
627.05610000000001
 20
763.77629999999999
 11
1485
 21
1149.8514
  0
LINE
  8
_0-1_ADD_LINE
  6
CONTINUOUS
 62
    7
 10
1485
 20
1149.8514
 11
2346.3595999999998
 21
762.23880000000008
  0
LINE
  8
_0-1_ADD_LINE
  6
CONTINUOUS
 62
    7
 10
2345.8213999999998
 20
760.83660000000009
 11
1485
 21
1148.2065
  0
LINE
  8
_0-1_ADD_LINE
  6
CONTINUOUS
 62
    7
 10
1485
 20
1148.2065
 11
1485
 21
1069.2523000000001
  0
LINE
  8
_0-1_ADD_LINE
  6
CONTINUOUS
 62
    7
 10
1485
 20
1148.2065
 11
627.6715999999999
 21
762.4085
  0
LINE
  8
_0-1_ADD_LINE
  6
CONTINUOUS
 62
    7
 10
960.05639999999994
 20
918.91439999999989
 11
960.05639999999994
 21
913.62656890747746
  0
LINE
  8
_0-1_ADD_LINE
  6
CONTINUOUS
 62
    7
 10
960.05639999999994
 20
918.91439999999989
 11
1037.6642999999999
 21
629.27800000000002
  0
LINE
  8
_0-1_ADD_LINE
  6
CONTINUOUS
 62
    7
 10
715.46019999999999
 20
804.24279999999999
 11
708.96849999999995
 21
817.77040000000011
  0
LINE
  8
_0-1_ADD_LINE
  6
CONTINUOUS
 62
    7
 10
708.96849999999995
 20
817.77040000000011
 11
736.33439999999996
 21
830.08500000000004
  0
LINE
  8
_0-1_ADD_LINE
  6
CONTINUOUS
 62
    7
 10
736.33439999999996
 20
830.08500000000004
 11
742.8261
 21
816.55749999999989
  0
LINE
  8
_0-1_ADD_LINE
  6
CONTINUOUS
 62
    7
 10
742.8261
 20
816.55749999999989
 11
715.46019999999999
 21
804.24279999999999
  0
LINE
  8
_0-1_ADD_LINE
  6
CONTINUOUS
 62
    7
 10
715.46019999999999
 20
804.24279999999999
 11
736.33439999999996
 21
830.08500000000004
  0
LINE
  8
_0-1_ADD_LINE
  6
CONTINUOUS
 62
    7
 10
953.19679999999994
 20
911.22460000000001
 11
946.7052000000001
 21
924.75209999999993
  0
LINE
  8
_0-1_ADD_LINE
  6
CONTINUOUS
 62
    7
 10
946.7052000000001
 20
924.75209999999993
 11
974.07109999999989
 21
937.06680000000006
  0
LINE
  8
_0-1_ADD_LINE
  6
CONTINUOUS
 62
    7
 10
974.07109999999989
 20
937.06680000000006
 11
980.56269999999995
 21
923.53919999999994
  0
LINE
  8
_0-1_ADD_LINE
  6
CONTINUOUS
 62
    7
 10
980.56269999999995
 20
923.53919999999994
 11
953.19679999999994
 21
911.22460000000001
  0
LINE
  8
_0-1_ADD_LINE
  6
CONTINUOUS
 62
    7
 10
953.19679999999994
 20
911.22460000000001
 11
974.07109999999989
 21
937.06680000000006
  0
LINE
  8
_0-1_ADD_LINE
  6
CONTINUOUS
 62
    7
 10
960.05639999999994
 20
911.41439999999989
 11
960.05639999999994
 21
913.62656890747746
  0
LINE
  8
_0-1_ADD_LINE
  6
CONTINUOUS
 62
    7
 10
960.05639999999994
 20
918.91439999999989
 11
963.80639999999994
 21
912.41920000000005
  0
LINE
  8
_0-1_ADD_LINE
  6
CONTINUOUS
 62
    7
 10
1190.9333999999999
 20
1018.2062000000001
 11
1184.4418000000001
 21
1031.7338
  0
LINE
  8
_0-1_ADD_LINE
  6
CONTINUOUS
 62
    7
 10
1184.4418000000001
 20
1031.7338
 11
1211.8077000000001
 21
1044.0485000000001
  0
LINE
  8
_0-1_ADD_LINE
  6
CONTINUOUS
 62
    7
 10
1190.9333999999999
 20
1018.2062000000001
 11
1211.8077000000001
 21
1044.0485000000001
  0
LINE
  8
_0-1_ADD_LINE
  6
CONTINUOUS
 62
    7
 10
1218.2992488255566
 20
1030.5209062531335
 11
1190.9333999999999
 21
1018.2062000000001
  0
LINE
  8
_0-1_ADD_LINE
  6
CONTINUOUS
 62
    7
 10
1218.2992488255566
 20
1030.5209062531335
 11
1211.8077000000001
 21
1044.0485000000001
  0
LINE
  8
_0-1_ADD_LINE
  6
CONTINUOUS
 62
    7
 10
1428.0925999999999
 20
1126.3910000000001
 11
1422.1784
 21
1138.7156
  0
LINE
  8
_0-1_ADD_LINE
  6
CONTINUOUS
 62
    7
 10
1422.1784
 20
1138.7156
 11
1449.5443
 21
1151.0301999999999
  0
LINE
  8
_0-1_ADD_LINE
  6
CONTINUOUS
 62
    7
 10
1449.5443
 20
1151.0301999999999
 11
1455.5446999999999
 21
1138.5264
  0
LINE
  8
_0-1_ADD_LINE
  6
CONTINUOUS
 62
    7
 10
1455.5446999999999
 20
1138.5264
 11
1428.0925999999999
 21
1126.3910000000001
  0
LINE
  8
_0-1_ADD_LINE
  6
CONTINUOUS
 62
    7
 10
1428.0925999999999
 20
1126.3910000000001
 11
1449.5443
 21
1151.0301999999999
  0
LINE
  8
_0-1_ADD_LINE
  6
CONTINUOUS
 62
    7
 10
1514.4551999999999
 20
1138.5264
 11
1520.4555999999998
 21
1151.0301999999999
  0
LINE
  8
_0-1_ADD_LINE
  6
CONTINUOUS
 62
    7
 10
1520.4555999999998
 20
1151.0301999999999
 11
1547.8215
 21
1138.7156
  0
LINE
  8
_0-1_ADD_LINE
  6
CONTINUOUS
 62
    7
 10
1547.8215
 20
1138.7156
 11
1541.9072999999999
 21
1126.3910000000001
  0
LINE
  8
_0-1_ADD_LINE
  6
CONTINUOUS
 62
    7
 10
1541.9072999999999
 20
1126.3910000000001
 11
1514.4551999999999
 21
1138.5264
  0
LINE
  8
_0-1_ADD_LINE
  6
CONTINUOUS
 62
    7
 10
1514.4551999999999
 20
1138.5264
 11
1547.8215
 21
1138.7156
  0
LINE
  8
_0-1_ADD_LINE
  6
CONTINUOUS
 62
    7
 10
1751.8544000000002
 20
1030.8413
 11
1758.1922
 21
1044.0485000000001
  0
LINE
  8
_0-1_ADD_LINE
  6
CONTINUOUS
 62
    7
 10
1758.1922
 20
1044.0485000000001
 11
1785.5581000000002
 21
1031.7338
  0
LINE
  8
_0-1_ADD_LINE
  6
CONTINUOUS
 62
    7
 10
1785.5581000000002
 20
1031.7338
 11
1779.0664999999999
 21
1018.2062000000001
  0
LINE
  8
_0-0_LAYER001
  6
CONTINUOUS
 62
    4
 10
1751.7006511744435
 20
1030.5209062531335
 11
1779.0664999999999
 21
1018.2062000000001
  0
LINE
  8
_0-0_LAYER001
  6
CONTINUOUS
 62
    4
 10
1758.1922
 20
1044.0485000000001
 11
1751.7006511744435
 21
1030.5209062531335
  0
LINE
  8
_0-1_ADD_LINE
  6
CONTINUOUS
 62
    7
 10
1751.7006511744435
 20
1030.5209062531335
 11
1758.1922
 21
1044.0485000000001
  0
LINE
  8
_0-1_ADD_LINE
  6
CONTINUOUS
 62
    7
 10
1751.7006511744435
 20
1030.5209062531335
 11
1785.5581000000002
 21
1031.7338
  0
LINE
  8
_0-1_ADD_LINE
  6
CONTINUOUS
 62
    7
 10
1751.7006511744435
 20
1030.5209062531335
 11
1779.0664999999999
 21
1018.2062000000001
  0
LINE
  8
_0-1_ADD_LINE
  6
CONTINUOUS
 62
    7
 10
1946.8402000000001
 20
1119.4484
 11
1987.3402000000001
 21
1119.4484
  0
LINE
  8
_0-1_ADD_LINE
  6
CONTINUOUS
 62
    7
 10
1946.8402000000001
 20
1119.4484
 11
1885.2662
 21
1012.7991
  0
LINE
  8
_0-1_ADD_LINE
  6
CONTINUOUS
 62
    7
 10
1885.2662
 20
1012.7991
 11
1887.2073999999998
 21
1020.0435
  0
LINE
  8
_0-1_ADD_LINE
  6
CONTINUOUS
 62
    7
 10
1887.2073999999998
 20
1020.0435
 11
1885.2662
 21
1012.7991
  0
LINE
  8
_0-1_ADD_LINE
  6
CONTINUOUS
 62
    7
 10
1885.2662
 20
1012.7991
 11
1890.2703444401379
 21
1017.803244440138
  0
LINE
  8
_0-1_ADD_LINE
  6
CONTINUOUS
 62
    7
 10
1989.4371999999998
 20
923.53919999999994
 11
1995.9288000000001
 21
937.06680000000006
  0
LINE
  8
_0-1_ADD_LINE
  6
CONTINUOUS
 62
    7
 10
1995.9288000000001
 20
937.06680000000006
 11
2023.2946999999999
 21
924.75209999999993
  0
LINE
  8
_0-1_ADD_LINE
  6
CONTINUOUS
 62
    7
 10
2023.2946999999999
 20
924.75209999999993
 11
2016.8031000000001
 21
911.22460000000001
  0
LINE
  8
_0-1_ADD_LINE
  6
CONTINUOUS
 62
    7
 10
2016.8031000000001
 20
911.22460000000001
 11
1989.4371999999998
 21
923.53919999999994
  0
LINE
  8
_0-1_ADD_LINE
  6
CONTINUOUS
 62
    7
 10
1989.4371999999998
 20
923.53919999999994
 11
2023.2946999999999
 21
924.75209999999993
  0
LINE
  8
_0-1_ADD_LINE
  6
CONTINUOUS
 62
    7
 10
2227.1738
 20
816.55749999999989
 11
2233.6655000000001
 21
830.08500000000004
  0
LINE
  8
_0-1_ADD_LINE
  6
CONTINUOUS
 62
    7
 10
2233.6655000000001
 20
830.08500000000004
 11
2261.0313999999998
 21
817.77040000000011
  0
LINE
  8
_0-1_ADD_LINE
  6
CONTINUOUS
 62
    7
 10
2261.0313999999998
 20
817.77040000000011
 11
2254.5396999999998
 21
804.24279999999999
  0
LINE
  8
_0-1_ADD_LINE
  6
CONTINUOUS
 62
    7
 10
2254.5396999999998
 20
804.24279999999999
 11
2227.1738
 21
816.55749999999989
  0
LINE
  8
_0-1_ADD_LINE
  6
CONTINUOUS
 62
    7
 10
2227.1738
 20
816.55749999999989
 11
2261.0313999999998
 21
817.77040000000011
  0
LINE
  8
_0-1_ADD_LINE
  6
CONTINUOUS
 62
    7
 10
1426.3977373565654
 20
926.46129999999994
 11
1546.3977
 21
1041.6233
  0
LINE
  8
_0-1_ADD_LINE
  6
CONTINUOUS
 62
    7
 10
1426.3977373565654
 20
1042.8812637579053
 11
1546.3977
 21
926.46129999999994
  0
TEXT
  8
_0-0_LAYER001
 62
    7
 10
1963.3401999999999
 20
1121.9484
 40
20
 41
1
 50
0
  1
　
  0
TEXT
  8
_0-0_LAYER001
 62
    7
 10
1585.0549000000001
 20
1370.3054
 40
20
 41
1
 50
0
  1
棟補強金物
  0
TEXT
  8
_0-0_LAYER001
 62
    7
 10
1247.0929999999996
 20
1398.2330000000002
 40
20
 41
1
 50
0
  1
芯木：４０ｘ３０以上
  0
TEXT
  8
_0-0_LAYER001
 62
    7
 10
1558.5212999999999
 20
1455.7219
 40
20
 41
1
 50
0
  1
パッキンステンレスネジ
  0
TEXT
  8
_0-0_LAYER001
 62
    7
 10
1037.6642999999999
 20
631.77800000000002
 40
20
 41
1
 50
0
  1
　垂木
  0
TEXT
  8
_0-0_LAYER001
 62
    7
 10
1030.4910999999997
 20
661.64459999999985
 40
20
 41
1
 50
0
  1
　野地板：耐水合板ｔ＝１２
  0
TEXT
  8
_0-0_LAYER001
 62
    7
 10
1013.5640999999998
 20
721.72079999999994
 40
20
 41
1
 50
0
  1
　瓦桟：１５ｘ３０以上
  0
TEXT
  8
_0-0_LAYER001
 62
    7
 10
1941.2760203813511
 20
1121.7205849631071
 40
20
 41
1
 50
0
  1
桟　瓦
  0
TEXT
  8
_0-0_LAYER001
 62
    7
 10
1574.3211359796589
 20
1419.6879510972808
 40
20
 41
1
 50
0
  1
棟　瓦
  0
TEXT
  8
_0-0_LAYER001
 62
    7
 10
727.76426468785189
 20
1110.0330997579015
 40
20
 41
1
 50
19.409657000000017
  1
260
  0
TEXT
  8
_0-0_LAYER001
 62
    7
 10
958.93447498465389
 20
1223.087144209622
 40
20
 41
1
 50
19.409657000000017
  1
260
  0
TEXT
  8
_0-0_LAYER001
 62
    7
 10
1191.7920590792426
 20
1341.2033100547028
 40
20
 41
1
 50
19.409700000000008
  1
260
  0
TEXT
  8
_0-0_LAYER001
 62
    7
 10
1020.9479999999999
 20
691.73990000000003
 40
20
 41
1
 50
0
  1
　下葺材：ルーフィング
  0
ENDSEC
  0
EOF
