  0
SECTION
  2
HEADER
  9
$ACADVER
  1
AC1009
  9
$INSBASE
 10
0
 20
0
 30
0
  9
$EXTMIN
 10
0
 20
0
  9
$EXTMAX
 10
2970
 20
2100
  9
$LIMMIN
 10
0
 20
0
  9
$LIMMAX
 10
2970
 20
2100
  9
$LTSCALE
 40
10
  0
ENDSEC
  0
SECTION
  2
TABLES
  0
TABLE
  2
LTYPE
 70
     9
  0
LTYPE
  2
CONTINUOUS
 70
    64
  3
実線
 72
    65
 73
     0
 40
0.0
  0
LTYPE
  2
DASHED1
 70
    64
  3
--  --  --  --  --  --  --  --  
 72
    65
 73
     2
 40
2.5
 49
1.25
 49
-1.25
  0
LTYPE
  2
DASHED2
 70
    64
  3
----    ----    ----    ----    
 72
    65
 73
     2
 40
5.0
 49
2.5
 49
-2.5
  0
LTYPE
  2
DASHED3
 70
    64
  3
------  ------  ------  ------  
 72
    65
 73
     2
 40
5.0
 49
3.75
 49
-1.25
  0
LTYPE
  2
CENTER1
 70
    64
  3
----- - ----- - ----- - ----- - 
 72
    65
 73
     4
 40
10.0
 49
6.25
 49
-1.25
 49
1.25
 49
-1.25
  0
LTYPE
  2
CENTER2
 70
    64
  3
----------  --  ----------  --  
 72
    65
 73
     4
 40
20.0
 49
12.5
 49
-2.5
 49
2.5
 49
-2.5
  0
LTYPE
  2
PHANTOM1
 70
    64
  3
--- - - --- - - --- - - --- - - 
 72
    65
 73
     6
 40
10.0
 49
3.25
 49
-1.25
 49
1.25
 49
-1.25
 49
1.25
 49
-1.25
  0
LTYPE
  2
PHANTOM2
 70
    64
  3
--------  -  -  --------  -  -  
 72
    65
 73
     6
 40
20.0
 49
10.0
 49
-2.5
 49
1.25
 49
-2.5
 49
1.25
 49
-2.5
  0
LTYPE
  2
DOT
 70
    64
  3
-   -   -   -   -   -   -   -   
 72
    65
 73
     2
 40
2.5
 49
0.625
 49
-1.875
  0
LTYPE
  2
DUMMY
 70
    64
  3
ダミー
 72
    65
 73
     0
 40
0.0
  0
LTYPE
  2
RAND1
 70
    64
  3
ランダム線1
 72
    65
 73
     4
 40
10.0
 49
1.0
 49
-2.0
 49
3.0
 49
-4.0
  0
LTYPE
  2
RAND2
 70
    64
  3
ランダム線2
 72
    65
 73
     4
 40
14.0
 49
2.0
 49
-3.0
 49
4.0
 49
-5.0
  0
LTYPE
  2
RAND3
 70
    64
  3
ランダム線3
 72
    65
 73
     4
 40
18.0
 49
3.0
 49
-4.0
 49
5.0
 49
-6.0
  0
LTYPE
  2
RAND4
 70
    64
  3
ランダム線4
 72
    65
 73
     4
 40
22.0
 49
4.0
 49
-5.0
 49
6.0
 49
-7.0
  0
LTYPE
  2
RAND5
 70
    64
  3
ランダム線5
 72
    65
 73
     4
 40
26.0
 49
5.0
 49
-6.0
 49
7.0
 49
-8.0
  0
LTYPE
  2
LONG1
 70
    64
  3
----------  --  ----------  --  
 72
    65
 73
     4
 40
40.0
 49
32.5
 49
-2.5
 49
2.5
 49
-2.5
  0
LTYPE
  2
LONG2
 70
    64
  3
--------  -  -  --------  -  -  
 72
    65
 73
     6
 40
40.0
 49
30.0
 49
-2.5
 49
1.25
 49
-2.5
 49
1.25
 49
-2.5
  0
LTYPE
  2
LONG3
 70
    64
  3
+++++++++++++++..+++++++++++++++
 72
    65
 73
     2
 40
40.0
 49
37.5
 49
-2.5
  0
LTYPE
  2
LONG4
 70
    64
  3
+++++++++++++++..+++++++++++++++
 72
    65
 73
     2
 40
80.0
 49
75.0
 49
-5.0
  0
LTYPE
  2
LONG5
 70
    64
  3
----------  --  ----------  --  
 72
    65
 73
     4
 40
60.0
 49
37.5
 49
-7.5
 49
7.5
 49
-7.5
  0
LTYPE
  2
dashed
 70
   64
  3
-------   -------------   ------
 72
   65
 73
    2
 40
7.5
 49
6
 49
-1.5
  0
LTYPE
  2
dashed_spaced
 70
   64
  3
----        --------        ----
 72
   65
 73
    2
 40
12
 49
6
 49
-6
  0
LTYPE
  2
long_dashed_dotted
 70
   64
  3
------------- --- --------------
 72
   65
 73
    4
 40
15.25
 49
12
 49
-1.5
 49
0.25
 49
-1.5
  0
LTYPE
  2
long_dashed_double-dotted
 70
   64
  3
----------- --- --- ------------
 72
   65
 73
    6
 40
17
 49
12
 49
-1.5
 49
0.25
 49
-1.5
 49
0.25
 49
-1.5
  0
LTYPE
  2
long_dashed_triplicate-dotted
 70
   64
  3
--------- --- --- --- ----------
 72
   65
 73
    8
 40
18.75
 49
12
 49
-1.5
 49
0.25
 49
-1.5
 49
0.25
 49
-1.5
 49
0.25
 49
-1.5
  0
LTYPE
  2
dotted
 70
   64
  3
   -       -       -       -    
 72
   65
 73
    2
 40
1.75
 49
0.25
 49
-1.5
  0
LTYPE
  2
chain
 70
   64
  3
-------------- -- --------------
 72
   65
 73
    4
 40
18.5
 49
12
 49
-1.5
 49
3.5
 49
-1.5
  0
LTYPE
  2
chain_double_dash
 70
   64
  3
------------ -- -- -------------
 72
   65
 73
    6
 40
23.5
 49
12
 49
-1.5
 49
3.5
 49
-1.5
 49
3.5
 49
-1.5
  0
LTYPE
  2
dashed_dotted
 70
   64
  3
-----------     -     ----------
 72
   65
 73
    4
 40
9.25
 49
6
 49
-1.5
 49
0.25
 49
-1.5
  0
LTYPE
  2
double-dashed_dotted
 70
   64
  3
------   -----------   -   -----
 72
   65
 73
    6
 40
16.75
 49
6
 49
-1.5
 49
6
 49
-1.5
 49
0.25
 49
-1.5
  0
LTYPE
  2
dashed_double-dotted
 70
   64
  3
---------    -    -    ---------
 72
   65
 73
    6
 40
11
 49
6
 49
-1.5
 49
0.25
 49
-1.5
 49
0.25
 49
-1.5
  0
LTYPE
  2
double-dashed_double-dotted
 70
   64
  3
-----   ---------   -   -   ----
 72
   65
 73
    8
 40
18.5
 49
6
 49
-1.5
 49
6
 49
-1.5
 49
0.25
 49
-1.5
 49
0.25
 49
-1.5
  0
LTYPE
  2
dashed_triplicate-dotted
 70
   64
  3
-------    -    -    -    ------
 72
   65
 73
    8
 40
12.75
 49
6
 49
-1.5
 49
0.25
 49
-1.5
 49
0.25
 49
-1.5
 49
0.25
 49
-1.5
  0
LTYPE
  2
double-dashed_triplicate-dotted
 70
   64
  3
-----  ---------  -  -  -  -----
 72
   65
 73
   10
 40
20.25
 49
6
 49
-1.5
 49
6
 49
-1.5
 49
0.25
 49
-1.5
 49
0.25
 49
-1.5
 49
0.25
 49
-1.5
  0
LTYPE
  2
undefined
 70
   64
  3
--------------------------------
 72
   65
 73
    0
 40
0
  0
ENDTAB
  0
TABLE
  2
STYLE
  5
3
100
AcDbSymbolTable
 70
     1
  0
STYLE
  5
10
100
AcDbSymbolTableRecord
100
AcDbTextStyleTableRecord
  2
STANDARD
 70
     0
 40
0.0
 41
1.0
 50
0.0
 71
     0
 42
0.2
  3
txt
  4
bigfont.shx
  0
STYLE
  5
26
100
AcDbSymbolTableRecord
100
AcDbTextStyleTableRecord
  2
TATEGAKI
 70
    68
 40
0.0
 41
1.0
 50
0.0
 71
     0
 42
1.0
  3
txt
  4
bigfont.shx
  0
ENDTAB
  0
TABLE
  2
LAYER
 70
    3
  0
LAYER
  2
_0-0_LAYER001
 70
   64
 62
    7
  6
CONTINUOUS
  0
LAYER
  2
_0-1_LAYER004
 70
   64
 62
    7
  6
CONTINUOUS
  0
LAYER
  2
ADD_LINE
 70
   64
 62
    7
  6
CONTINUOUS
  0
ENDTAB
  0
ENDSEC
  0
SECTION
  2
BLOCKS
  0
ENDSEC
  0
SECTION
  2
ENTITIES
  0
LINE
  8
_0-0_LAYER001
  6
CONTINUOUS
 62
    2
 10
1982.6686
 20
895.01430000000005
 11
1982.6686
 21
922.51430000000005
  0
CIRCLE
  8
_0-0_LAYER001
  6
CONTINUOUS
 62
    2
 10
1982.6686
 20
897.51430000000005
 40
1.6999999999999997
  0
LINE
  8
_0-0_LAYER001
  6
CONTINUOUS
 62
    2
 10
1982.6686
 20
897.51430000000005
 11
1962.6686
 21
897.51430000000005
  0
CIRCLE
  8
_0-0_LAYER001
  6
CONTINUOUS
 62
    2
 10
1962.6686
 20
897.51430000000005
 40
1.6999999999999997
  0
LINE
  8
_0-0_LAYER001
  6
CONTINUOUS
 62
    2
 10
1962.6686
 20
895.01430000000005
 11
1962.6686
 21
922.51430000000005
  0
LINE
  8
_0-1_LAYER004
  6
CONTINUOUS
 62
    2
 10
1315.3212000000003
 20
1102.4938
 11
1311.5712000000003
 21
1095.9987000000001
  0
LINE
  8
_0-1_LAYER004
  6
CONTINUOUS
 62
    2
 10
1311.5712000000003
 20
1095.9987000000001
 11
1311.5712000000003
 21
1103.4987000000001
  0
LINE
  8
_0-1_LAYER004
  6
CONTINUOUS
 62
    2
 10
1311.5712000000003
 20
1095.9987000000001
 11
1340.2339000000002
 21
1202.9692
  0
LINE
  8
_0-1_LAYER004
  6
CONTINUOUS
 62
    2
 10
1340.2339000000002
 20
1202.9692
 11
1380.7338999999999
 21
1202.9692
  0
LINE
  8
_0-0_LAYER001
  6
CONTINUOUS
 62
    2
 10
1521.1950000000002
 20
1057.7526
 11
1524.9450000000002
 21
1064.2478000000001
  0
LINE
  8
_0-0_LAYER001
  6
CONTINUOUS
 62
    2
 10
1524.9450000000002
 20
1064.2478000000001
 11
1524.9450000000002
 21
1056.7478000000001
  0
LINE
  8
_0-0_LAYER001
  6
CONTINUOUS
 62
    2
 10
1524.9450000000002
 20
1064.2478000000001
 11
1455.3398999999999
 21
804.47790000000009
  0
LINE
  8
_0-0_LAYER001
  6
CONTINUOUS
 62
    2
 10
1938.6686
 20
1067.3878
 11
916.90969999999993
 21
1067.3878
  0
LINE
  8
_0-0_LAYER001
  6
DASHED3
 62
    2
 10
1938.6686
 20
1068.8878
 11
916.90969999999993
 21
1068.8878
  0
LINE
  8
_0-0_LAYER001
  6
CONTINUOUS
 62
    2
 10
1461.6835999999998
 20
834.34449999999993
 11
1290.0121999999999
 21
834.34449999999993
  0
LINE
  8
_0-0_LAYER001
  6
CONTINUOUS
 62
    2
 10
1471.2267000000002
 20
864.4398000000001
 11
1225.2266999999999
 21
864.4398000000001
  0
LINE
  8
_0-0_LAYER001
  6
CONTINUOUS
 62
    2
 10
1455.3398999999999
 20
804.47790000000009
 11
1392.4394000000002
 21
804.47790000000009
  0
LINE
  8
_0-1_LAYER004
  6
CONTINUOUS
 62
    2
 10
1940.3797
 20
969.1735000000001
 11
1944.1297
 21
975.66869999999994
  0
LINE
  8
_0-1_LAYER004
  6
CONTINUOUS
 62
    2
 10
1944.1297
 20
975.66869999999994
 11
1944.1297
 21
968.16869999999994
  0
LINE
  8
_0-1_LAYER004
  6
CONTINUOUS
 62
    2
 10
1944.1297
 20
975.66869999999994
 11
1901.7689999999998
 21
817.5766000000001
  0
LINE
  8
_0-1_LAYER004
  6
CONTINUOUS
 62
    2
 10
1901.7689999999998
 20
817.5766000000001
 11
1822.6369
 21
817.5766000000001
  0
LINE
  8
_0-0_LAYER001
  6
CONTINUOUS
 62
    2
 10
1479.8561
 20
894.53510000000006
 11
1282.1768
 21
894.53510000000006
  0
LINE
  8
_0-0_LAYER001
  6
CONTINUOUS
 62
    2
 10
2053.0902000000001
 20
1064.3878
 11
2010.5902000000001
 21
1064.3878
  0
CIRCLE
  8
_0-0_LAYER001
  6
CONTINUOUS
 62
    2
 10
2050.5902000000001
 20
1064.3878
 40
1.6999999999999997
  0
LINE
  8
_0-0_LAYER001
  6
CONTINUOUS
 62
    2
 10
2050.5902000000001
 20
1064.3878
 11
2050.5902000000001
 21
1052.3878
  0
CIRCLE
  8
_0-0_LAYER001
  6
CONTINUOUS
 62
    2
 10
2050.5902000000001
 20
1052.3878
 40
1.6999999999999997
  0
LINE
  8
_0-0_LAYER001
  6
CONTINUOUS
 62
    2
 10
2053.0902000000001
 20
1052.3878
 11
2010.5902000000001
 21
1052.3878
  0
LINE
  8
_0-0_LAYER001
  6
CONTINUOUS
 62
    4
 10
925.56539999999995
 20
1160.5899999999999
 11
926.37490000000003
 21
1160.9078999999999
  0
LINE
  8
_0-0_LAYER001
  6
CONTINUOUS
 62
    4
 10
926.37490000000003
 20
1160.9078999999999
 11
929.90509999999995
 21
1162.297
  0
LINE
  8
_0-0_LAYER001
  6
CONTINUOUS
 62
    4
 10
929.90509999999995
 20
1162.297
 11
933.44260000000008
 21
1163.6954000000001
  0
LINE
  8
_0-0_LAYER001
  6
CONTINUOUS
 62
    4
 10
933.44260000000008
 20
1163.6954000000001
 11
936.99180000000001
 21
1165.1090999999999
  0
LINE
  8
_0-0_LAYER001
  6
CONTINUOUS
 62
    4
 10
936.99180000000001
 20
1165.1090999999999
 11
940.55749999999989
 21
1166.5441000000001
  0
LINE
  8
_0-0_LAYER001
  6
CONTINUOUS
 62
    4
 10
940.55749999999989
 20
1166.5441000000001
 11
944.14409999999998
 21
1168.0063
  0
LINE
  8
_0-0_LAYER001
  6
CONTINUOUS
 62
    4
 10
944.14409999999998
 20
1168.0063
 11
946.23579999999993
 21
1168.8692000000001
  0
LINE
  8
_0-0_LAYER001
  6
CONTINUOUS
 62
    4
 10
946.23579999999993
 20
1168.8692000000001
 11
948.30340000000001
 21
1169.7270000000001
  0
LINE
  8
_0-0_LAYER001
  6
CONTINUOUS
 62
    4
 10
948.30340000000001
 20
1169.7270000000001
 11
951.8900000000001
 21
1171.1786999999999
  0
LINE
  8
_0-0_LAYER001
  6
CONTINUOUS
 62
    4
 10
951.8900000000001
 20
1171.1786999999999
 11
955.50450000000001
 21
1172.5119999999999
  0
LINE
  8
_0-0_LAYER001
  6
CONTINUOUS
 62
    4
 10
955.50450000000001
 20
1172.5119999999999
 11
959.14720000000011
 21
1173.6296
  0
LINE
  8
_0-0_LAYER001
  6
CONTINUOUS
 62
    4
 10
959.14720000000011
 20
1173.6296
 11
962.81840000000011
 21
1174.4341999999999
  0
LINE
  8
_0-0_LAYER001
  6
CONTINUOUS
 62
    4
 10
962.81840000000011
 20
1174.4341999999999
 11
966.51860000000011
 21
1174.8284000000001
  0
LINE
  8
_0-0_LAYER001
  6
CONTINUOUS
 62
    4
 10
966.51860000000011
 20
1174.8284000000001
 11
968.67800000000011
 21
1174.8306
  0
LINE
  8
_0-0_LAYER001
  6
CONTINUOUS
 62
    4
 10
968.67800000000011
 20
1174.8306
 11
969.52800000000002
 21
1174.7810999999999
  0
LINE
  8
_0-0_LAYER001
  6
CONTINUOUS
 62
    4
 10
969.52800000000002
 20
1174.7810999999999
 11
970.99450000000002
 21
1174.6310000000001
  0
LINE
  8
_0-0_LAYER001
  6
CONTINUOUS
 62
    4
 10
970.99450000000002
 20
1174.6310000000001
 11
972.45890000000009
 21
1174.4047
  0
LINE
  8
_0-0_LAYER001
  6
CONTINUOUS
 62
    4
 10
972.45890000000009
 20
1174.4047
 11
973.91689999999994
 21
1174.1089999999999
  0
LINE
  8
_0-0_LAYER001
  6
CONTINUOUS
 62
    4
 10
973.91689999999994
 20
1174.1089999999999
 11
975.36419999999998
 21
1173.7507000000001
  0
LINE
  8
_0-0_LAYER001
  6
CONTINUOUS
 62
    4
 10
975.36419999999998
 20
1173.7507000000001
 11
976.79649999999992
 21
1173.3364999999999
  0
LINE
  8
_0-0_LAYER001
  6
CONTINUOUS
 62
    4
 10
976.79649999999992
 20
1173.3364999999999
 11
977.61869999999999
 21
1173.0733
  0
LINE
  8
_0-0_LAYER001
  6
CONTINUOUS
 62
    4
 10
977.61869999999999
 20
1173.0733
 11
980.13000000000011
 21
1172.1601000000001
  0
LINE
  8
_0-0_LAYER001
  6
CONTINUOUS
 62
    4
 10
980.13000000000011
 20
1172.1601000000001
 11
984.31549999999993
 21
1170.2847999999999
  0
LINE
  8
_0-0_LAYER001
  6
CONTINUOUS
 62
    4
 10
984.31549999999993
 20
1170.2847999999999
 11
988.35030000000006
 21
1168.0954999999999
  0
LINE
  8
_0-0_LAYER001
  6
CONTINUOUS
 62
    4
 10
988.35030000000006
 20
1168.0954999999999
 11
992.27140000000009
 21
1165.6697999999999
  0
LINE
  8
_0-0_LAYER001
  6
CONTINUOUS
 62
    4
 10
992.27140000000009
 20
1165.6697999999999
 11
996.11580000000004
 21
1163.085
  0
LINE
  8
_0-0_LAYER001
  6
CONTINUOUS
 62
    4
 10
996.11580000000004
 20
1163.085
 11
999.9206999999999
 21
1160.4187999999999
  0
LINE
  8
_0-0_LAYER001
  6
CONTINUOUS
 62
    4
 10
999.9206999999999
 20
1160.4187999999999
 11
1002.1239
 21
1158.8656000000001
  0
LINE
  8
_0-0_LAYER001
  6
CONTINUOUS
 62
    4
 10
1002.1239
 20
1158.8656000000001
 11
1005.4884999999999
 21
1156.5255
  0
LINE
  8
_0-0_LAYER001
  6
CONTINUOUS
 62
    4
 10
1005.4884999999999
 20
1156.5255
 11
1011.3362999999999
 21
1152.5898999999999
  0
LINE
  8
_0-0_LAYER001
  6
CONTINUOUS
 62
    4
 10
1011.3362999999999
 20
1152.5898999999999
 11
1017.2617
 21
1148.8155999999999
  0
LINE
  8
_0-0_LAYER001
  6
CONTINUOUS
 62
    4
 10
1017.2617
 20
1148.8155999999999
 11
1023.2863
 21
1145.2448999999999
  0
LINE
  8
_0-0_LAYER001
  6
CONTINUOUS
 62
    4
 10
1023.2863
 20
1145.2448999999999
 11
1029.4314999999999
 21
1141.9197999999999
  0
LINE
  8
_0-0_LAYER001
  6
CONTINUOUS
 62
    4
 10
1029.4314999999999
 20
1141.9197999999999
 11
1035.7188000000001
 21
1138.8824999999999
  0
LINE
  8
_0-0_LAYER001
  6
CONTINUOUS
 62
    4
 10
1035.7188000000001
 20
1138.8824999999999
 11
1039.4390000000001
 21
1137.2692999999999
  0
LINE
  8
_0-0_LAYER001
  6
CONTINUOUS
 62
    4
 10
1039.4390000000001
 20
1137.2692999999999
 11
1042.5156999999999
 21
1136.0409999999999
  0
LINE
  8
_0-0_LAYER001
  6
CONTINUOUS
 62
    4
 10
1042.5156999999999
 20
1136.0409999999999
 11
1047.9036000000001
 21
1134.1139000000001
  0
LINE
  8
_0-0_LAYER001
  6
CONTINUOUS
 62
    4
 10
1047.9036000000001
 20
1134.1139000000001
 11
1053.3833
 21
1132.4348
  0
LINE
  8
_0-0_LAYER001
  6
CONTINUOUS
 62
    4
 10
1053.3833
 20
1132.4348
 11
1058.9386999999999
 21
1131.0115000000001
  0
LINE
  8
_0-0_LAYER001
  6
CONTINUOUS
 62
    4
 10
1058.9386999999999
 20
1131.0115000000001
 11
1064.5537999999999
 21
1129.8516999999999
  0
LINE
  8
_0-0_LAYER001
  6
CONTINUOUS
 62
    4
 10
1064.5537999999999
 20
1129.8516999999999
 11
1070.2123999999999
 21
1128.9634000000001
  0
LINE
  8
_0-0_LAYER001
  6
CONTINUOUS
 62
    4
 10
1070.2123999999999
 20
1128.9634000000001
 11
1073.5081
 21
1128.5757000000001
  0
LINE
  8
_0-0_LAYER001
  6
CONTINUOUS
 62
    4
 10
1073.5081
 20
1128.5757000000001
 11
1076.0309
 21
1128.3430000000001
  0
LINE
  8
_0-0_LAYER001
  6
CONTINUOUS
 62
    4
 10
1076.0309
 20
1128.3430000000001
 11
1080.3873000000001
 21
1128.0637999999999
  0
LINE
  8
_0-0_LAYER001
  6
CONTINUOUS
 62
    4
 10
1080.3873000000001
 20
1128.0637999999999
 11
1084.7499
 21
1127.9253000000001
  0
LINE
  8
_0-0_LAYER001
  6
CONTINUOUS
 62
    4
 10
1084.7499
 20
1127.9253000000001
 11
1089.1157000000001
 21
1127.9115999999999
  0
LINE
  8
_0-0_LAYER001
  6
CONTINUOUS
 62
    4
 10
1089.1157000000001
 20
1127.9115999999999
 11
1093.4819
 21
1128.0069000000001
  0
LINE
  8
_0-0_LAYER001
  6
CONTINUOUS
 62
    4
 10
1093.4819
 20
1128.0069000000001
 11
1097.8456000000001
 21
1128.1954000000001
  0
LINE
  8
_0-0_LAYER001
  6
CONTINUOUS
 62
    4
 10
1097.8456000000001
 20
1128.1954000000001
 11
1100.3742999999999
 21
1128.3412000000001
  0
LINE
  8
_0-0_LAYER001
  6
CONTINUOUS
 62
    4
 10
1100.3742999999999
 20
1128.3412000000001
 11
1105.0992000000001
 21
1128.6754000000001
  0
LINE
  8
_0-0_LAYER001
  6
CONTINUOUS
 62
    4
 10
1105.0992000000001
 20
1128.6754000000001
 11
1113.2276999999999
 21
1129.4200000000001
  0
LINE
  8
_0-0_LAYER001
  6
CONTINUOUS
 62
    4
 10
1113.2276999999999
 20
1129.4200000000001
 11
1121.3363999999999
 21
1130.3471999999999
  0
LINE
  8
_0-0_LAYER001
  6
CONTINUOUS
 62
    4
 10
1121.3363999999999
 20
1130.3471999999999
 11
1129.4280000000001
 21
1131.4214999999999
  0
LINE
  8
_0-0_LAYER001
  6
CONTINUOUS
 62
    4
 10
1129.4280000000001
 20
1131.4214999999999
 11
1137.5056999999999
 21
1132.6076
  0
LINE
  8
_0-0_LAYER001
  6
CONTINUOUS
 62
    4
 10
1137.5056999999999
 20
1132.6076
 11
1145.5724
 21
1133.8698999999999
  0
LINE
  8
_0-0_LAYER001
  6
CONTINUOUS
 62
    4
 10
1145.5724
 20
1133.8698999999999
 11
1150.2472
 21
1134.623
  0
LINE
  8
_0-0_LAYER001
  6
CONTINUOUS
 62
    4
 10
1150.2472
 20
1134.623
 11
1152.6768999999999
 21
1135.0179000000001
  0
LINE
  8
_0-0_LAYER001
  6
CONTINUOUS
 62
    4
 10
1152.6768999999999
 20
1135.0179000000001
 11
1156.8647000000001
 21
1135.7023999999999
  0
LINE
  8
_0-0_LAYER001
  6
CONTINUOUS
 62
    4
 10
1156.8647000000001
 20
1135.7023999999999
 11
1161.0512000000001
 21
1136.3910000000001
  0
LINE
  8
_0-0_LAYER001
  6
CONTINUOUS
 62
    4
 10
1161.0512000000001
 20
1136.3910000000001
 11
1165.2367999999999
 21
1137.0827999999999
  0
LINE
  8
_0-0_LAYER001
  6
CONTINUOUS
 62
    4
 10
1165.2367999999999
 20
1137.0827999999999
 11
1169.4217000000001
 21
1137.7769000000001
  0
LINE
  8
_0-0_LAYER001
  6
CONTINUOUS
 62
    4
 10
1169.4217000000001
 20
1137.7769000000001
 11
1173.6061999999999
 21
1138.4724000000001
  0
LINE
  8
_0-0_LAYER001
  6
CONTINUOUS
 62
    4
 10
1173.6061999999999
 20
1138.4724000000001
 11
1176.0329999999999
 21
1138.876
  0
LINE
  8
_0-0_LAYER001
  6
CONTINUOUS
 62
    4
 10
930.9097999999999
 20
1143.3504
 11
932.96070000000009
 21
1144.1559999999999
  0
LINE
  8
_0-0_LAYER001
  6
CONTINUOUS
 62
    4
 10
932.96070000000009
 20
1144.1559999999999
 11
936.50909999999999
 21
1145.5522000000001
  0
LINE
  8
_0-0_LAYER001
  6
CONTINUOUS
 62
    4
 10
936.50909999999999
 20
1145.5522000000001
 11
940.08159999999998
 21
1146.9645
  0
LINE
  8
_0-0_LAYER001
  6
CONTINUOUS
 62
    4
 10
940.08159999999998
 20
1146.9645
 11
943.68239999999992
 21
1148.3987
  0
LINE
  8
_0-0_LAYER001
  6
CONTINUOUS
 62
    4
 10
943.68239999999992
 20
1148.3987
 11
947.31529999999998
 21
1149.8607
  0
LINE
  8
_0-0_LAYER001
  6
CONTINUOUS
 62
    4
 10
947.31529999999998
 20
1149.8607
 11
950.97399999999993
 21
1151.3523
  0
LINE
  8
_0-0_LAYER001
  6
CONTINUOUS
 62
    4
 10
950.97399999999993
 20
1151.3523
 11
953.11699999999996
 21
1152.2364
  0
LINE
  8
_0-0_LAYER001
  6
CONTINUOUS
 62
    4
 10
953.11699999999996
 20
1152.2364
 11
955.12920000000008
 21
1153.0712000000001
  0
LINE
  8
_0-0_LAYER001
  6
CONTINUOUS
 62
    4
 10
955.12920000000008
 20
1153.0712000000001
 11
958.38300000000004
 21
1154.3882000000001
  0
LINE
  8
_0-0_LAYER001
  6
CONTINUOUS
 62
    4
 10
958.38300000000004
 20
1154.3882000000001
 11
961.26350000000002
 21
1155.4508000000001
  0
LINE
  8
_0-0_LAYER001
  6
CONTINUOUS
 62
    4
 10
961.26350000000002
 20
1155.4508000000001
 11
963.7213999999999
 21
1156.2048
  0
LINE
  8
_0-0_LAYER001
  6
CONTINUOUS
 62
    4
 10
963.7213999999999
 20
1156.2048
 11
965.70720000000006
 21
1156.6401000000001
  0
LINE
  8
_0-0_LAYER001
  6
CONTINUOUS
 62
    4
 10
965.70720000000006
 20
1156.6401000000001
 11
967.4840999999999
 21
1156.8294000000001
  0
LINE
  8
_0-0_LAYER001
  6
CONTINUOUS
 62
    4
 10
967.4840999999999
 20
1156.8294000000001
 11
968.16370000000006
 21
1156.8300999999999
  0
LINE
  8
_0-0_LAYER001
  6
CONTINUOUS
 62
    4
 10
968.16370000000006
 20
1156.8300999999999
 11
968.08750000000009
 21
1156.8344999999999
  0
LINE
  8
_0-0_LAYER001
  6
CONTINUOUS
 62
    4
 10
968.08750000000009
 20
1156.8344999999999
 11
968.70209999999997
 21
1156.7716
  0
LINE
  8
_0-0_LAYER001
  6
CONTINUOUS
 62
    4
 10
968.70209999999997
 20
1156.7716
 11
969.29379999999992
 21
1156.6801
  0
LINE
  8
_0-0_LAYER001
  6
CONTINUOUS
 62
    4
 10
969.29379999999992
 20
1156.6801
 11
969.96319999999992
 21
1156.5444
  0
LINE
  8
_0-0_LAYER001
  6
CONTINUOUS
 62
    4
 10
969.96319999999992
 20
1156.5444
 11
970.69939999999997
 21
1156.3621000000001
  0
LINE
  8
_0-0_LAYER001
  6
CONTINUOUS
 62
    4
 10
970.69939999999997
 20
1156.3621000000001
 11
971.55210000000011
 21
1156.1155000000001
  0
LINE
  8
_0-0_LAYER001
  6
CONTINUOUS
 62
    4
 10
971.55210000000011
 20
1156.1155000000001
 11
971.79729999999995
 21
1156.0371
  0
LINE
  8
_0-0_LAYER001
  6
CONTINUOUS
 62
    4
 10
971.79729999999995
 20
1156.0371
 11
973.36529999999993
 21
1155.4667999999999
  0
LINE
  8
_0-0_LAYER001
  6
CONTINUOUS
 62
    4
 10
973.36529999999993
 20
1155.4667999999999
 11
976.33179999999993
 21
1154.1377
  0
LINE
  8
_0-0_LAYER001
  6
CONTINUOUS
 62
    4
 10
976.33179999999993
 20
1154.1377
 11
979.31580000000008
 21
1152.5186000000001
  0
LINE
  8
_0-0_LAYER001
  6
CONTINUOUS
 62
    4
 10
979.31580000000008
 20
1152.5186000000001
 11
982.51140000000009
 21
1150.5417
  0
LINE
  8
_0-0_LAYER001
  6
CONTINUOUS
 62
    4
 10
982.51140000000009
 20
1150.5417
 11
985.92849999999999
 21
1148.2442000000001
  0
LINE
  8
_0-0_LAYER001
  6
CONTINUOUS
 62
    4
 10
985.92849999999999
 20
1148.2442000000001
 11
989.57020000000011
 21
1145.6922999999999
  0
LINE
  8
_0-0_LAYER001
  6
CONTINUOUS
 62
    4
 10
989.57020000000011
 20
1145.6922999999999
 11
991.79940000000011
 21
1144.1208999999999
  0
LINE
  8
_0-0_LAYER001
  6
CONTINUOUS
 62
    4
 10
991.79940000000011
 20
1144.1208999999999
 11
995.32390000000009
 21
1141.6695999999999
  0
LINE
  8
_0-0_LAYER001
  6
CONTINUOUS
 62
    4
 10
995.32390000000009
 20
1141.6695999999999
 11
1001.4745
 21
1137.5300999999999
  0
LINE
  8
_0-0_LAYER001
  6
CONTINUOUS
 62
    4
 10
1001.4745
 20
1137.5300999999999
 11
1007.8353999999999
 21
1133.4784
  0
LINE
  8
_0-0_LAYER001
  6
CONTINUOUS
 62
    4
 10
1007.8353999999999
 20
1133.4784
 11
1014.4112
 21
1129.5811000000001
  0
LINE
  8
_0-0_LAYER001
  6
CONTINUOUS
 62
    4
 10
1014.4112
 20
1129.5811000000001
 11
1021.2293
 21
1125.8919000000001
  0
LINE
  8
_0-0_LAYER001
  6
CONTINUOUS
 62
    4
 10
1021.2293
 20
1125.8919000000001
 11
1028.2202
 21
1122.5146999999999
  0
LINE
  8
_0-0_LAYER001
  6
CONTINUOUS
 62
    4
 10
1028.2202
 20
1122.5146999999999
 11
1032.5201
 21
1120.6501000000001
  0
LINE
  8
_0-0_LAYER001
  6
CONTINUOUS
 62
    4
 10
1032.5201
 20
1120.6501000000001
 11
1036.1457
 21
1119.2027
  0
LINE
  8
_0-0_LAYER001
  6
CONTINUOUS
 62
    4
 10
1036.1457
 20
1119.2027
 11
1042.2328
 21
1117.0255
  0
LINE
  8
_0-0_LAYER001
  6
CONTINUOUS
 62
    4
 10
1042.2328
 20
1117.0255
 11
1048.5101
 21
1115.1020000000001
  0
LINE
  8
_0-0_LAYER001
  6
CONTINUOUS
 62
    4
 10
1048.5101
 20
1115.1020000000001
 11
1054.8823
 21
1113.4694
  0
LINE
  8
_0-0_LAYER001
  6
CONTINUOUS
 62
    4
 10
1054.8823
 20
1113.4694
 11
1061.3358000000001
 21
1112.1365000000001
  0
LINE
  8
_0-0_LAYER001
  6
CONTINUOUS
 62
    4
 10
1061.3358000000001
 20
1112.1365000000001
 11
1067.7642000000001
 21
1111.1273000000001
  0
LINE
  8
_0-0_LAYER001
  6
CONTINUOUS
 62
    4
 10
1067.7642000000001
 20
1111.1273000000001
 11
1071.6297
 21
1110.6724999999999
  0
LINE
  8
_0-0_LAYER001
  6
CONTINUOUS
 62
    4
 10
1071.6297
 20
1110.6724999999999
 11
1074.6285
 21
1110.396
  0
LINE
  8
_0-0_LAYER001
  6
CONTINUOUS
 62
    4
 10
1074.6285
 20
1110.396
 11
1079.5257999999999
 21
1110.0821000000001
  0
LINE
  8
_0-0_LAYER001
  6
CONTINUOUS
 62
    4
 10
1079.5257999999999
 20
1110.0821000000001
 11
1084.4359999999999
 21
1109.9262000000001
  0
LINE
  8
_0-0_LAYER001
  6
CONTINUOUS
 62
    4
 10
1084.4359999999999
 20
1109.9262000000001
 11
1089.2840000000001
 21
1109.9110000000001
  0
LINE
  8
_0-0_LAYER001
  6
CONTINUOUS
 62
    4
 10
1089.2840000000001
 20
1109.9110000000001
 11
1094.0669
 21
1110.0154
  0
LINE
  8
_0-0_LAYER001
  6
CONTINUOUS
 62
    4
 10
1094.0669
 20
1110.0154
 11
1098.7521999999999
 21
1110.2177999999999
  0
LINE
  8
_0-0_LAYER001
  6
CONTINUOUS
 62
    4
 10
1098.7521999999999
 20
1110.2177999999999
 11
1101.5273999999999
 21
1110.3778
  0
LINE
  8
_0-0_LAYER001
  6
CONTINUOUS
 62
    4
 10
1101.5273999999999
 20
1110.3778
 11
1106.5553
 21
1110.7334000000001
  0
LINE
  8
_0-0_LAYER001
  6
CONTINUOUS
 62
    4
 10
1106.5553
 20
1110.7334000000001
 11
1115.0714
 21
1111.5135
  0
LINE
  8
_0-0_LAYER001
  6
CONTINUOUS
 62
    4
 10
1115.0714
 20
1111.5135
 11
1123.5435
 21
1112.4821999999999
  0
LINE
  8
_0-0_LAYER001
  6
CONTINUOUS
 62
    4
 10
1123.5435
 20
1112.4821999999999
 11
1131.9202
 21
1113.5944
  0
LINE
  8
_0-0_LAYER001
  6
CONTINUOUS
 62
    4
 10
1131.9202
 20
1113.5944
 11
1140.2047
 21
1114.8108999999999
  0
LINE
  8
_0-0_LAYER001
  6
CONTINUOUS
 62
    4
 10
1140.2047
 20
1114.8108999999999
 11
1148.3952999999999
 21
1116.0925999999999
  0
LINE
  8
_0-0_LAYER001
  6
CONTINUOUS
 62
    4
 10
1148.3952999999999
 20
1116.0925999999999
 11
1153.1223
 21
1116.8541
  0
LINE
  8
_0-0_LAYER001
  6
CONTINUOUS
 62
    4
 10
1153.1223
 20
1116.8541
 11
1155.5723
 21
1117.2523000000001
  0
LINE
  8
_0-0_LAYER001
  6
CONTINUOUS
 62
    4
 10
1155.5723
 20
1117.2523000000001
 11
1159.7772
 21
1117.9395999999999
  0
LINE
  8
_0-0_LAYER001
  6
CONTINUOUS
 62
    4
 10
1159.7772
 20
1117.9395999999999
 11
1163.9794999999999
 21
1118.6307999999999
  0
LINE
  8
_0-0_LAYER001
  6
CONTINUOUS
 62
    4
 10
1163.9794999999999
 20
1118.6307999999999
 11
1168.1769999999999
 21
1119.3245999999999
  0
LINE
  8
_0-0_LAYER001
  6
CONTINUOUS
 62
    4
 10
1168.1769999999999
 20
1119.3245999999999
 11
1172.3698999999999
 21
1120.02
  0
LINE
  8
_0-0_LAYER001
  6
CONTINUOUS
 62
    4
 10
1172.3698999999999
 20
1120.02
 11
1176.5585000000001
 21
1120.7161000000001
  0
LINE
  8
_0-0_LAYER001
  6
CONTINUOUS
 62
    4
 10
1176.5585000000001
 20
1120.7161000000001
 11
1178.1726000000001
 21
1120.9846
  0
LINE
  8
_0-0_LAYER001
  6
CONTINUOUS
 62
    4
 10
1176.1575
 20
1138.9132
 11
1209.4067
 21
1146.6168
  0
LINE
  8
_0-0_LAYER001
  6
CONTINUOUS
 62
    4
 10
1044.9815000000001
 20
1080.1158
 11
1036.4459999999999
 21
1094.6492000000001
  0
LINE
  8
_0-0_LAYER001
  6
CONTINUOUS
 62
    4
 10
1053.1493
 20
1079.4655
 11
1061.4555
 21
1089.5309999999999
  0
ARC
  8
_0-0_LAYER001
  6
CONTINUOUS
 62
    4
 10
1049.2928999999999
 20
1082.6478999999999
 40
5
 50
210.42578
 51
320.47001
  0
LINE
  8
_0-0_LAYER001
  6
CONTINUOUS
 62
    4
 10
1129.0949000000001
 20
1078.9956999999999
 11
1121.7696000000001
 21
1090.3017
  0
LINE
  8
_0-0_LAYER001
  6
CONTINUOUS
 62
    4
 10
1137.6044999999999
 20
1079.1856
 11
1146.5428999999999
 21
1094.4313
  0
ARC
  8
_0-0_LAYER001
  6
CONTINUOUS
 62
    4
 10
1133.2911999999999
 20
1081.7145
 40
5
 50
212.93986000000001
 51
329.61716000000001
  0
ARC
  8
_0-0_LAYER001
  6
CONTINUOUS
 62
    4
 10
1212.4082000000001
 20
1146.7818
 40
3
 50
103.0288
 51
179.49999999999997
  0
LINE
  8
_0-0_LAYER001
  6
CONTINUOUS
 62
    4
 10
924.4819
 20
1140.8072
 11
930.8741
 21
1143.3291999999999
  0
ARC
  8
_0-0_LAYER001
  6
CONTINUOUS
 62
    4
 10
924.11490000000003
 20
1141.7374
 40
1
 50
179.5
 51
291.53165999999999
  0
LINE
  8
_0-0_LAYER001
  6
CONTINUOUS
 62
    4
 10
1216.9721999999999
 20
1150.9172000000001
 11
1211.7319
 21
1149.7046
  0
ARC
  8
_0-0_LAYER001
  6
CONTINUOUS
 62
    4
 10
1217.1976
 20
1149.9429
 40
1
 50
359.50000000000006
 51
103.02880000000002
  0
LINE
  8
_0-0_LAYER001
  6
CONTINUOUS
 62
    4
 10
1179.3571999999999
 20
1119.2466999999999
 11
1209.671
 21
1126.3407
  0
ARC
  8
_0-0_LAYER001
  6
CONTINUOUS
 62
    4
 10
1217.0118
 20
1128.6500000000001
 40
1
 50
359.50000000000006
 51
103.08296000000006
  0
LINE
  8
_0-0_LAYER001
  6
CONTINUOUS
 62
    4
 10
1210.452
 20
1128.1522
 11
1216.7854
 21
1129.6241
  0
LINE
  8
_0-0_LAYER001
  6
CONTINUOUS
 62
    4
 10
1209.6784
 20
1127.1868999999999
 11
1209.671
 21
1126.3407
  0
ARC
  8
_0-0_LAYER001
  6
CONTINUOUS
 62
    4
 10
1210.6783
 20
1127.1782000000001
 40
1
 50
103.08296000000001
 51
179.50000000000003
  0
ARC
  8
_0-0_LAYER001
  6
CONTINUOUS
 62
    4
 10
1217.0317
 20
1130.9331999999999
 40
1
 50
283.04496999999998
 51
359.5
  0
LINE
  8
_0-0_LAYER001
  6
CONTINUOUS
 62
    4
 10
1176.8865000000001
 20
1118.7431999999999
 11
1179.3145999999999
 21
1119.1470999999999
  0
LINE
  8
_0-0_LAYER001
  6
CONTINUOUS
 62
    4
 10
1172.6975
 20
1118.047
 11
1176.8865000000001
 21
1118.7431999999999
  0
LINE
  8
_0-0_LAYER001
  6
CONTINUOUS
 62
    4
 10
1168.5037
 20
1117.3514
 11
1172.6975
 21
1118.047
  0
LINE
  8
_0-0_LAYER001
  6
CONTINUOUS
 62
    4
 10
1164.3049000000001
 20
1116.6574000000001
 11
1168.5037
 21
1117.3514
  0
LINE
  8
_0-0_LAYER001
  6
CONTINUOUS
 62
    4
 10
1160.1008999999999
 20
1115.9659999999999
 11
1164.3049000000001
 21
1116.6574000000001
  0
LINE
  8
_0-0_LAYER001
  6
CONTINUOUS
 62
    4
 10
1155.894
 20
1115.2782999999999
 11
1160.1008999999999
 21
1115.9659999999999
  0
LINE
  8
_0-0_LAYER001
  6
CONTINUOUS
 62
    4
 10
1153.4417000000001
 20
1114.8797999999999
 11
1155.894
 21
1115.2782999999999
  0
LINE
  8
_0-0_LAYER001
  6
CONTINUOUS
 62
    4
 10
1148.7090000000001
 20
1114.1172999999999
 11
1153.4417000000001
 21
1114.8797999999999
  0
LINE
  8
_0-0_LAYER001
  6
CONTINUOUS
 62
    4
 10
1140.5045
 20
1112.8335
 11
1148.7090000000001
 21
1114.1172999999999
  0
LINE
  8
_0-0_LAYER001
  6
CONTINUOUS
 62
    4
 10
1132.1971000000001
 20
1111.6137000000001
 11
1140.5045
 21
1112.8335
  0
LINE
  8
_0-0_LAYER001
  6
CONTINUOUS
 62
    4
 10
1123.7888
 20
1110.4973
 11
1132.1971000000001
 21
1111.6137000000001
  0
LINE
  8
_0-0_LAYER001
  6
CONTINUOUS
 62
    4
 10
1115.2762
 20
1109.5238999999999
 11
1123.7888
 21
1110.4973
  0
LINE
  8
_0-0_LAYER001
  6
CONTINUOUS
 62
    4
 10
1106.7171000000001
 20
1108.7399
 11
1115.2762
 21
1109.5238999999999
  0
LINE
  8
_0-0_LAYER001
  6
CONTINUOUS
 62
    4
 10
1101.6555000000001
 20
1108.3819000000001
 11
1106.7171000000001
 21
1108.7399
  0
LINE
  8
_0-0_LAYER001
  6
CONTINUOUS
 62
    4
 10
1098.8530000000001
 20
1108.2203
 11
1101.6555000000001
 21
1108.3819000000001
  0
LINE
  8
_0-0_LAYER001
  6
CONTINUOUS
 62
    4
 10
1094.1319000000001
 20
1108.0163
 11
1098.8530000000001
 21
1108.2203
  0
LINE
  8
_0-0_LAYER001
  6
CONTINUOUS
 62
    4
 10
1089.3027
 20
1107.9109000000001
 11
1094.1319000000001
 21
1108.0163
  0
LINE
  8
_0-0_LAYER001
  6
CONTINUOUS
 62
    4
 10
1084.4011
 20
1107.9263000000001
 11
1089.3027
 21
1107.9109000000001
  0
LINE
  8
_0-0_LAYER001
  6
CONTINUOUS
 62
    4
 10
1079.4300000000001
 20
1108.0841
 11
1084.4011
 21
1107.9263000000001
  0
LINE
  8
_0-0_LAYER001
  6
CONTINUOUS
 62
    4
 10
1074.4726000000001
 20
1108.4019000000001
 11
1079.4300000000001
 21
1108.0841
  0
LINE
  8
_0-0_LAYER001
  6
CONTINUOUS
 62
    4
 10
1071.421
 20
1108.6832999999999
 11
1074.4726000000001
 21
1108.4019000000001
  0
LINE
  8
_0-0_LAYER001
  6
CONTINUOUS
 62
    4
 10
1067.4920999999999
 20
1109.1455000000001
 11
1071.421
 21
1108.6832999999999
  0
LINE
  8
_0-0_LAYER001
  6
CONTINUOUS
 62
    4
 10
1060.9782
 20
1110.1681000000001
 11
1067.4920999999999
 21
1109.1455000000001
  0
LINE
  8
_0-0_LAYER001
  6
CONTINUOUS
 62
    4
 10
1054.4315999999999
 20
1111.5201999999999
 11
1060.9782
 21
1110.1681000000001
  0
LINE
  8
_0-0_LAYER001
  6
CONTINUOUS
 62
    4
 10
1047.9685999999999
 20
1113.1760999999999
 11
1054.4315999999999
 21
1111.5201999999999
  0
LINE
  8
_0-0_LAYER001
  6
CONTINUOUS
 62
    4
 10
1041.6026999999999
 20
1115.1268
 11
1047.9685999999999
 21
1113.1760999999999
  0
LINE
  8
_0-0_LAYER001
  6
CONTINUOUS
 62
    4
 10
1035.4378999999999
 20
1117.3317999999999
 11
1041.6026999999999
 21
1115.1268
  0
LINE
  8
_0-0_LAYER001
  6
CONTINUOUS
 62
    4
 10
1031.7512999999999
 20
1118.8035
 11
1035.4378999999999
 21
1117.3317999999999
  0
LINE
  8
_0-0_LAYER001
  6
CONTINUOUS
 62
    4
 10
1027.3869999999999
 20
1120.6959999999999
 11
1031.7512999999999
 21
1118.8035
  0
LINE
  8
_0-0_LAYER001
  6
CONTINUOUS
 62
    4
 10
1020.318
 20
1124.1110000000001
 11
1027.3869999999999
 21
1120.6959999999999
  0
LINE
  8
_0-0_LAYER001
  6
CONTINUOUS
 62
    4
 10
1013.4250999999999
 20
1127.8406
 11
1020.318
 21
1124.1110000000001
  0
LINE
  8
_0-0_LAYER001
  6
CONTINUOUS
 62
    4
 10
1006.7881
 20
1131.7743
 11
1013.4250999999999
 21
1127.8406
  0
LINE
  8
_0-0_LAYER001
  6
CONTINUOUS
 62
    4
 10
1000.3787
 20
1135.8568
 11
1006.7881
 21
1131.7743
  0
LINE
  8
_0-0_LAYER001
  6
CONTINUOUS
 62
    4
 10
994.19450000000006
 20
1140.0189
 11
1000.3787
 21
1135.8568
  0
LINE
  8
_0-0_LAYER001
  6
CONTINUOUS
 62
    4
 10
990.65219999999999
 20
1142.4826
 11
994.19450000000006
 21
1140.0189
  0
LINE
  8
_0-0_LAYER001
  6
CONTINUOUS
 62
    4
 10
988.42020000000002
 20
1144.0561
 11
990.65219999999999
 21
1142.4826
  0
LINE
  8
_0-0_LAYER001
  6
CONTINUOUS
 62
    4
 10
984.7965999999999
 20
1146.5953
 11
988.42020000000002
 21
1144.0561
  0
LINE
  8
_0-0_LAYER001
  6
CONTINUOUS
 62
    4
 10
981.42699999999991
 20
1148.8607999999999
 11
984.7965999999999
 21
1146.5953
  0
LINE
  8
_0-0_LAYER001
  6
CONTINUOUS
 62
    4
 10
978.3119999999999
 20
1150.7878000000001
 11
981.42699999999991
 21
1148.8607999999999
  0
LINE
  8
_0-0_LAYER001
  6
CONTINUOUS
 62
    4
 10
975.44479999999999
 20
1152.3435999999999
 11
978.3119999999999
 21
1150.7878000000001
  0
LINE
  8
_0-0_LAYER001
  6
CONTINUOUS
 62
    4
 10
972.61359999999991
 20
1153.6120000000001
 11
975.44479999999999
 21
1152.3435999999999
  0
LINE
  8
_0-0_LAYER001
  6
CONTINUOUS
 62
    4
 10
971.15039999999999
 20
1154.1442
 11
972.61359999999991
 21
1153.6120000000001
  0
LINE
  8
_0-0_LAYER001
  6
CONTINUOUS
 62
    4
 10
970.96929999999998
 20
1154.2021
 11
971.15039999999999
 21
1154.1442
  0
LINE
  8
_0-0_LAYER001
  6
CONTINUOUS
 62
    4
 10
970.18110000000001
 20
1154.4301
 11
970.96929999999998
 21
1154.2021
  0
LINE
  8
_0-0_LAYER001
  6
CONTINUOUS
 62
    4
 10
969.52389999999991
 20
1154.5927999999999
 11
970.18110000000001
 21
1154.4301
  0
LINE
  8
_0-0_LAYER001
  6
CONTINUOUS
 62
    4
 10
968.94209999999998
 20
1154.7108000000001
 11
969.52389999999991
 21
1154.5927999999999
  0
LINE
  8
_0-0_LAYER001
  6
CONTINUOUS
 62
    4
 10
968.90210000000002
 20
1154.7168999999999
 11
968.94209999999998
 21
1154.7108000000001
  0
LINE
  8
_0-0_LAYER001
  6
CONTINUOUS
 62
    4
 10
1172.8759
 20
1099.5556999999999
 11
1174.49
 21
1099.8242
  0
LINE
  8
_0-0_LAYER001
  6
CONTINUOUS
 62
    4
 10
1168.6873000000001
 20
1098.8596
 11
1172.8759
 21
1099.5556999999999
  0
LINE
  8
_0-0_LAYER001
  6
CONTINUOUS
 62
    4
 10
1164.4944
 20
1098.1641999999999
 11
1168.6873000000001
 21
1098.8596
  0
LINE
  8
_0-0_LAYER001
  6
CONTINUOUS
 62
    4
 10
1160.297
 20
1097.4703999999999
 11
1164.4944
 21
1098.1641999999999
  0
LINE
  8
_0-0_LAYER001
  6
CONTINUOUS
 62
    4
 10
1156.0947000000001
 20
1096.7791999999999
 11
1160.297
 21
1097.4703999999999
  0
LINE
  8
_0-0_LAYER001
  6
CONTINUOUS
 62
    4
 10
1151.8896999999999
 20
1096.0918999999999
 11
1156.0947000000001
 21
1096.7791999999999
  0
LINE
  8
_0-0_LAYER001
  6
CONTINUOUS
 62
    4
 10
1149.4396999999999
 20
1095.6937
 11
1151.8896999999999
 21
1096.0918999999999
  0
LINE
  8
_0-0_LAYER001
  6
CONTINUOUS
 62
    4
 10
1144.7127
 20
1094.9322
 11
1149.4396999999999
 21
1095.6937
  0
LINE
  8
_0-0_LAYER001
  6
CONTINUOUS
 62
    4
 10
1136.5220999999999
 20
1093.6505
 11
1144.7127
 21
1094.9322
  0
LINE
  8
_0-0_LAYER001
  6
CONTINUOUS
 62
    4
 10
1128.2375999999999
 20
1092.434
 11
1136.5220999999999
 21
1093.6505
  0
LINE
  8
_0-0_LAYER001
  6
CONTINUOUS
 62
    4
 10
1119.8610000000001
 20
1091.3218999999999
 11
1128.2375999999999
 21
1092.434
  0
LINE
  8
_0-0_LAYER001
  6
CONTINUOUS
 62
    4
 10
1111.3887999999999
 20
1090.3531
 11
1119.8610000000001
 21
1091.3218999999999
  0
LINE
  8
_0-0_LAYER001
  6
CONTINUOUS
 62
    4
 10
1102.8726999999999
 20
1089.5730000000001
 11
1111.3887999999999
 21
1090.3531
  0
LINE
  8
_0-0_LAYER001
  6
CONTINUOUS
 62
    4
 10
1097.8448000000001
 20
1089.2174
 11
1102.8726999999999
 21
1089.5730000000001
  0
LINE
  8
_0-0_LAYER001
  6
CONTINUOUS
 62
    4
 10
1095.0696
 20
1089.0573999999999
 11
1097.8448000000001
 21
1089.2174
  0
LINE
  8
_0-0_LAYER001
  6
CONTINUOUS
 62
    4
 10
1090.3842999999999
 20
1088.855
 11
1095.0696
 21
1089.0573999999999
  0
LINE
  8
_0-0_LAYER001
  6
CONTINUOUS
 62
    4
 10
1085.6014
 20
1088.7506000000001
 11
1090.3842999999999
 21
1088.855
  0
LINE
  8
_0-0_LAYER001
  6
CONTINUOUS
 62
    4
 10
1080.7534000000001
 20
1088.7657999999999
 11
1085.6014
 21
1088.7506000000001
  0
LINE
  8
_0-0_LAYER001
  6
CONTINUOUS
 62
    4
 10
1075.8432
 20
1088.9217000000001
 11
1080.7534000000001
 21
1088.7657999999999
  0
LINE
  8
_0-0_LAYER001
  6
CONTINUOUS
 62
    4
 10
1070.9458999999999
 20
1089.2356
 11
1075.8432
 21
1088.9217000000001
  0
LINE
  8
_0-0_LAYER001
  6
CONTINUOUS
 62
    4
 10
1067.9471000000001
 20
1089.5120999999999
 11
1070.9458999999999
 21
1089.2356
  0
LINE
  8
_0-0_LAYER001
  6
CONTINUOUS
 62
    4
 10
1064.0816
 20
1089.9668999999999
 11
1067.9471000000001
 21
1089.5120999999999
  0
LINE
  8
_0-0_LAYER001
  6
CONTINUOUS
 62
    4
 10
1057.6532
 20
1090.9761000000001
 11
1064.0816
 21
1089.9668999999999
  0
LINE
  8
_0-0_LAYER001
  6
CONTINUOUS
 62
    4
 10
1051.1996999999999
 20
1092.309
 11
1057.6532
 21
1090.9761000000001
  0
LINE
  8
_0-0_LAYER001
  6
CONTINUOUS
 62
    4
 10
1044.8275000000001
 20
1093.9416000000001
 11
1051.1996999999999
 21
1092.309
  0
LINE
  8
_0-0_LAYER001
  6
CONTINUOUS
 62
    4
 10
1038.5501999999999
 20
1095.8651
 11
1044.8275000000001
 21
1093.9416000000001
  0
LINE
  8
_0-0_LAYER001
  6
CONTINUOUS
 62
    4
 10
1032.4630999999999
 20
1098.0423000000001
 11
1038.5501999999999
 21
1095.8651
  0
LINE
  8
_0-0_LAYER001
  6
CONTINUOUS
 62
    4
 10
1028.8375000000001
 20
1099.4897000000001
 11
1032.4630999999999
 21
1098.0423000000001
  0
LINE
  8
_0-0_LAYER001
  6
CONTINUOUS
 62
    4
 10
1024.5376000000001
 20
1101.3543
 11
1028.8375000000001
 21
1099.4897000000001
  0
LINE
  8
_0-0_LAYER001
  6
CONTINUOUS
 62
    4
 10
1017.5467000000001
 20
1104.7315000000001
 11
1024.5376000000001
 21
1101.3543
  0
LINE
  8
_0-0_LAYER001
  6
CONTINUOUS
 62
    4
 10
1010.7285999999999
 20
1108.4206999999999
 11
1017.5467000000001
 21
1104.7315000000001
  0
LINE
  8
_0-0_LAYER001
  6
CONTINUOUS
 62
    4
 10
1004.1528000000001
 20
1112.318
 11
1010.7285999999999
 21
1108.4206999999999
  0
LINE
  8
_0-0_LAYER001
  6
CONTINUOUS
 62
    4
 10
997.79189999999994
 20
1116.3697
 11
1004.1528000000001
 21
1112.318
  0
LINE
  8
_0-0_LAYER001
  6
CONTINUOUS
 62
    4
 10
991.6413
 20
1120.5092
 11
997.79189999999994
 21
1116.3697
  0
LINE
  8
_0-0_LAYER001
  6
CONTINUOUS
 62
    4
 10
988.11680000000001
 20
1122.9604999999999
 11
991.6413
 21
1120.5092
  0
LINE
  8
_0-0_LAYER001
  6
CONTINUOUS
 62
    4
 10
985.8877
 20
1124.5319999999999
 11
988.11680000000001
 21
1122.9604999999999
  0
LINE
  8
_0-0_LAYER001
  6
CONTINUOUS
 62
    4
 10
982.24600000000009
 20
1127.0838000000001
 11
985.8877
 21
1124.5319999999999
  0
LINE
  8
_0-0_LAYER001
  6
CONTINUOUS
 62
    4
 10
978.8288
 20
1129.3813
 11
982.24600000000009
 21
1127.0838000000001
  0
LINE
  8
_0-0_LAYER001
  6
CONTINUOUS
 62
    4
 10
975.63319999999999
 20
1131.3581999999999
 11
978.8288
 21
1129.3813
  0
LINE
  8
_0-0_LAYER001
  6
CONTINUOUS
 62
    4
 10
972.64930000000004
 20
1132.9773
 11
975.63319999999999
 21
1131.3581999999999
  0
LINE
  8
_0-0_LAYER001
  6
CONTINUOUS
 62
    4
 10
969.68270000000007
 20
1134.3063999999999
 11
972.64930000000004
 21
1132.9773
  0
LINE
  8
_0-0_LAYER001
  6
CONTINUOUS
 62
    4
 10
968.93270000000007
 20
1134.5791999999999
 11
969.68270000000007
 21
1134.3063999999999
  0
LINE
  8
_0-0_LAYER001
  6
CONTINUOUS
 62
    4
 10
969.2657999999999
 20
1154.6223
 11
969.08979999999997
 21
1134.4489000000001
  0
LINE
  8
_0-0_LAYER001
  6
CONTINUOUS
 62
    4
 10
1217.0799
 20
1109.6107
 11
1174.2597000000001
 21
1099.6895
  0
ARC
  8
_0-0_LAYER001
  6
CONTINUOUS
 62
    4
 10
1216.8542
 20
1110.5849000000001
 40
1
 50
283.04496999999998
 51
359.5
  0
LINE
  8
_0-0_LAYER001
  6
CONTINUOUS
 62
    4
 10
1169.7688000000001
 20
1089.376
 11
1167.5234
 21
1097.9494
  0
ARC
  8
_0-0_LAYER001
  6
CONTINUOUS
 62
    4
 10
1172.6709000000001
 20
1090.136
 40
3
 50
194.67639000000003
 51
270.00000000000006
  0
LINE
  8
_0-0_LAYER001
  6
CONTINUOUS
 62
    4
 10
1176.0887
 20
1087.136
 11
1172.6709000000001
 21
1087.136
  0
LINE
  8
_0-0_LAYER001
  6
CONTINUOUS
 62
    4
 10
1179.0479
 20
1089.6428000000001
 11
1180.9819
 21
1101.2470000000001
  0
ARC
  8
_0-0_LAYER001
  6
CONTINUOUS
 62
    4
 10
1176.0887
 20
1090.136
 40
3
 50
270
 51
350.53766999999999
  0
LINE
  8
_0-0_LAYER001
  6
CONTINUOUS
 62
    4
 10
923.18180000000007
 20
1158.2843
 11
923.18180000000007
 21
1141.7518
  0
LINE
  8
_0-0_LAYER001
  6
CONTINUOUS
 62
    4
 10
924.44070000000011
 20
1160.1419000000001
 11
925.56570000000011
 21
1160.5907
  0
ARC
  8
_0-0_LAYER001
  6
CONTINUOUS
 62
    4
 10
925.18180000000007
 20
1158.2843
 40
2
 50
111.74902000000002
 51
180
  0
LINE
  8
_0-0_LAYER001
  6
CONTINUOUS
 62
    4
 10
1217.2574
 20
1129.9590000000001
 11
1178.1818000000001
 21
1120.9054000000001
  0
LINE
  8
_0-0_LAYER001
  6
CONTINUOUS
 62
    4
 10
1178.1818000000001
 20
1139.3822
 11
1178.1818000000001
 21
1120.9054000000001
  0
LINE
  8
_0-0_LAYER001
  6
CONTINUOUS
 62
    4
 10
1218.1181999999999
 20
1149.991
 11
1218.1181999999999
 21
1130.9108000000001
  0
LINE
  8
_0-0_LAYER001
  6
CONTINUOUS
 62
    4
 10
1218.2256
 20
1128.9239
 11
1218.2256
 21
1110.7528
  0
LINE
  8
_0-0_LAYER001
  6
DASHED1
 62
    2
 10
1026.27
 20
1126.1637000000001
 11
1042.27
 21
1126.1637000000001
  0
LINE
  8
_0-0_LAYER001
  6
DASHED1
 62
    2
 10
1042.27
 20
1126.1637000000001
 11
1042.27
 21
1123.1637000000001
  0
LINE
  8
_0-0_LAYER001
  6
DASHED1
 62
    2
 10
1026.27
 20
1126.1637000000001
 11
1026.27
 21
1123.1637000000001
  0
LINE
  8
_0-0_LAYER001
  6
DASHED1
 62
    2
 10
1026.27
 20
1123.1637000000001
 11
1042.27
 21
1123.1637000000001
  0
LINE
  8
_0-0_LAYER001
  6
DASHED1
 62
    2
 10
1037.27
 20
1068.2675999999999
 11
1034.2198000000001
 21
1053.7587000000001
  0
LINE
  8
_0-0_LAYER001
  6
DASHED1
 62
    2
 10
1037.27
 20
1123.1637000000001
 11
1037.27
 21
1068.2675999999999
  0
LINE
  8
_0-0_LAYER001
  6
DASHED1
 62
    2
 10
1034.2198000000001
 20
1053.7587000000001
 11
1031.27
 21
1068.0162
  0
LINE
  8
_0-0_LAYER001
  6
DASHED1
 62
    2
 10
1031.27
 20
1123.1637000000001
 11
1031.27
 21
1068.0162
  0
LINE
  8
_0-0_LAYER001
  6
CONTINUOUS
 62
    4
 10
1435.5654
 20
1159.5389
 11
1436.3748999999998
 21
1159.8569
  0
LINE
  8
_0-0_LAYER001
  6
CONTINUOUS
 62
    4
 10
1436.3748999999998
 20
1159.8569
 11
1439.9050999999999
 21
1161.2458999999999
  0
LINE
  8
_0-0_LAYER001
  6
CONTINUOUS
 62
    4
 10
1439.9050999999999
 20
1161.2458999999999
 11
1443.4425999999999
 21
1162.6442999999999
  0
LINE
  8
_0-0_LAYER001
  6
CONTINUOUS
 62
    4
 10
1443.4425999999999
 20
1162.6442999999999
 11
1446.9917999999998
 21
1164.0581
  0
LINE
  8
_0-0_LAYER001
  6
CONTINUOUS
 62
    4
 10
1446.9917999999998
 20
1164.0581
 11
1450.5574999999999
 21
1165.4930999999999
  0
LINE
  8
_0-0_LAYER001
  6
CONTINUOUS
 62
    4
 10
1450.5574999999999
 20
1165.4930999999999
 11
1454.1441
 21
1166.9553000000001
  0
LINE
  8
_0-0_LAYER001
  6
CONTINUOUS
 62
    4
 10
1454.1441
 20
1166.9553000000001
 11
1456.2357999999999
 21
1167.8181
  0
LINE
  8
_0-0_LAYER001
  6
CONTINUOUS
 62
    4
 10
1456.2357999999999
 20
1167.8181
 11
1458.3033999999998
 21
1168.6759999999999
  0
LINE
  8
_0-0_LAYER001
  6
CONTINUOUS
 62
    4
 10
1458.3033999999998
 20
1168.6759999999999
 11
1461.8899999999999
 21
1170.1276
  0
LINE
  8
_0-0_LAYER001
  6
CONTINUOUS
 62
    4
 10
1461.8899999999999
 20
1170.1276
 11
1465.5045
 21
1171.4609
  0
LINE
  8
_0-0_LAYER001
  6
CONTINUOUS
 62
    4
 10
1465.5045
 20
1171.4609
 11
1469.1471999999999
 21
1172.5785000000001
  0
LINE
  8
_0-0_LAYER001
  6
CONTINUOUS
 62
    4
 10
1469.1471999999999
 20
1172.5785000000001
 11
1472.8184000000001
 21
1173.3831
  0
LINE
  8
_0-0_LAYER001
  6
CONTINUOUS
 62
    4
 10
1472.8184000000001
 20
1173.3831
 11
1476.5185999999999
 21
1173.7773
  0
LINE
  8
_0-0_LAYER001
  6
CONTINUOUS
 62
    4
 10
1476.5185999999999
 20
1173.7773
 11
1478.6779999999999
 21
1173.7796000000001
  0
LINE
  8
_0-0_LAYER001
  6
CONTINUOUS
 62
    4
 10
1478.6779999999999
 20
1173.7796000000001
 11
1479.5279999999998
 21
1173.7301
  0
LINE
  8
_0-0_LAYER001
  6
CONTINUOUS
 62
    4
 10
1479.5279999999998
 20
1173.7301
 11
1480.9944999999998
 21
1173.5799999999999
  0
LINE
  8
_0-0_LAYER001
  6
CONTINUOUS
 62
    4
 10
1480.9944999999998
 20
1173.5799999999999
 11
1482.4589000000001
 21
1173.3536999999999
  0
LINE
  8
_0-0_LAYER001
  6
CONTINUOUS
 62
    4
 10
1482.4589000000001
 20
1173.3536999999999
 11
1483.9169000000002
 21
1173.058
  0
LINE
  8
_0-0_LAYER001
  6
CONTINUOUS
 62
    4
 10
1483.9169000000002
 20
1173.058
 11
1485.3642
 21
1172.6995999999999
  0
LINE
  8
_0-0_LAYER001
  6
CONTINUOUS
 62
    4
 10
1485.3642
 20
1172.6995999999999
 11
1486.7964999999999
 21
1172.2854
  0
LINE
  8
_0-0_LAYER001
  6
CONTINUOUS
 62
    4
 10
1486.7964999999999
 20
1172.2854
 11
1487.6187
 21
1172.0223000000001
  0
LINE
  8
_0-0_LAYER001
  6
CONTINUOUS
 62
    4
 10
1487.6187
 20
1172.0223000000001
 11
1490.1300000000001
 21
1171.1089999999999
  0
LINE
  8
_0-0_LAYER001
  6
CONTINUOUS
 62
    4
 10
1490.1300000000001
 20
1171.1089999999999
 11
1494.3155000000002
 21
1169.2337
  0
LINE
  8
_0-0_LAYER001
  6
CONTINUOUS
 62
    4
 10
1494.3155000000002
 20
1169.2337
 11
1498.3503000000001
 21
1167.0445
  0
LINE
  8
_0-0_LAYER001
  6
CONTINUOUS
 62
    4
 10
1498.3503000000001
 20
1167.0445
 11
1502.2714000000001
 21
1164.6187
  0
LINE
  8
_0-0_LAYER001
  6
CONTINUOUS
 62
    4
 10
1502.2714000000001
 20
1164.6187
 11
1506.1158
 21
1162.0340000000001
  0
LINE
  8
_0-0_LAYER001
  6
CONTINUOUS
 62
    4
 10
1506.1158
 20
1162.0340000000001
 11
1509.9207000000001
 21
1159.3678
  0
LINE
  8
_0-0_LAYER001
  6
CONTINUOUS
 62
    4
 10
1509.9207000000001
 20
1159.3678
 11
1512.1239
 21
1157.8145999999999
  0
LINE
  8
_0-0_LAYER001
  6
CONTINUOUS
 62
    4
 10
1512.1239
 20
1157.8145999999999
 11
1515.4884999999999
 21
1155.4745
  0
LINE
  8
_0-0_LAYER001
  6
CONTINUOUS
 62
    4
 10
1515.4884999999999
 20
1155.4745
 11
1521.3362999999999
 21
1151.5388
  0
LINE
  8
_0-0_LAYER001
  6
CONTINUOUS
 62
    4
 10
1521.3362999999999
 20
1151.5388
 11
1527.2617
 21
1147.7646
  0
LINE
  8
_0-0_LAYER001
  6
CONTINUOUS
 62
    4
 10
1527.2617
 20
1147.7646
 11
1533.2863000000002
 21
1144.1939
  0
LINE
  8
_0-0_LAYER001
  6
CONTINUOUS
 62
    4
 10
1533.2863000000002
 20
1144.1939
 11
1539.4315000000001
 21
1140.8688
  0
LINE
  8
_0-0_LAYER001
  6
CONTINUOUS
 62
    4
 10
1539.4315000000001
 20
1140.8688
 11
1545.7188000000001
 21
1137.8315
  0
LINE
  8
_0-0_LAYER001
  6
CONTINUOUS
 62
    4
 10
1545.7188000000001
 20
1137.8315
 11
1549.4389999999999
 21
1136.2183
  0
LINE
  8
_0-0_LAYER001
  6
CONTINUOUS
 62
    4
 10
1549.4389999999999
 20
1136.2183
 11
1552.5156999999999
 21
1134.99
  0
LINE
  8
_0-0_LAYER001
  6
CONTINUOUS
 62
    4
 10
1552.5156999999999
 20
1134.99
 11
1557.9036000000001
 21
1133.0628999999999
  0
LINE
  8
_0-0_LAYER001
  6
CONTINUOUS
 62
    4
 10
1557.9036000000001
 20
1133.0628999999999
 11
1563.3833
 21
1131.3838000000001
  0
LINE
  8
_0-0_LAYER001
  6
CONTINUOUS
 62
    4
 10
1563.3833
 20
1131.3838000000001
 11
1568.9387000000002
 21
1129.9603999999999
  0
LINE
  8
_0-0_LAYER001
  6
CONTINUOUS
 62
    4
 10
1568.9387000000002
 20
1129.9603999999999
 11
1574.5538000000001
 21
1128.8007
  0
LINE
  8
_0-0_LAYER001
  6
CONTINUOUS
 62
    4
 10
1574.5538000000001
 20
1128.8007
 11
1580.2123999999999
 21
1127.9123999999999
  0
LINE
  8
_0-0_LAYER001
  6
CONTINUOUS
 62
    4
 10
1580.2123999999999
 20
1127.9123999999999
 11
1583.5081
 21
1127.5246999999999
  0
LINE
  8
_0-0_LAYER001
  6
CONTINUOUS
 62
    4
 10
1583.5081
 20
1127.5246999999999
 11
1586.0309000000002
 21
1127.2919999999999
  0
LINE
  8
_0-0_LAYER001
  6
CONTINUOUS
 62
    4
 10
1586.0309000000002
 20
1127.2919999999999
 11
1590.3872999999999
 21
1127.0128
  0
LINE
  8
_0-0_LAYER001
  6
CONTINUOUS
 62
    4
 10
1590.3872999999999
 20
1127.0128
 11
1594.7498999999998
 21
1126.8742
  0
LINE
  8
_0-0_LAYER001
  6
CONTINUOUS
 62
    4
 10
1594.7498999999998
 20
1126.8742
 11
1599.1156999999998
 21
1126.8605
  0
LINE
  8
_0-0_LAYER001
  6
CONTINUOUS
 62
    4
 10
1599.1156999999998
 20
1126.8605
 11
1603.4819000000002
 21
1126.9558999999999
  0
LINE
  8
_0-0_LAYER001
  6
CONTINUOUS
 62
    4
 10
1603.4819000000002
 20
1126.9558999999999
 11
1607.8456000000001
 21
1127.1443999999999
  0
LINE
  8
_0-0_LAYER001
  6
CONTINUOUS
 62
    4
 10
1607.8456000000001
 20
1127.1443999999999
 11
1610.3742999999999
 21
1127.2901999999999
  0
LINE
  8
_0-0_LAYER001
  6
CONTINUOUS
 62
    4
 10
1610.3742999999999
 20
1127.2901999999999
 11
1615.0992000000001
 21
1127.6243999999999
  0
LINE
  8
_0-0_LAYER001
  6
CONTINUOUS
 62
    4
 10
1615.0992000000001
 20
1127.6243999999999
 11
1623.2276999999999
 21
1128.3688999999999
  0
LINE
  8
_0-0_LAYER001
  6
CONTINUOUS
 62
    4
 10
1623.2276999999999
 20
1128.3688999999999
 11
1631.3364000000001
 21
1129.2961
  0
LINE
  8
_0-0_LAYER001
  6
CONTINUOUS
 62
    4
 10
1631.3364000000001
 20
1129.2961
 11
1639.4279999999999
 21
1130.3705
  0
LINE
  8
_0-0_LAYER001
  6
CONTINUOUS
 62
    4
 10
1639.4279999999999
 20
1130.3705
 11
1647.5057000000002
 21
1131.5565999999999
  0
LINE
  8
_0-0_LAYER001
  6
CONTINUOUS
 62
    4
 10
1647.5057000000002
 20
1131.5565999999999
 11
1655.5724
 21
1132.8189
  0
LINE
  8
_0-0_LAYER001
  6
CONTINUOUS
 62
    4
 10
1655.5724
 20
1132.8189
 11
1660.2471999999998
 21
1133.5719999999999
  0
LINE
  8
_0-0_LAYER001
  6
CONTINUOUS
 62
    4
 10
1660.2471999999998
 20
1133.5719999999999
 11
1662.6768999999999
 21
1133.9667999999999
  0
LINE
  8
_0-0_LAYER001
  6
CONTINUOUS
 62
    4
 10
1662.6768999999999
 20
1133.9667999999999
 11
1666.8647000000001
 21
1134.6514
  0
LINE
  8
_0-0_LAYER001
  6
CONTINUOUS
 62
    4
 10
1666.8647000000001
 20
1134.6514
 11
1671.0511999999999
 21
1135.3399999999999
  0
LINE
  8
_0-0_LAYER001
  6
CONTINUOUS
 62
    4
 10
1671.0511999999999
 20
1135.3399999999999
 11
1675.2368000000001
 21
1136.0318
  0
LINE
  8
_0-0_LAYER001
  6
CONTINUOUS
 62
    4
 10
1675.2368000000001
 20
1136.0318
 11
1679.4216999999999
 21
1136.7258999999999
  0
LINE
  8
_0-0_LAYER001
  6
CONTINUOUS
 62
    4
 10
1679.4216999999999
 20
1136.7258999999999
 11
1683.6062000000002
 21
1137.4213
  0
LINE
  8
_0-0_LAYER001
  6
CONTINUOUS
 62
    4
 10
1683.6062000000002
 20
1137.4213
 11
1686.0329999999999
 21
1137.825
  0
LINE
  8
_0-0_LAYER001
  6
CONTINUOUS
 62
    4
 10
1440.9097999999999
 20
1142.2994000000001
 11
1442.9607000000001
 21
1143.105
  0
LINE
  8
_0-0_LAYER001
  6
CONTINUOUS
 62
    4
 10
1442.9607000000001
 20
1143.105
 11
1446.5091000000002
 21
1144.5011999999999
  0
LINE
  8
_0-0_LAYER001
  6
CONTINUOUS
 62
    4
 10
1446.5091000000002
 20
1144.5011999999999
 11
1450.0816
 21
1145.9133999999999
  0
LINE
  8
_0-0_LAYER001
  6
CONTINUOUS
 62
    4
 10
1450.0816
 20
1145.9133999999999
 11
1453.6824000000001
 21
1147.3476000000001
  0
LINE
  8
_0-0_LAYER001
  6
CONTINUOUS
 62
    4
 10
1453.6824000000001
 20
1147.3476000000001
 11
1457.3153000000002
 21
1148.8097
  0
LINE
  8
_0-0_LAYER001
  6
CONTINUOUS
 62
    4
 10
1457.3153000000002
 20
1148.8097
 11
1460.9740000000002
 21
1150.3013000000001
  0
LINE
  8
_0-0_LAYER001
  6
CONTINUOUS
 62
    4
 10
1460.9740000000002
 20
1150.3013000000001
 11
1463.1170000000002
 21
1151.1854000000001
  0
LINE
  8
_0-0_LAYER001
  6
CONTINUOUS
 62
    4
 10
1463.1170000000002
 20
1151.1854000000001
 11
1465.1291999999999
 21
1152.0201999999999
  0
LINE
  8
_0-0_LAYER001
  6
CONTINUOUS
 62
    4
 10
1465.1291999999999
 20
1152.0201999999999
 11
1468.3829999999998
 21
1153.3371
  0
LINE
  8
_0-0_LAYER001
  6
CONTINUOUS
 62
    4
 10
1468.3829999999998
 20
1153.3371
 11
1471.2635
 21
1154.3996999999999
  0
LINE
  8
_0-0_LAYER001
  6
CONTINUOUS
 62
    4
 10
1471.2635
 20
1154.3996999999999
 11
1473.7213999999999
 21
1155.1538
  0
LINE
  8
_0-0_LAYER001
  6
CONTINUOUS
 62
    4
 10
1473.7213999999999
 20
1155.1538
 11
1475.7071999999998
 21
1155.5889999999999
  0
LINE
  8
_0-0_LAYER001
  6
CONTINUOUS
 62
    4
 10
1475.7071999999998
 20
1155.5889999999999
 11
1477.4841000000001
 21
1155.7782999999999
  0
LINE
  8
_0-0_LAYER001
  6
CONTINUOUS
 62
    4
 10
1477.4841000000001
 20
1155.7782999999999
 11
1478.1637000000001
 21
1155.779
  0
LINE
  8
_0-0_LAYER001
  6
CONTINUOUS
 62
    4
 10
1478.1637000000001
 20
1155.779
 11
1478.0875000000001
 21
1155.7835
  0
LINE
  8
_0-0_LAYER001
  6
CONTINUOUS
 62
    4
 10
1478.0875000000001
 20
1155.7835
 11
1478.7021
 21
1155.7206000000001
  0
LINE
  8
_0-0_LAYER001
  6
CONTINUOUS
 62
    4
 10
1478.7021
 20
1155.7206000000001
 11
1479.2937999999999
 21
1155.6291000000001
  0
LINE
  8
_0-0_LAYER001
  6
CONTINUOUS
 62
    4
 10
1479.2937999999999
 20
1155.6291000000001
 11
1479.9632000000001
 21
1155.4934000000001
  0
LINE
  8
_0-0_LAYER001
  6
CONTINUOUS
 62
    4
 10
1479.9632000000001
 20
1155.4934000000001
 11
1480.6994
 21
1155.3110999999999
  0
LINE
  8
_0-0_LAYER001
  6
CONTINUOUS
 62
    4
 10
1480.6994
 20
1155.3110999999999
 11
1481.5520999999999
 21
1155.0645
  0
LINE
  8
_0-0_LAYER001
  6
CONTINUOUS
 62
    4
 10
1481.5520999999999
 20
1155.0645
 11
1481.7973000000002
 21
1154.9860000000001
  0
LINE
  8
_0-0_LAYER001
  6
CONTINUOUS
 62
    4
 10
1481.7973000000002
 20
1154.9860000000001
 11
1483.3652999999999
 21
1154.4158
  0
LINE
  8
_0-0_LAYER001
  6
CONTINUOUS
 62
    4
 10
1483.3652999999999
 20
1154.4158
 11
1486.3317999999999
 21
1153.0867000000001
  0
LINE
  8
_0-0_LAYER001
  6
CONTINUOUS
 62
    4
 10
1486.3317999999999
 20
1153.0867000000001
 11
1489.3157999999999
 21
1151.4675999999999
  0
LINE
  8
_0-0_LAYER001
  6
CONTINUOUS
 62
    4
 10
1489.3157999999999
 20
1151.4675999999999
 11
1492.5113999999999
 21
1149.4906000000001
  0
LINE
  8
_0-0_LAYER001
  6
CONTINUOUS
 62
    4
 10
1492.5113999999999
 20
1149.4906000000001
 11
1495.9285
 21
1147.1931999999999
  0
LINE
  8
_0-0_LAYER001
  6
CONTINUOUS
 62
    4
 10
1495.9285
 20
1147.1931999999999
 11
1499.5702000000001
 21
1144.6413
  0
LINE
  8
_0-0_LAYER001
  6
CONTINUOUS
 62
    4
 10
1499.5702000000001
 20
1144.6413
 11
1501.7993999999999
 21
1143.0699
  0
LINE
  8
_0-0_LAYER001
  6
CONTINUOUS
 62
    4
 10
1501.7993999999999
 20
1143.0699
 11
1505.3238999999999
 21
1140.6185
  0
LINE
  8
_0-0_LAYER001
  6
CONTINUOUS
 62
    4
 10
1505.3238999999999
 20
1140.6185
 11
1511.4744999999998
 21
1136.479
  0
LINE
  8
_0-0_LAYER001
  6
CONTINUOUS
 62
    4
 10
1511.4744999999998
 20
1136.479
 11
1517.8353999999999
 21
1132.4274
  0
LINE
  8
_0-0_LAYER001
  6
CONTINUOUS
 62
    4
 10
1517.8353999999999
 20
1132.4274
 11
1524.4112
 21
1128.53
  0
LINE
  8
_0-0_LAYER001
  6
CONTINUOUS
 62
    4
 10
1524.4112
 20
1128.53
 11
1531.2293
 21
1124.8408999999999
  0
LINE
  8
_0-0_LAYER001
  6
CONTINUOUS
 62
    4
 10
1531.2293
 20
1124.8408999999999
 11
1538.2202000000002
 21
1121.4637
  0
LINE
  8
_0-0_LAYER001
  6
CONTINUOUS
 62
    4
 10
1538.2202000000002
 20
1121.4637
 11
1542.5201000000002
 21
1119.5990999999999
  0
LINE
  8
_0-0_LAYER001
  6
CONTINUOUS
 62
    4
 10
1542.5201000000002
 20
1119.5990999999999
 11
1546.1457
 21
1118.1516999999999
  0
LINE
  8
_0-0_LAYER001
  6
CONTINUOUS
 62
    4
 10
1546.1457
 20
1118.1516999999999
 11
1552.2328000000002
 21
1115.9745
  0
LINE
  8
_0-0_LAYER001
  6
CONTINUOUS
 62
    4
 10
1552.2328000000002
 20
1115.9745
 11
1558.5101
 21
1114.0509
  0
LINE
  8
_0-0_LAYER001
  6
CONTINUOUS
 62
    4
 10
1558.5101
 20
1114.0509
 11
1564.8823000000002
 21
1112.4183
  0
LINE
  8
_0-0_LAYER001
  6
CONTINUOUS
 62
    4
 10
1564.8823000000002
 20
1112.4183
 11
1571.3357999999998
 21
1111.0853999999999
  0
LINE
  8
_0-0_LAYER001
  6
CONTINUOUS
 62
    4
 10
1571.3357999999998
 20
1111.0853999999999
 11
1577.7642000000001
 21
1110.0762999999999
  0
LINE
  8
_0-0_LAYER001
  6
CONTINUOUS
 62
    4
 10
1577.7642000000001
 20
1110.0762999999999
 11
1581.6297
 21
1109.6215
  0
LINE
  8
_0-0_LAYER001
  6
CONTINUOUS
 62
    4
 10
1581.6297
 20
1109.6215
 11
1584.6284999999998
 21
1109.345
  0
LINE
  8
_0-0_LAYER001
  6
CONTINUOUS
 62
    4
 10
1584.6284999999998
 20
1109.345
 11
1589.5257999999999
 21
1109.0310999999999
  0
LINE
  8
_0-0_LAYER001
  6
CONTINUOUS
 62
    4
 10
1589.5257999999999
 20
1109.0310999999999
 11
1594.4360000000001
 21
1108.8751
  0
LINE
  8
_0-0_LAYER001
  6
CONTINUOUS
 62
    4
 10
1594.4360000000001
 20
1108.8751
 11
1599.2840000000001
 21
1108.8598999999999
  0
LINE
  8
_0-0_LAYER001
  6
CONTINUOUS
 62
    4
 10
1599.2840000000001
 20
1108.8598999999999
 11
1604.0668999999998
 21
1108.9644000000001
  0
LINE
  8
_0-0_LAYER001
  6
CONTINUOUS
 62
    4
 10
1604.0668999999998
 20
1108.9644000000001
 11
1608.7521999999999
 21
1109.1668
  0
LINE
  8
_0-0_LAYER001
  6
CONTINUOUS
 62
    4
 10
1608.7521999999999
 20
1109.1668
 11
1611.5273999999999
 21
1109.3268
  0
LINE
  8
_0-0_LAYER001
  6
CONTINUOUS
 62
    4
 10
1611.5273999999999
 20
1109.3268
 11
1616.5553
 21
1109.6823999999999
  0
LINE
  8
_0-0_LAYER001
  6
CONTINUOUS
 62
    4
 10
1616.5553
 20
1109.6823999999999
 11
1625.0713999999998
 21
1110.4625000000001
  0
LINE
  8
_0-0_LAYER001
  6
CONTINUOUS
 62
    4
 10
1625.0713999999998
 20
1110.4625000000001
 11
1633.5435000000002
 21
1111.4312
  0
LINE
  8
_0-0_LAYER001
  6
CONTINUOUS
 62
    4
 10
1633.5435000000002
 20
1111.4312
 11
1641.9202
 21
1112.5434
  0
LINE
  8
_0-0_LAYER001
  6
CONTINUOUS
 62
    4
 10
1641.9202
 20
1112.5434
 11
1650.2046999999998
 21
1113.7598
  0
LINE
  8
_0-0_LAYER001
  6
CONTINUOUS
 62
    4
 10
1650.2046999999998
 20
1113.7598
 11
1658.3953000000001
 21
1115.0416
  0
LINE
  8
_0-0_LAYER001
  6
CONTINUOUS
 62
    4
 10
1658.3953000000001
 20
1115.0416
 11
1663.1223
 21
1115.8031000000001
  0
LINE
  8
_0-0_LAYER001
  6
CONTINUOUS
 62
    4
 10
1663.1223
 20
1115.8031000000001
 11
1665.5722999999998
 21
1116.2012
  0
LINE
  8
_0-0_LAYER001
  6
CONTINUOUS
 62
    4
 10
1665.5722999999998
 20
1116.2012
 11
1669.7772
 21
1116.8886
  0
LINE
  8
_0-0_LAYER001
  6
CONTINUOUS
 62
    4
 10
1669.7772
 20
1116.8886
 11
1673.9794999999999
 21
1117.5798
  0
LINE
  8
_0-0_LAYER001
  6
CONTINUOUS
 62
    4
 10
1673.9794999999999
 20
1117.5798
 11
1678.1770000000001
 21
1118.2735
  0
LINE
  8
_0-0_LAYER001
  6
CONTINUOUS
 62
    4
 10
1678.1770000000001
 20
1118.2735
 11
1682.3699000000001
 21
1118.9689000000001
  0
LINE
  8
_0-0_LAYER001
  6
CONTINUOUS
 62
    4
 10
1682.3699000000001
 20
1118.9689000000001
 11
1686.5585000000001
 21
1119.6650999999999
  0
LINE
  8
_0-0_LAYER001
  6
CONTINUOUS
 62
    4
 10
1686.5585000000001
 20
1119.6650999999999
 11
1688.1725999999999
 21
1119.9336000000001
  0
LINE
  8
_0-0_LAYER001
  6
CONTINUOUS
 62
    4
 10
1686.1574999999998
 20
1137.8621000000001
 11
1719.4067
 21
1145.5658000000001
  0
LINE
  8
_0-0_LAYER001
  6
CONTINUOUS
 62
    4
 10
1299.7714000000001
 20
1079.3427999999999
 11
1291.2358999999997
 21
1093.8761999999999
  0
LINE
  8
_0-0_LAYER001
  6
CONTINUOUS
 62
    4
 10
1307.9393
 20
1078.6925000000001
 11
1316.2455
 21
1088.758
  0
ARC
  8
_0-0_LAYER001
  6
CONTINUOUS
 62
    4
 10
1304.0827999999999
 20
1081.8749
 40
5
 50
210.42578
 51
320.47001
  0
LINE
  8
_0-0_LAYER001
  6
CONTINUOUS
 62
    4
 10
1383.8849
 20
1078.2227
 11
1376.5595000000003
 21
1089.5287000000001
  0
LINE
  8
_0-0_LAYER001
  6
CONTINUOUS
 62
    4
 10
1392.3944000000001
 20
1078.4126000000001
 11
1401.3327999999999
 21
1093.6583000000001
  0
ARC
  8
_0-0_LAYER001
  6
CONTINUOUS
 62
    4
 10
1388.0810999999999
 20
1080.9414999999999
 40
5
 50
212.93986000000001
 51
329.61716000000001
  0
LINE
  8
_0-0_LAYER001
  6
CONTINUOUS
 62
    4
 10
1180.3552999999999
 20
1159.817
 11
1181.1648
 21
1160.135
  0
LINE
  8
_0-0_LAYER001
  6
CONTINUOUS
 62
    4
 10
1181.1648
 20
1160.135
 11
1184.6949999999999
 21
1161.5239999999999
  0
LINE
  8
_0-0_LAYER001
  6
CONTINUOUS
 62
    4
 10
1184.6949999999999
 20
1161.5239999999999
 11
1188.2325000000001
 21
1162.9223999999999
  0
LINE
  8
_0-0_LAYER001
  6
CONTINUOUS
 62
    4
 10
1188.2325000000001
 20
1162.9223999999999
 11
1191.7817
 21
1164.3361
  0
LINE
  8
_0-0_LAYER001
  6
CONTINUOUS
 62
    4
 10
1191.7817
 20
1164.3361
 11
1195.3474000000001
 21
1165.7710999999999
  0
LINE
  8
_0-0_LAYER001
  6
CONTINUOUS
 62
    4
 10
1195.3474000000001
 20
1165.7710999999999
 11
1198.9340999999999
 21
1167.2333000000001
  0
LINE
  8
_0-0_LAYER001
  6
CONTINUOUS
 62
    4
 10
1198.9340999999999
 20
1167.2333000000001
 11
1201.0256999999999
 21
1168.0962
  0
LINE
  8
_0-0_LAYER001
  6
CONTINUOUS
 62
    4
 10
1201.0256999999999
 20
1168.0962
 11
1203.0933
 21
1168.954
  0
LINE
  8
_0-0_LAYER001
  6
CONTINUOUS
 62
    4
 10
1203.0933
 20
1168.954
 11
1206.6799000000001
 21
1170.4057
  0
LINE
  8
_0-0_LAYER001
  6
CONTINUOUS
 62
    4
 10
1206.6799000000001
 20
1170.4057
 11
1210.2944
 21
1171.739
  0
LINE
  8
_0-0_LAYER001
  6
CONTINUOUS
 62
    4
 10
1210.2944
 20
1171.739
 11
1213.9371000000001
 21
1172.8566000000001
  0
LINE
  8
_0-0_LAYER001
  6
CONTINUOUS
 62
    4
 10
1213.9371000000001
 20
1172.8566000000001
 11
1217.6083000000001
 21
1173.6612
  0
LINE
  8
_0-0_LAYER001
  6
CONTINUOUS
 62
    4
 10
1217.6083000000001
 20
1173.6612
 11
1221.3085000000001
 21
1174.0554
  0
LINE
  8
_0-0_LAYER001
  6
CONTINUOUS
 62
    4
 10
1221.3085000000001
 20
1174.0554
 11
1223.4679000000001
 21
1174.0576000000001
  0
LINE
  8
_0-0_LAYER001
  6
CONTINUOUS
 62
    4
 10
1223.4679000000001
 20
1174.0576000000001
 11
1224.3179
 21
1174.0081
  0
LINE
  8
_0-0_LAYER001
  6
CONTINUOUS
 62
    4
 10
1224.3179
 20
1174.0081
 11
1225.7844
 21
1173.8579999999999
  0
LINE
  8
_0-0_LAYER001
  6
CONTINUOUS
 62
    4
 10
1225.7844
 20
1173.8579999999999
 11
1227.2488000000001
 21
1173.6316999999999
  0
LINE
  8
_0-0_LAYER001
  6
CONTINUOUS
 62
    4
 10
1227.2488000000001
 20
1173.6316999999999
 11
1228.7067999999999
 21
1173.336
  0
LINE
  8
_0-0_LAYER001
  6
CONTINUOUS
 62
    4
 10
1228.7067999999999
 20
1173.336
 11
1230.1541
 21
1172.9776999999999
  0
LINE
  8
_0-0_LAYER001
  6
CONTINUOUS
 62
    4
 10
1230.1541
 20
1172.9776999999999
 11
1231.5863999999999
 21
1172.5635
  0
LINE
  8
_0-0_LAYER001
  6
CONTINUOUS
 62
    4
 10
1231.5863999999999
 20
1172.5635
 11
1232.4087
 21
1172.3003000000001
  0
LINE
  8
_0-0_LAYER001
  6
CONTINUOUS
 62
    4
 10
1232.4087
 20
1172.3003000000001
 11
1234.9199000000001
 21
1171.3870999999999
  0
LINE
  8
_0-0_LAYER001
  6
CONTINUOUS
 62
    4
 10
1234.9199000000001
 20
1171.3870999999999
 11
1239.1053999999999
 21
1169.5118
  0
LINE
  8
_0-0_LAYER001
  6
CONTINUOUS
 62
    4
 10
1239.1053999999999
 20
1169.5118
 11
1243.1402
 21
1167.3225
  0
LINE
  8
_0-0_LAYER001
  6
CONTINUOUS
 62
    4
 10
1243.1402
 20
1167.3225
 11
1247.0613000000001
 21
1164.8968
  0
LINE
  8
_0-0_LAYER001
  6
CONTINUOUS
 62
    4
 10
1247.0613000000001
 20
1164.8968
 11
1250.9057
 21
1162.3119999999999
  0
LINE
  8
_0-0_LAYER001
  6
CONTINUOUS
 62
    4
 10
1250.9057
 20
1162.3119999999999
 11
1254.7106000000001
 21
1159.6458
  0
LINE
  8
_0-0_LAYER001
  6
CONTINUOUS
 62
    4
 10
1254.7106000000001
 20
1159.6458
 11
1256.9138
 21
1158.0925999999999
  0
LINE
  8
_0-0_LAYER001
  6
CONTINUOUS
 62
    4
 10
1256.9138
 20
1158.0925999999999
 11
1260.2783999999999
 21
1155.7525000000001
  0
LINE
  8
_0-0_LAYER001
  6
CONTINUOUS
 62
    4
 10
1260.2783999999999
 20
1155.7525000000001
 11
1266.1261999999999
 21
1151.8169
  0
LINE
  8
_0-0_LAYER001
  6
CONTINUOUS
 62
    4
 10
1266.1261999999999
 20
1151.8169
 11
1272.0516
 21
1148.0426
  0
LINE
  8
_0-0_LAYER001
  6
CONTINUOUS
 62
    4
 10
1272.0516
 20
1148.0426
 11
1278.0762
 21
1144.4719
  0
LINE
  8
_0-0_LAYER001
  6
CONTINUOUS
 62
    4
 10
1278.0762
 20
1144.4719
 11
1284.2213999999999
 21
1141.1469
  0
LINE
  8
_0-0_LAYER001
  6
CONTINUOUS
 62
    4
 10
1284.2213999999999
 20
1141.1469
 11
1290.5087000000001
 21
1138.1095
  0
LINE
  8
_0-0_LAYER001
  6
CONTINUOUS
 62
    4
 10
1290.5087000000001
 20
1138.1095
 11
1294.2289000000001
 21
1136.4963
  0
LINE
  8
_0-0_LAYER001
  6
CONTINUOUS
 62
    4
 10
1294.2289000000001
 20
1136.4963
 11
1297.3055999999999
 21
1135.2681
  0
LINE
  8
_0-0_LAYER001
  6
CONTINUOUS
 62
    4
 10
1297.3055999999999
 20
1135.2681
 11
1302.6935000000001
 21
1133.3408999999999
  0
LINE
  8
_0-0_LAYER001
  6
CONTINUOUS
 62
    4
 10
1302.6935000000001
 20
1133.3408999999999
 11
1308.1732
 21
1131.6618000000001
  0
LINE
  8
_0-0_LAYER001
  6
CONTINUOUS
 62
    4
 10
1308.1732
 20
1131.6618000000001
 11
1313.7285999999999
 21
1130.2384999999999
  0
LINE
  8
_0-0_LAYER001
  6
CONTINUOUS
 62
    4
 10
1313.7285999999999
 20
1130.2384999999999
 11
1319.3436999999999
 21
1129.0787
  0
LINE
  8
_0-0_LAYER001
  6
CONTINUOUS
 62
    4
 10
1319.3436999999999
 20
1129.0787
 11
1325.0023000000001
 21
1128.1904
  0
LINE
  8
_0-0_LAYER001
  6
CONTINUOUS
 62
    4
 10
1325.0023000000001
 20
1128.1904
 11
1328.298
 21
1127.8027
  0
LINE
  8
_0-0_LAYER001
  6
CONTINUOUS
 62
    4
 10
1328.298
 20
1127.8027
 11
1330.8208
 21
1127.5699999999999
  0
LINE
  8
_0-0_LAYER001
  6
CONTINUOUS
 62
    4
 10
1330.8208
 20
1127.5699999999999
 11
1335.1773000000001
 21
1127.2908
  0
LINE
  8
_0-0_LAYER001
  6
CONTINUOUS
 62
    4
 10
1335.1773000000001
 20
1127.2908
 11
1339.5398
 21
1127.1523
  0
LINE
  8
_0-0_LAYER001
  6
CONTINUOUS
 62
    4
 10
1339.5398
 20
1127.1523
 11
1343.9056
 21
1127.1386
  0
LINE
  8
_0-0_LAYER001
  6
CONTINUOUS
 62
    4
 10
1343.9056
 20
1127.1386
 11
1348.2718
 21
1127.2338999999999
  0
LINE
  8
_0-0_LAYER001
  6
CONTINUOUS
 62
    4
 10
1348.2718
 20
1127.2338999999999
 11
1352.6355000000001
 21
1127.4223999999999
  0
LINE
  8
_0-0_LAYER001
  6
CONTINUOUS
 62
    4
 10
1352.6355000000001
 20
1127.4223999999999
 11
1355.1641999999997
 21
1127.5681999999999
  0
LINE
  8
_0-0_LAYER001
  6
CONTINUOUS
 62
    4
 10
1355.1641999999997
 20
1127.5681999999999
 11
1359.8891000000001
 21
1127.9023999999999
  0
LINE
  8
_0-0_LAYER001
  6
CONTINUOUS
 62
    4
 10
1359.8891000000001
 20
1127.9023999999999
 11
1368.0177000000001
 21
1128.6469999999999
  0
LINE
  8
_0-0_LAYER001
  6
CONTINUOUS
 62
    4
 10
1368.0177000000001
 20
1128.6469999999999
 11
1376.1262999999999
 21
1129.5742
  0
LINE
  8
_0-0_LAYER001
  6
CONTINUOUS
 62
    4
 10
1376.1262999999999
 20
1129.5742
 11
1384.2179000000001
 21
1130.6485
  0
LINE
  8
_0-0_LAYER001
  6
CONTINUOUS
 62
    4
 10
1384.2179000000001
 20
1130.6485
 11
1392.2955999999999
 21
1131.8345999999999
  0
LINE
  8
_0-0_LAYER001
  6
CONTINUOUS
 62
    4
 10
1392.2955999999999
 20
1131.8345999999999
 11
1400.3622999999998
 21
1133.0969
  0
LINE
  8
_0-0_LAYER001
  6
CONTINUOUS
 62
    4
 10
1400.3622999999998
 20
1133.0969
 11
1405.0371
 21
1133.8501000000001
  0
LINE
  8
_0-0_LAYER001
  6
CONTINUOUS
 62
    4
 10
1405.0371
 20
1133.8501000000001
 11
1407.4667999999999
 21
1134.2448999999999
  0
LINE
  8
_0-0_LAYER001
  6
CONTINUOUS
 62
    4
 10
1407.4667999999999
 20
1134.2448999999999
 11
1411.6545999999998
 21
1134.9294
  0
LINE
  8
_0-0_LAYER001
  6
CONTINUOUS
 62
    4
 10
1411.6545999999998
 20
1134.9294
 11
1415.8411000000001
 21
1135.6179999999999
  0
LINE
  8
_0-0_LAYER001
  6
CONTINUOUS
 62
    4
 10
1415.8411000000001
 20
1135.6179999999999
 11
1420.0266999999999
 21
1136.3098
  0
LINE
  8
_0-0_LAYER001
  6
CONTINUOUS
 62
    4
 10
1420.0266999999999
 20
1136.3098
 11
1424.2116000000001
 21
1137.0038999999999
  0
LINE
  8
_0-0_LAYER001
  6
CONTINUOUS
 62
    4
 10
1424.2116000000001
 20
1137.0038999999999
 11
1428.3960999999999
 21
1137.6994
  0
LINE
  8
_0-0_LAYER001
  6
CONTINUOUS
 62
    4
 10
1428.3960999999999
 20
1137.6994
 11
1430.8229000000001
 21
1138.1031
  0
LINE
  8
_0-0_LAYER001
  6
CONTINUOUS
 62
    4
 10
1185.6996999999999
 20
1142.5773999999999
 11
1187.7506000000001
 21
1143.383
  0
LINE
  8
_0-0_LAYER001
  6
CONTINUOUS
 62
    4
 10
1187.7506000000001
 20
1143.383
 11
1191.299
 21
1144.7791999999999
  0
LINE
  8
_0-0_LAYER001
  6
CONTINUOUS
 62
    4
 10
1191.299
 20
1144.7791999999999
 11
1194.8715
 21
1146.1914999999999
  0
LINE
  8
_0-0_LAYER001
  6
CONTINUOUS
 62
    4
 10
1194.8715
 20
1146.1914999999999
 11
1198.4722999999999
 21
1147.6257000000001
  0
LINE
  8
_0-0_LAYER001
  6
CONTINUOUS
 62
    4
 10
1198.4722999999999
 20
1147.6257000000001
 11
1202.1052
 21
1149.0877
  0
LINE
  8
_0-0_LAYER001
  6
CONTINUOUS
 62
    4
 10
1202.1052
 20
1149.0877
 11
1205.7638999999999
 21
1150.5793000000001
  0
LINE
  8
_0-0_LAYER001
  6
CONTINUOUS
 62
    4
 10
1205.7638999999999
 20
1150.5793000000001
 11
1207.9069
 21
1151.4634000000001
  0
LINE
  8
_0-0_LAYER001
  6
CONTINUOUS
 62
    4
 10
1207.9069
 20
1151.4634000000001
 11
1209.9191000000001
 21
1152.2982
  0
LINE
  8
_0-0_LAYER001
  6
CONTINUOUS
 62
    4
 10
1209.9191000000001
 20
1152.2982
 11
1213.1729
 21
1153.6152
  0
LINE
  8
_0-0_LAYER001
  6
CONTINUOUS
 62
    4
 10
1213.1729
 20
1153.6152
 11
1216.0534
 21
1154.6777999999999
  0
LINE
  8
_0-0_LAYER001
  6
CONTINUOUS
 62
    4
 10
1216.0534
 20
1154.6777999999999
 11
1218.5112999999999
 21
1155.4319
  0
LINE
  8
_0-0_LAYER001
  6
CONTINUOUS
 62
    4
 10
1218.5112999999999
 20
1155.4319
 11
1220.4971
 21
1155.8670999999999
  0
LINE
  8
_0-0_LAYER001
  6
CONTINUOUS
 62
    4
 10
1220.4971
 20
1155.8670999999999
 11
1222.2739999999999
 21
1156.0563999999999
  0
LINE
  8
_0-0_LAYER001
  6
CONTINUOUS
 62
    4
 10
1222.2739999999999
 20
1156.0563999999999
 11
1222.9536000000001
 21
1156.0571
  0
LINE
  8
_0-0_LAYER001
  6
CONTINUOUS
 62
    4
 10
1222.9536000000001
 20
1156.0571
 11
1222.8774000000001
 21
1156.0615
  0
LINE
  8
_0-0_LAYER001
  6
CONTINUOUS
 62
    4
 10
1222.8774000000001
 20
1156.0615
 11
1223.492
 21
1155.9985999999999
  0
LINE
  8
_0-0_LAYER001
  6
CONTINUOUS
 62
    4
 10
1223.492
 20
1155.9985999999999
 11
1224.0836999999999
 21
1155.9072000000001
  0
LINE
  8
_0-0_LAYER001
  6
CONTINUOUS
 62
    4
 10
1224.0836999999999
 20
1155.9072000000001
 11
1224.7530999999999
 21
1155.7714000000001
  0
LINE
  8
_0-0_LAYER001
  6
CONTINUOUS
 62
    4
 10
1224.7530999999999
 20
1155.7714000000001
 11
1225.4893
 21
1155.5890999999999
  0
LINE
  8
_0-0_LAYER001
  6
CONTINUOUS
 62
    4
 10
1225.4893
 20
1155.5890999999999
 11
1226.3420000000001
 21
1155.3425999999999
  0
LINE
  8
_0-0_LAYER001
  6
CONTINUOUS
 62
    4
 10
1226.3420000000001
 20
1155.3425999999999
 11
1226.5871999999999
 21
1155.2641000000001
  0
LINE
  8
_0-0_LAYER001
  6
CONTINUOUS
 62
    4
 10
1226.5871999999999
 20
1155.2641000000001
 11
1228.1551999999999
 21
1154.6938
  0
LINE
  8
_0-0_LAYER001
  6
CONTINUOUS
 62
    4
 10
1228.1551999999999
 20
1154.6938
 11
1231.1216999999999
 21
1153.3647000000001
  0
LINE
  8
_0-0_LAYER001
  6
CONTINUOUS
 62
    4
 10
1231.1216999999999
 20
1153.3647000000001
 11
1234.1057000000001
 21
1151.7456
  0
LINE
  8
_0-0_LAYER001
  6
CONTINUOUS
 62
    4
 10
1234.1057000000001
 20
1151.7456
 11
1237.3013000000001
 21
1149.7687000000001
  0
LINE
  8
_0-0_LAYER001
  6
CONTINUOUS
 62
    4
 10
1237.3013000000001
 20
1149.7687000000001
 11
1240.7184
 21
1147.4712
  0
LINE
  8
_0-0_LAYER001
  6
CONTINUOUS
 62
    4
 10
1240.7184
 20
1147.4712
 11
1244.3601000000001
 21
1144.9194
  0
LINE
  8
_0-0_LAYER001
  6
CONTINUOUS
 62
    4
 10
1244.3601000000001
 20
1144.9194
 11
1246.5893000000001
 21
1143.3479
  0
LINE
  8
_0-0_LAYER001
  6
CONTINUOUS
 62
    4
 10
1246.5893000000001
 20
1143.3479
 11
1250.1138000000001
 21
1140.8966
  0
LINE
  8
_0-0_LAYER001
  6
CONTINUOUS
 62
    4
 10
1250.1138000000001
 20
1140.8966
 11
1256.2644
 21
1136.7571
  0
LINE
  8
_0-0_LAYER001
  6
CONTINUOUS
 62
    4
 10
1256.2644
 20
1136.7571
 11
1262.6252999999999
 21
1132.7054000000001
  0
LINE
  8
_0-0_LAYER001
  6
CONTINUOUS
 62
    4
 10
1262.6252999999999
 20
1132.7054000000001
 11
1269.2011
 21
1128.8081
  0
LINE
  8
_0-0_LAYER001
  6
CONTINUOUS
 62
    4
 10
1269.2011
 20
1128.8081
 11
1276.0192
 21
1125.1188999999999
  0
LINE
  8
_0-0_LAYER001
  6
CONTINUOUS
 62
    4
 10
1276.0192
 20
1125.1188999999999
 11
1283.0101
 21
1121.7417
  0
LINE
  8
_0-0_LAYER001
  6
CONTINUOUS
 62
    4
 10
1283.0101
 20
1121.7417
 11
1287.3099999999999
 21
1119.8770999999999
  0
LINE
  8
_0-0_LAYER001
  6
CONTINUOUS
 62
    4
 10
1287.3099999999999
 20
1119.8770999999999
 11
1290.9356
 21
1118.4296999999999
  0
LINE
  8
_0-0_LAYER001
  6
CONTINUOUS
 62
    4
 10
1290.9356
 20
1118.4296999999999
 11
1297.0227
 21
1116.2525000000001
  0
LINE
  8
_0-0_LAYER001
  6
CONTINUOUS
 62
    4
 10
1297.0227
 20
1116.2525000000001
 11
1303.2999999999997
 21
1114.329
  0
LINE
  8
_0-0_LAYER001
  6
CONTINUOUS
 62
    4
 10
1303.2999999999997
 20
1114.329
 11
1309.6722
 21
1112.6964
  0
LINE
  8
_0-0_LAYER001
  6
CONTINUOUS
 62
    4
 10
1309.6722
 20
1112.6964
 11
1316.1257000000001
 21
1111.3634999999999
  0
LINE
  8
_0-0_LAYER001
  6
CONTINUOUS
 62
    4
 10
1316.1257000000001
 20
1111.3634999999999
 11
1322.5541000000001
 21
1110.3543
  0
LINE
  8
_0-0_LAYER001
  6
CONTINUOUS
 62
    4
 10
1322.5541000000001
 20
1110.3543
 11
1326.4195999999997
 21
1109.8995
  0
LINE
  8
_0-0_LAYER001
  6
CONTINUOUS
 62
    4
 10
1326.4195999999997
 20
1109.8995
 11
1329.4184
 21
1109.623
  0
LINE
  8
_0-0_LAYER001
  6
CONTINUOUS
 62
    4
 10
1329.4184
 20
1109.623
 11
1334.3157000000001
 21
1109.3090999999999
  0
LINE
  8
_0-0_LAYER001
  6
CONTINUOUS
 62
    4
 10
1334.3157000000001
 20
1109.3090999999999
 11
1339.2258999999999
 21
1109.1532
  0
LINE
  8
_0-0_LAYER001
  6
CONTINUOUS
 62
    4
 10
1339.2258999999999
 20
1109.1532
 11
1344.0739000000003
 21
1109.1379999999999
  0
LINE
  8
_0-0_LAYER001
  6
CONTINUOUS
 62
    4
 10
1344.0739000000003
 20
1109.1379999999999
 11
1348.8568
 21
1109.2424000000001
  0
LINE
  8
_0-0_LAYER001
  6
CONTINUOUS
 62
    4
 10
1348.8568
 20
1109.2424000000001
 11
1353.5420999999999
 21
1109.4448
  0
LINE
  8
_0-0_LAYER001
  6
CONTINUOUS
 62
    4
 10
1353.5420999999999
 20
1109.4448
 11
1356.3173000000002
 21
1109.6048000000001
  0
LINE
  8
_0-0_LAYER001
  6
CONTINUOUS
 62
    4
 10
1356.3173000000002
 20
1109.6048000000001
 11
1361.3452000000002
 21
1109.9604999999999
  0
LINE
  8
_0-0_LAYER001
  6
CONTINUOUS
 62
    4
 10
1361.3452000000002
 20
1109.9604999999999
 11
1369.8613
 21
1110.7405000000001
  0
LINE
  8
_0-0_LAYER001
  6
CONTINUOUS
 62
    4
 10
1369.8613
 20
1110.7405000000001
 11
1378.3334
 21
1111.7093
  0
LINE
  8
_0-0_LAYER001
  6
CONTINUOUS
 62
    4
 10
1378.3334
 20
1111.7093
 11
1386.7101
 21
1112.8214
  0
LINE
  8
_0-0_LAYER001
  6
CONTINUOUS
 62
    4
 10
1386.7101
 20
1112.8214
 11
1394.9946
 21
1114.0379
  0
LINE
  8
_0-0_LAYER001
  6
CONTINUOUS
 62
    4
 10
1394.9946
 20
1114.0379
 11
1403.1851999999999
 21
1115.3196
  0
LINE
  8
_0-0_LAYER001
  6
CONTINUOUS
 62
    4
 10
1403.1851999999999
 20
1115.3196
 11
1407.9122000000002
 21
1116.0811000000001
  0
LINE
  8
_0-0_LAYER001
  6
CONTINUOUS
 62
    4
 10
1407.9122000000002
 20
1116.0811000000001
 11
1410.3622
 21
1116.4793
  0
LINE
  8
_0-0_LAYER001
  6
CONTINUOUS
 62
    4
 10
1410.3622
 20
1116.4793
 11
1414.5670999999998
 21
1117.1666
  0
LINE
  8
_0-0_LAYER001
  6
CONTINUOUS
 62
    4
 10
1414.5670999999998
 20
1117.1666
 11
1418.7693999999999
 21
1117.8578
  0
LINE
  8
_0-0_LAYER001
  6
CONTINUOUS
 62
    4
 10
1418.7693999999999
 20
1117.8578
 11
1422.9668999999999
 21
1118.5516
  0
LINE
  8
_0-0_LAYER001
  6
CONTINUOUS
 62
    4
 10
1422.9668999999999
 20
1118.5516
 11
1427.1597999999999
 21
1119.2470000000001
  0
LINE
  8
_0-0_LAYER001
  6
CONTINUOUS
 62
    4
 10
1427.1597999999999
 20
1119.2470000000001
 11
1431.3483999999999
 21
1119.9431999999999
  0
LINE
  8
_0-0_LAYER001
  6
CONTINUOUS
 62
    4
 10
1431.3483999999999
 20
1119.9431999999999
 11
1432.9625000000001
 21
1120.2116000000001
  0
ARC
  8
_0-0_LAYER001
  6
CONTINUOUS
 62
    4
 10
1467.1981000000001
 20
1146.0088000000001
 40
3
 50
103.0288
 51
179.49999999999997
  0
LINE
  8
_0-0_LAYER001
  6
CONTINUOUS
 62
    4
 10
1179.2718
 20
1140.0342000000001
 11
1185.6641
 21
1142.5562
  0
ARC
  8
_0-0_LAYER001
  6
CONTINUOUS
 62
    4
 10
1178.9048
 20
1140.9644000000001
 40
1
 50
179.5
 51
291.53165999999999
  0
LINE
  8
_0-0_LAYER001
  6
CONTINUOUS
 62
    4
 10
1471.7620999999999
 20
1150.1442
 11
1466.5218
 21
1148.9315999999999
  0
ARC
  8
_0-0_LAYER001
  6
CONTINUOUS
 62
    4
 10
1471.9875000000002
 20
1149.1699000000001
 40
1
 50
359.50000000000006
 51
103.02880000000002
  0
LINE
  8
_0-0_LAYER001
  6
CONTINUOUS
 62
    4
 10
1434.1471000000001
 20
1118.4737
 11
1464.4609
 21
1125.5678
  0
ARC
  8
_0-0_LAYER001
  6
CONTINUOUS
 62
    4
 10
1471.8017
 20
1127.877
 40
1
 50
359.50000000000006
 51
103.08296000000006
  0
LINE
  8
_0-0_LAYER001
  6
CONTINUOUS
 62
    4
 10
1465.2419
 20
1127.3792000000001
 11
1471.5753
 21
1128.8511000000001
  0
LINE
  8
_0-0_LAYER001
  6
CONTINUOUS
 62
    4
 10
1464.4683
 20
1126.4139
 11
1464.4609
 21
1125.5678
  0
ARC
  8
_0-0_LAYER001
  6
CONTINUOUS
 62
    4
 10
1465.4681999999998
 20
1126.4051999999999
 40
1
 50
103.08296000000001
 51
179.50000000000003
  0
ARC
  8
_0-0_LAYER001
  6
CONTINUOUS
 62
    4
 10
1471.8216000000002
 20
1130.1602
 40
1
 50
283.04496999999998
 51
359.5
  0
LINE
  8
_0-0_LAYER001
  6
CONTINUOUS
 62
    4
 10
1431.6763999999998
 20
1117.9702
 11
1434.1046000000001
 21
1118.3741
  0
LINE
  8
_0-0_LAYER001
  6
CONTINUOUS
 62
    4
 10
1427.4874
 20
1117.2739999999999
 11
1431.6763999999998
 21
1117.9702
  0
LINE
  8
_0-0_LAYER001
  6
CONTINUOUS
 62
    4
 10
1423.2936
 20
1116.5784000000001
 11
1427.4874
 21
1117.2739999999999
  0
LINE
  8
_0-0_LAYER001
  6
CONTINUOUS
 62
    4
 10
1419.0948000000001
 20
1115.8844999999999
 11
1423.2936
 21
1116.5784000000001
  0
LINE
  8
_0-0_LAYER001
  6
CONTINUOUS
 62
    4
 10
1414.8908000000001
 20
1115.193
 11
1419.0948000000001
 21
1115.8844999999999
  0
LINE
  8
_0-0_LAYER001
  6
CONTINUOUS
 62
    4
 10
1410.6839
 20
1114.5053
 11
1414.8908000000001
 21
1115.193
  0
LINE
  8
_0-0_LAYER001
  6
CONTINUOUS
 62
    4
 10
1408.2316000000001
 20
1114.1068
 11
1410.6839
 21
1114.5053
  0
LINE
  8
_0-0_LAYER001
  6
CONTINUOUS
 62
    4
 10
1403.4989
 20
1113.3444
 11
1408.2316000000001
 21
1114.1068
  0
LINE
  8
_0-0_LAYER001
  6
CONTINUOUS
 62
    4
 10
1395.2945
 20
1112.0605
 11
1403.4989
 21
1113.3444
  0
LINE
  8
_0-0_LAYER001
  6
CONTINUOUS
 62
    4
 10
1386.9870000000001
 20
1110.8407
 11
1395.2945
 21
1112.0605
  0
LINE
  8
_0-0_LAYER001
  6
CONTINUOUS
 62
    4
 10
1378.5787
 20
1109.7243000000001
 11
1386.9870000000001
 21
1110.8407
  0
LINE
  8
_0-0_LAYER001
  6
CONTINUOUS
 62
    4
 10
1370.0661
 20
1108.7509
 11
1378.5787
 21
1109.7243000000001
  0
LINE
  8
_0-0_LAYER001
  6
CONTINUOUS
 62
    4
 10
1361.5070000000001
 20
1107.9668999999999
 11
1370.0661
 21
1108.7509
  0
LINE
  8
_0-0_LAYER001
  6
CONTINUOUS
 62
    4
 10
1356.4454000000001
 20
1107.6088999999999
 11
1361.5070000000001
 21
1107.9668999999999
  0
LINE
  8
_0-0_LAYER001
  6
CONTINUOUS
 62
    4
 10
1353.6429000000001
 20
1107.4473
 11
1356.4454000000001
 21
1107.6088999999999
  0
LINE
  8
_0-0_LAYER001
  6
CONTINUOUS
 62
    4
 10
1348.9218000000001
 20
1107.2433000000001
 11
1353.6429000000001
 21
1107.4473
  0
LINE
  8
_0-0_LAYER001
  6
CONTINUOUS
 62
    4
 10
1344.0925999999999
 20
1107.1378999999999
 11
1348.9218000000001
 21
1107.2433000000001
  0
LINE
  8
_0-0_LAYER001
  6
CONTINUOUS
 62
    4
 10
1339.1910000000003
 20
1107.1532999999999
 11
1344.0925999999999
 21
1107.1378999999999
  0
LINE
  8
_0-0_LAYER001
  6
CONTINUOUS
 62
    4
 10
1334.2199000000001
 20
1107.3110999999999
 11
1339.1910000000003
 21
1107.1532999999999
  0
LINE
  8
_0-0_LAYER001
  6
CONTINUOUS
 62
    4
 10
1329.2626
 20
1107.6288999999999
 11
1334.2199000000001
 21
1107.3110999999999
  0
LINE
  8
_0-0_LAYER001
  6
CONTINUOUS
 62
    4
 10
1326.2109
 20
1107.9103
 11
1329.2626
 21
1107.6288999999999
  0
LINE
  8
_0-0_LAYER001
  6
CONTINUOUS
 62
    4
 10
1322.2819999999999
 20
1108.3725999999999
 11
1326.2109
 21
1107.9103
  0
LINE
  8
_0-0_LAYER001
  6
CONTINUOUS
 62
    4
 10
1315.7681
 20
1109.3951
 11
1322.2819999999999
 21
1108.3725999999999
  0
LINE
  8
_0-0_LAYER001
  6
CONTINUOUS
 62
    4
 10
1309.2215000000001
 20
1110.7472
 11
1315.7681
 21
1109.3951
  0
LINE
  8
_0-0_LAYER001
  6
CONTINUOUS
 62
    4
 10
1302.7584999999999
 20
1112.4031
 11
1309.2215000000001
 21
1110.7472
  0
LINE
  8
_0-0_LAYER001
  6
CONTINUOUS
 62
    4
 10
1296.3925999999997
 20
1114.3538000000001
 11
1302.7584999999999
 21
1112.4031
  0
LINE
  8
_0-0_LAYER001
  6
CONTINUOUS
 62
    4
 10
1290.2277999999999
 20
1116.5588
 11
1296.3925999999997
 21
1114.3538000000001
  0
LINE
  8
_0-0_LAYER001
  6
CONTINUOUS
 62
    4
 10
1286.5411999999997
 20
1118.0305000000001
 11
1290.2277999999999
 21
1116.5588
  0
LINE
  8
_0-0_LAYER001
  6
CONTINUOUS
 62
    4
 10
1282.1768999999999
 20
1119.9231
 11
1286.5411999999997
 21
1118.0305000000001
  0
LINE
  8
_0-0_LAYER001
  6
CONTINUOUS
 62
    4
 10
1275.1079
 20
1123.338
 11
1282.1768999999999
 21
1119.9231
  0
LINE
  8
_0-0_LAYER001
  6
CONTINUOUS
 62
    4
 10
1268.2149999999999
 20
1127.0677000000001
 11
1275.1079
 21
1123.338
  0
LINE
  8
_0-0_LAYER001
  6
CONTINUOUS
 62
    4
 10
1261.578
 20
1131.0012999999999
 11
1268.2149999999999
 21
1127.0677000000001
  0
LINE
  8
_0-0_LAYER001
  6
CONTINUOUS
 62
    4
 10
1255.1686
 20
1135.0838000000001
 11
1261.578
 21
1131.0012999999999
  0
LINE
  8
_0-0_LAYER001
  6
CONTINUOUS
 62
    4
 10
1248.9844000000001
 20
1139.2458999999999
 11
1255.1686
 21
1135.0838000000001
  0
LINE
  8
_0-0_LAYER001
  6
CONTINUOUS
 62
    4
 10
1245.4421
 20
1141.7095999999999
 11
1248.9844000000001
 21
1139.2458999999999
  0
LINE
  8
_0-0_LAYER001
  6
CONTINUOUS
 62
    4
 10
1243.2101
 20
1143.2831000000001
 11
1245.4421
 21
1141.7095999999999
  0
LINE
  8
_0-0_LAYER001
  6
CONTINUOUS
 62
    4
 10
1239.5864999999999
 20
1145.8223
 11
1243.2101
 21
1143.2831000000001
  0
LINE
  8
_0-0_LAYER001
  6
CONTINUOUS
 62
    4
 10
1236.2168999999999
 20
1148.0878
 11
1239.5864999999999
 21
1145.8223
  0
LINE
  8
_0-0_LAYER001
  6
CONTINUOUS
 62
    4
 10
1233.1018999999999
 20
1150.0147999999999
 11
1236.2168999999999
 21
1148.0878
  0
LINE
  8
_0-0_LAYER001
  6
CONTINUOUS
 62
    4
 10
1230.2347
 20
1151.5706
 11
1233.1018999999999
 21
1150.0147999999999
  0
LINE
  8
_0-0_LAYER001
  6
CONTINUOUS
 62
    4
 10
1227.4036000000001
 20
1152.8389999999999
 11
1230.2347
 21
1151.5706
  0
LINE
  8
_0-0_LAYER001
  6
CONTINUOUS
 62
    4
 10
1225.9403
 20
1153.3712
 11
1227.4036000000001
 21
1152.8389999999999
  0
LINE
  8
_0-0_LAYER001
  6
CONTINUOUS
 62
    4
 10
1225.7592
 20
1153.4291000000001
 11
1225.9403
 21
1153.3712
  0
LINE
  8
_0-0_LAYER001
  6
CONTINUOUS
 62
    4
 10
1224.971
 20
1153.6570999999999
 11
1225.7592
 21
1153.4291000000001
  0
LINE
  8
_0-0_LAYER001
  6
CONTINUOUS
 62
    4
 10
1224.3137999999999
 20
1153.8198
 11
1224.971
 21
1153.6570999999999
  0
LINE
  8
_0-0_LAYER001
  6
CONTINUOUS
 62
    4
 10
1223.732
 20
1153.9377999999999
 11
1224.3137999999999
 21
1153.8198
  0
LINE
  8
_0-0_LAYER001
  6
CONTINUOUS
 62
    4
 10
1223.692
 20
1153.944
 11
1223.732
 21
1153.9377999999999
  0
LINE
  8
_0-0_LAYER001
  6
CONTINUOUS
 62
    4
 10
1427.6658
 20
1098.7828
 11
1429.2799
 21
1099.0512000000001
  0
LINE
  8
_0-0_LAYER001
  6
CONTINUOUS
 62
    4
 10
1423.4772
 20
1098.0866000000001
 11
1427.6658
 21
1098.7828
  0
LINE
  8
_0-0_LAYER001
  6
CONTINUOUS
 62
    4
 10
1419.2842999999998
 20
1097.3912
 11
1423.4772
 21
1098.0866000000001
  0
LINE
  8
_0-0_LAYER001
  6
CONTINUOUS
 62
    4
 10
1415.0869
 20
1096.6974
 11
1419.2842999999998
 21
1097.3912
  0
LINE
  8
_0-0_LAYER001
  6
CONTINUOUS
 62
    4
 10
1410.8845999999999
 20
1096.0062
 11
1415.0869
 21
1096.6974
  0
LINE
  8
_0-0_LAYER001
  6
CONTINUOUS
 62
    4
 10
1406.6795999999999
 20
1095.3189
 11
1410.8845999999999
 21
1096.0062
  0
LINE
  8
_0-0_LAYER001
  6
CONTINUOUS
 62
    4
 10
1404.2295999999999
 20
1094.9206999999999
 11
1406.6795999999999
 21
1095.3189
  0
LINE
  8
_0-0_LAYER001
  6
CONTINUOUS
 62
    4
 10
1399.5026000000003
 20
1094.1592000000001
 11
1404.2295999999999
 21
1094.9206999999999
  0
LINE
  8
_0-0_LAYER001
  6
CONTINUOUS
 62
    4
 10
1391.3119999999999
 20
1092.8775000000001
 11
1399.5026000000003
 21
1094.1592000000001
  0
LINE
  8
_0-0_LAYER001
  6
CONTINUOUS
 62
    4
 10
1383.0275000000001
 20
1091.6610000000001
 11
1391.3119999999999
 21
1092.8775000000001
  0
LINE
  8
_0-0_LAYER001
  6
CONTINUOUS
 62
    4
 10
1374.6509000000001
 20
1090.5489
 11
1383.0275000000001
 21
1091.6610000000001
  0
LINE
  8
_0-0_LAYER001
  6
CONTINUOUS
 62
    4
 10
1366.1786999999999
 20
1089.5800999999999
 11
1374.6509000000001
 21
1090.5489
  0
LINE
  8
_0-0_LAYER001
  6
CONTINUOUS
 62
    4
 10
1357.6626000000001
 20
1088.8000999999999
 11
1366.1786999999999
 21
1089.5800999999999
  0
LINE
  8
_0-0_LAYER001
  6
CONTINUOUS
 62
    4
 10
1352.6347000000001
 20
1088.4444000000001
 11
1357.6626000000001
 21
1088.8000999999999
  0
LINE
  8
_0-0_LAYER001
  6
CONTINUOUS
 62
    4
 10
1349.8595
 20
1088.2844
 11
1352.6347000000001
 21
1088.4444000000001
  0
LINE
  8
_0-0_LAYER001
  6
CONTINUOUS
 62
    4
 10
1345.1741999999999
 20
1088.0820000000001
 11
1349.8595
 21
1088.2844
  0
LINE
  8
_0-0_LAYER001
  6
CONTINUOUS
 62
    4
 10
1340.3913
 20
1087.9775999999999
 11
1345.1741999999999
 21
1088.0820000000001
  0
LINE
  8
_0-0_LAYER001
  6
CONTINUOUS
 62
    4
 10
1335.5432999999998
 20
1087.9928
 11
1340.3913
 21
1087.9775999999999
  0
LINE
  8
_0-0_LAYER001
  6
CONTINUOUS
 62
    4
 10
1330.6331
 20
1088.1487
 11
1335.5432999999998
 21
1087.9928
  0
LINE
  8
_0-0_LAYER001
  6
CONTINUOUS
 62
    4
 10
1325.7357999999999
 20
1088.4626000000001
 11
1330.6331
 21
1088.1487
  0
LINE
  8
_0-0_LAYER001
  6
CONTINUOUS
 62
    4
 10
1322.7370000000001
 20
1088.7391
 11
1325.7357999999999
 21
1088.4626000000001
  0
LINE
  8
_0-0_LAYER001
  6
CONTINUOUS
 62
    4
 10
1318.8715
 20
1089.1939
 11
1322.7370000000001
 21
1088.7391
  0
LINE
  8
_0-0_LAYER001
  6
CONTINUOUS
 62
    4
 10
1312.4431
 20
1090.2030999999999
 11
1318.8715
 21
1089.1939
  0
LINE
  8
_0-0_LAYER001
  6
CONTINUOUS
 62
    4
 10
1305.9896000000001
 20
1091.5360000000001
 11
1312.4431
 21
1090.2030999999999
  0
LINE
  8
_0-0_LAYER001
  6
CONTINUOUS
 62
    4
 10
1299.6174000000001
 20
1093.1686
 11
1305.9896000000001
 21
1091.5360000000001
  0
LINE
  8
_0-0_LAYER001
  6
CONTINUOUS
 62
    4
 10
1293.3400999999999
 20
1095.0921000000001
 11
1299.6174000000001
 21
1093.1686
  0
LINE
  8
_0-0_LAYER001
  6
CONTINUOUS
 62
    4
 10
1287.2530000000002
 20
1097.2692999999999
 11
1293.3400999999999
 21
1095.0921000000001
  0
LINE
  8
_0-0_LAYER001
  6
CONTINUOUS
 62
    4
 10
1283.6274000000001
 20
1098.7166999999999
 11
1287.2530000000002
 21
1097.2692999999999
  0
LINE
  8
_0-0_LAYER001
  6
CONTINUOUS
 62
    4
 10
1279.3275000000001
 20
1100.5813000000001
 11
1283.6274000000001
 21
1098.7166999999999
  0
LINE
  8
_0-0_LAYER001
  6
CONTINUOUS
 62
    4
 10
1272.3366000000001
 20
1103.9585
 11
1279.3275000000001
 21
1100.5813000000001
  0
LINE
  8
_0-0_LAYER001
  6
CONTINUOUS
 62
    4
 10
1265.5184999999999
 20
1107.6477
 11
1272.3366000000001
 21
1103.9585
  0
LINE
  8
_0-0_LAYER001
  6
CONTINUOUS
 62
    4
 10
1258.9428
 20
1111.5450000000001
 11
1265.5184999999999
 21
1107.6477
  0
LINE
  8
_0-0_LAYER001
  6
CONTINUOUS
 62
    4
 10
1252.5817999999999
 20
1115.5967000000001
 11
1258.9428
 21
1111.5450000000001
  0
LINE
  8
_0-0_LAYER001
  6
CONTINUOUS
 62
    4
 10
1246.4312
 20
1119.7362000000001
 11
1252.5817999999999
 21
1115.5967000000001
  0
LINE
  8
_0-0_LAYER001
  6
CONTINUOUS
 62
    4
 10
1242.9067
 20
1122.1875
 11
1246.4312
 21
1119.7362000000001
  0
LINE
  8
_0-0_LAYER001
  6
CONTINUOUS
 62
    4
 10
1240.6776
 20
1123.759
 11
1242.9067
 21
1122.1875
  0
LINE
  8
_0-0_LAYER001
  6
CONTINUOUS
 62
    4
 10
1237.0359000000001
 20
1126.3108
 11
1240.6776
 21
1123.759
  0
LINE
  8
_0-0_LAYER001
  6
CONTINUOUS
 62
    4
 10
1233.6187
 20
1128.6083000000001
 11
1237.0359000000001
 21
1126.3108
  0
LINE
  8
_0-0_LAYER001
  6
CONTINUOUS
 62
    4
 10
1230.4231
 20
1130.5852
 11
1233.6187
 21
1128.6083000000001
  0
LINE
  8
_0-0_LAYER001
  6
CONTINUOUS
 62
    4
 10
1227.4392
 20
1132.2043000000001
 11
1230.4231
 21
1130.5852
  0
LINE
  8
_0-0_LAYER001
  6
CONTINUOUS
 62
    4
 10
1224.4726000000001
 20
1133.5334
 11
1227.4392
 21
1132.2043000000001
  0
LINE
  8
_0-0_LAYER001
  6
CONTINUOUS
 62
    4
 10
1223.7226000000001
 20
1133.8062
 11
1224.4726000000001
 21
1133.5334
  0
LINE
  8
_0-0_LAYER001
  6
CONTINUOUS
 62
    4
 10
1224.0556999999999
 20
1153.8493000000001
 11
1223.8797
 21
1133.6759
  0
LINE
  8
_0-0_LAYER001
  6
CONTINUOUS
 62
    4
 10
1471.8697999999999
 20
1108.8377
 11
1429.0496000000003
 21
1098.9165
  0
ARC
  8
_0-0_LAYER001
  6
CONTINUOUS
 62
    4
 10
1471.6441
 20
1109.8118999999999
 40
1
 50
283.04496999999998
 51
359.5
  0
LINE
  8
_0-0_LAYER001
  6
CONTINUOUS
 62
    4
 10
1424.5587
 20
1088.6030000000001
 11
1422.3133000000003
 21
1097.1764000000001
  0
ARC
  8
_0-0_LAYER001
  6
CONTINUOUS
 62
    4
 10
1427.4608000000001
 20
1089.3630000000001
 40
3
 50
194.67639000000003
 51
270.00000000000006
  0
LINE
  8
_0-0_LAYER001
  6
CONTINUOUS
 62
    4
 10
1430.8786
 20
1086.3630000000001
 11
1427.4608000000001
 21
1086.3630000000001
  0
LINE
  8
_0-0_LAYER001
  6
CONTINUOUS
 62
    4
 10
1433.8377999999998
 20
1088.8697999999999
 11
1435.7719000000002
 21
1100.4739999999999
  0
ARC
  8
_0-0_LAYER001
  6
CONTINUOUS
 62
    4
 10
1430.8786
 20
1089.3630000000001
 40
3
 50
270
 51
350.53766999999999
  0
LINE
  8
_0-0_LAYER001
  6
CONTINUOUS
 62
    4
 10
1177.9717000000001
 20
1157.5112999999999
 11
1177.9717000000001
 21
1140.9788000000001
  0
LINE
  8
_0-0_LAYER001
  6
CONTINUOUS
 62
    4
 10
1179.2306000000001
 20
1159.3688999999999
 11
1180.3556000000001
 21
1159.8177000000001
  0
ARC
  8
_0-0_LAYER001
  6
CONTINUOUS
 62
    4
 10
1179.9717000000001
 20
1157.5112999999999
 40
2
 50
111.74902000000002
 51
180
  0
LINE
  8
_0-0_LAYER001
  6
CONTINUOUS
 62
    4
 10
1472.0473999999999
 20
1129.1859999999999
 11
1432.9717000000001
 21
1120.1324
  0
LINE
  8
_0-0_LAYER001
  6
CONTINUOUS
 62
    4
 10
1432.9717000000001
 20
1138.6092000000001
 11
1432.9717000000001
 21
1120.1324
  0
LINE
  8
_0-0_LAYER001
  6
CONTINUOUS
 62
    4
 10
1430.9474
 20
1138.1402
 11
1464.1966000000002
 21
1145.8439000000001
  0
LINE
  8
_0-0_LAYER001
  6
CONTINUOUS
 62
    4
 10
1472.9081000000001
 20
1149.2180000000001
 11
1472.9081000000001
 21
1130.1378999999999
  0
LINE
  8
_0-0_LAYER001
  6
CONTINUOUS
 62
    4
 10
1473.0155
 20
1128.1510000000001
 11
1473.0155
 21
1109.9798000000001
  0
LINE
  8
_0-0_LAYER001
  6
CONTINUOUS
 62
    4
 10
1554.9814999999999
 20
1079.0648000000001
 11
1546.4459999999999
 21
1093.5980999999999
  0
LINE
  8
_0-0_LAYER001
  6
CONTINUOUS
 62
    4
 10
1563.1493
 20
1078.4145000000001
 11
1571.4555
 21
1088.48
  0
ARC
  8
_0-0_LAYER001
  6
CONTINUOUS
 62
    4
 10
1559.2928999999999
 20
1081.5969
 40
5
 50
210.42578
 51
320.47001
  0
LINE
  8
_0-0_LAYER001
  6
CONTINUOUS
 62
    4
 10
1639.0949000000001
 20
1077.9446
 11
1631.7696000000001
 21
1089.2507000000001
  0
LINE
  8
_0-0_LAYER001
  6
CONTINUOUS
 62
    4
 10
1647.6044999999999
 20
1078.1346000000001
 11
1656.5428999999999
 21
1093.3802000000001
  0
ARC
  8
_0-0_LAYER001
  6
CONTINUOUS
 62
    4
 10
1643.2912000000001
 20
1080.6633999999999
 40
5
 50
212.93986000000001
 51
329.61716000000001
  0
ARC
  8
_0-0_LAYER001
  6
CONTINUOUS
 62
    4
 10
1722.4081999999999
 20
1145.7308
 40
3
 50
103.0288
 51
179.49999999999997
  0
LINE
  8
_0-0_LAYER001
  6
CONTINUOUS
 62
    4
 10
1434.4819000000002
 20
1139.7561000000001
 11
1440.8741
 21
1142.2782
  0
ARC
  8
_0-0_LAYER001
  6
CONTINUOUS
 62
    4
 10
1434.1149
 20
1140.6864
 40
1
 50
179.5
 51
291.53165999999999
  0
LINE
  8
_0-0_LAYER001
  6
CONTINUOUS
 62
    4
 10
1726.9722000000002
 20
1149.8661
 11
1721.7319000000002
 21
1148.6534999999999
  0
ARC
  8
_0-0_LAYER001
  6
CONTINUOUS
 62
    4
 10
1727.1976
 20
1148.8919000000001
 40
1
 50
359.50000000000006
 51
103.02880000000002
  0
LINE
  8
_0-0_LAYER001
  6
CONTINUOUS
 62
    4
 10
1689.3571999999999
 20
1118.1957
 11
1719.6709999999998
 21
1125.2897
  0
ARC
  8
_0-0_LAYER001
  6
CONTINUOUS
 62
    4
 10
1727.0118000000002
 20
1127.5989999999999
 40
1
 50
359.50000000000006
 51
103.08296000000006
  0
LINE
  8
_0-0_LAYER001
  6
CONTINUOUS
 62
    4
 10
1720.4520000000002
 20
1127.1012000000001
 11
1726.7854000000002
 21
1128.5730000000001
  0
LINE
  8
_0-0_LAYER001
  6
CONTINUOUS
 62
    4
 10
1719.6783999999998
 20
1126.1359
 11
1719.6709999999998
 21
1125.2897
  0
ARC
  8
_0-0_LAYER001
  6
CONTINUOUS
 62
    4
 10
1720.6783
 20
1126.1270999999999
 40
1
 50
103.08296000000001
 51
179.50000000000003
  0
ARC
  8
_0-0_LAYER001
  6
CONTINUOUS
 62
    4
 10
1727.0317
 20
1129.8822
 40
1
 50
283.04496999999998
 51
359.5
  0
LINE
  8
_0-0_LAYER001
  6
CONTINUOUS
 62
    4
 10
1686.8865000000001
 20
1117.6922
 11
1689.3146000000002
 21
1118.0961
  0
LINE
  8
_0-0_LAYER001
  6
CONTINUOUS
 62
    4
 10
1682.6975000000002
 20
1116.9958999999999
 11
1686.8865000000001
 21
1117.6922
  0
LINE
  8
_0-0_LAYER001
  6
CONTINUOUS
 62
    4
 10
1678.5037000000002
 20
1116.3004000000001
 11
1682.6975000000002
 21
1116.9958999999999
  0
LINE
  8
_0-0_LAYER001
  6
CONTINUOUS
 62
    4
 10
1674.3049000000001
 20
1115.6063999999999
 11
1678.5037000000002
 21
1116.3004000000001
  0
LINE
  8
_0-0_LAYER001
  6
CONTINUOUS
 62
    4
 10
1670.1008999999999
 20
1114.9149
 11
1674.3049000000001
 21
1115.6063999999999
  0
LINE
  8
_0-0_LAYER001
  6
CONTINUOUS
 62
    4
 10
1665.8939999999998
 20
1114.2273
 11
1670.1008999999999
 21
1114.9149
  0
LINE
  8
_0-0_LAYER001
  6
CONTINUOUS
 62
    4
 10
1663.4416999999999
 20
1113.8288
 11
1665.8939999999998
 21
1114.2273
  0
LINE
  8
_0-0_LAYER001
  6
CONTINUOUS
 62
    4
 10
1658.7089999999998
 20
1113.0663
 11
1663.4416999999999
 21
1113.8288
  0
LINE
  8
_0-0_LAYER001
  6
CONTINUOUS
 62
    4
 10
1650.5045
 20
1111.7824000000001
 11
1658.7089999999998
 21
1113.0663
  0
LINE
  8
_0-0_LAYER001
  6
CONTINUOUS
 62
    4
 10
1642.1970999999999
 20
1110.5626
 11
1650.5045
 21
1111.7824000000001
  0
LINE
  8
_0-0_LAYER001
  6
CONTINUOUS
 62
    4
 10
1633.7887999999998
 20
1109.4462000000001
 11
1642.1970999999999
 21
1110.5626
  0
LINE
  8
_0-0_LAYER001
  6
CONTINUOUS
 62
    4
 10
1625.2761999999998
 20
1108.4729
 11
1633.7887999999998
 21
1109.4462000000001
  0
LINE
  8
_0-0_LAYER001
  6
CONTINUOUS
 62
    4
 10
1616.7170999999998
 20
1107.6889000000001
 11
1625.2761999999998
 21
1108.4729
  0
LINE
  8
_0-0_LAYER001
  6
CONTINUOUS
 62
    4
 10
1611.6554999999998
 20
1107.3308999999999
 11
1616.7170999999998
 21
1107.6889000000001
  0
LINE
  8
_0-0_LAYER001
  6
CONTINUOUS
 62
    4
 10
1608.8530000000001
 20
1107.1693
 11
1611.6554999999998
 21
1107.3308999999999
  0
LINE
  8
_0-0_LAYER001
  6
CONTINUOUS
 62
    4
 10
1604.1318999999999
 20
1106.9653000000001
 11
1608.8530000000001
 21
1107.1693
  0
LINE
  8
_0-0_LAYER001
  6
CONTINUOUS
 62
    4
 10
1599.3027000000002
 20
1106.8598999999999
 11
1604.1318999999999
 21
1106.9653000000001
  0
LINE
  8
_0-0_LAYER001
  6
CONTINUOUS
 62
    4
 10
1594.4011
 20
1106.8751999999999
 11
1599.3027000000002
 21
1106.8598999999999
  0
LINE
  8
_0-0_LAYER001
  6
CONTINUOUS
 62
    4
 10
1589.4299999999998
 20
1107.0331000000001
 11
1594.4011
 21
1106.8751999999999
  0
LINE
  8
_0-0_LAYER001
  6
CONTINUOUS
 62
    4
 10
1584.4726000000001
 20
1107.3507999999999
 11
1589.4299999999998
 21
1107.0331000000001
  0
LINE
  8
_0-0_LAYER001
  6
CONTINUOUS
 62
    4
 10
1581.4209999999998
 20
1107.6323
 11
1584.4726000000001
 21
1107.3507999999999
  0
LINE
  8
_0-0_LAYER001
  6
CONTINUOUS
 62
    4
 10
1577.4920999999999
 20
1108.0944999999999
 11
1581.4209999999998
 21
1107.6323
  0
LINE
  8
_0-0_LAYER001
  6
CONTINUOUS
 62
    4
 10
1570.9782
 20
1109.1170999999999
 11
1577.4920999999999
 21
1108.0944999999999
  0
LINE
  8
_0-0_LAYER001
  6
CONTINUOUS
 62
    4
 10
1564.4315999999999
 20
1110.4692
 11
1570.9782
 21
1109.1170999999999
  0
LINE
  8
_0-0_LAYER001
  6
CONTINUOUS
 62
    4
 10
1557.9686000000002
 20
1112.1251
 11
1564.4315999999999
 21
1110.4692
  0
LINE
  8
_0-0_LAYER001
  6
CONTINUOUS
 62
    4
 10
1551.6026999999999
 20
1114.0758000000001
 11
1557.9686000000002
 21
1112.1251
  0
LINE
  8
_0-0_LAYER001
  6
CONTINUOUS
 62
    4
 10
1545.4378999999999
 20
1116.2807
 11
1551.6026999999999
 21
1114.0758000000001
  0
LINE
  8
_0-0_LAYER001
  6
CONTINUOUS
 62
    4
 10
1541.7512999999999
 20
1117.7525000000001
 11
1545.4378999999999
 21
1116.2807
  0
LINE
  8
_0-0_LAYER001
  6
CONTINUOUS
 62
    4
 10
1537.3870000000002
 20
1119.645
 11
1541.7512999999999
 21
1117.7525000000001
  0
LINE
  8
_0-0_LAYER001
  6
CONTINUOUS
 62
    4
 10
1530.3180000000002
 20
1123.0599999999999
 11
1537.3870000000002
 21
1119.645
  0
LINE
  8
_0-0_LAYER001
  6
CONTINUOUS
 62
    4
 10
1523.4250999999999
 20
1126.7896000000001
 11
1530.3180000000002
 21
1123.0599999999999
  0
LINE
  8
_0-0_LAYER001
  6
CONTINUOUS
 62
    4
 10
1516.7881000000002
 20
1130.7233000000001
 11
1523.4250999999999
 21
1126.7896000000001
  0
LINE
  8
_0-0_LAYER001
  6
CONTINUOUS
 62
    4
 10
1510.3787000000002
 20
1134.8056999999999
 11
1516.7881000000002
 21
1130.7233000000001
  0
LINE
  8
_0-0_LAYER001
  6
CONTINUOUS
 62
    4
 10
1504.1945000000001
 20
1138.9679000000001
 11
1510.3787000000002
 21
1134.8056999999999
  0
LINE
  8
_0-0_LAYER001
  6
CONTINUOUS
 62
    4
 10
1500.6522
 20
1141.4315999999999
 11
1504.1945000000001
 21
1138.9679000000001
  0
LINE
  8
_0-0_LAYER001
  6
CONTINUOUS
 62
    4
 10
1498.4202
 20
1143.0050000000001
 11
1500.6522
 21
1141.4315999999999
  0
LINE
  8
_0-0_LAYER001
  6
CONTINUOUS
 62
    4
 10
1494.7966000000001
 20
1145.5442
 11
1498.4202
 21
1143.0050000000001
  0
LINE
  8
_0-0_LAYER001
  6
CONTINUOUS
 62
    4
 10
1491.4270000000001
 20
1147.8097
 11
1494.7966000000001
 21
1145.5442
  0
LINE
  8
_0-0_LAYER001
  6
CONTINUOUS
 62
    4
 10
1488.3119999999999
 20
1149.7367999999999
 11
1491.4270000000001
 21
1147.8097
  0
LINE
  8
_0-0_LAYER001
  6
CONTINUOUS
 62
    4
 10
1485.4448000000002
 20
1151.2925
 11
1488.3119999999999
 21
1149.7367999999999
  0
LINE
  8
_0-0_LAYER001
  6
CONTINUOUS
 62
    4
 10
1482.6136000000001
 20
1152.5609999999999
 11
1485.4448000000002
 21
1151.2925
  0
LINE
  8
_0-0_LAYER001
  6
CONTINUOUS
 62
    4
 10
1481.1504
 20
1153.0931
 11
1482.6136000000001
 21
1152.5609999999999
  0
LINE
  8
_0-0_LAYER001
  6
CONTINUOUS
 62
    4
 10
1480.9693000000002
 20
1153.1511
 11
1481.1504
 21
1153.0931
  0
LINE
  8
_0-0_LAYER001
  6
CONTINUOUS
 62
    4
 10
1480.1810999999998
 20
1153.3789999999999
 11
1480.9693000000002
 21
1153.1511
  0
LINE
  8
_0-0_LAYER001
  6
CONTINUOUS
 62
    4
 10
1479.5239000000001
 20
1153.5417
 11
1480.1810999999998
 21
1153.3789999999999
  0
LINE
  8
_0-0_LAYER001
  6
CONTINUOUS
 62
    4
 10
1478.9421000000002
 20
1153.6596999999999
 11
1479.5239000000001
 21
1153.5417
  0
LINE
  8
_0-0_LAYER001
  6
CONTINUOUS
 62
    4
 10
1478.9020999999998
 20
1153.6659
 11
1478.9421000000002
 21
1153.6596999999999
  0
LINE
  8
_0-0_LAYER001
  6
CONTINUOUS
 62
    4
 10
1682.8759
 20
1098.5047
 11
1684.4899999999998
 21
1098.7732000000001
  0
LINE
  8
_0-0_LAYER001
  6
CONTINUOUS
 62
    4
 10
1678.6873000000001
 20
1097.8085000000001
 11
1682.8759
 21
1098.5047
  0
LINE
  8
_0-0_LAYER001
  6
CONTINUOUS
 62
    4
 10
1674.4944
 20
1097.1131
 11
1678.6873000000001
 21
1097.8085000000001
  0
LINE
  8
_0-0_LAYER001
  6
CONTINUOUS
 62
    4
 10
1670.297
 20
1096.4194
 11
1674.4944
 21
1097.1131
  0
LINE
  8
_0-0_LAYER001
  6
CONTINUOUS
 62
    4
 10
1666.0947000000001
 20
1095.7282
 11
1670.297
 21
1096.4194
  0
LINE
  8
_0-0_LAYER001
  6
CONTINUOUS
 62
    4
 10
1661.8897000000002
 20
1095.0408
 11
1666.0947000000001
 21
1095.7282
  0
LINE
  8
_0-0_LAYER001
  6
CONTINUOUS
 62
    4
 10
1659.4396999999999
 20
1094.6427000000001
 11
1661.8897000000002
 21
1095.0408
  0
LINE
  8
_0-0_LAYER001
  6
CONTINUOUS
 62
    4
 10
1654.7127
 20
1093.8812
 11
1659.4396999999999
 21
1094.6427000000001
  0
LINE
  8
_0-0_LAYER001
  6
CONTINUOUS
 62
    4
 10
1646.5221000000001
 20
1092.5994000000001
 11
1654.7127
 21
1093.8812
  0
LINE
  8
_0-0_LAYER001
  6
CONTINUOUS
 62
    4
 10
1638.2375999999999
 20
1091.383
 11
1646.5221000000001
 21
1092.5994000000001
  0
LINE
  8
_0-0_LAYER001
  6
CONTINUOUS
 62
    4
 10
1629.8609999999999
 20
1090.2708
 11
1638.2375999999999
 21
1091.383
  0
LINE
  8
_0-0_LAYER001
  6
CONTINUOUS
 62
    4
 10
1621.3888000000002
 20
1089.3021000000001
 11
1629.8609999999999
 21
1090.2708
  0
LINE
  8
_0-0_LAYER001
  6
CONTINUOUS
 62
    4
 10
1612.8726999999999
 20
1088.5219999999999
 11
1621.3888000000002
 21
1089.3021000000001
  0
LINE
  8
_0-0_LAYER001
  6
CONTINUOUS
 62
    4
 10
1607.8447999999999
 20
1088.1664000000001
 11
1612.8726999999999
 21
1088.5219999999999
  0
LINE
  8
_0-0_LAYER001
  6
CONTINUOUS
 62
    4
 10
1605.0695999999998
 20
1088.0064
 11
1607.8447999999999
 21
1088.1664000000001
  0
LINE
  8
_0-0_LAYER001
  6
CONTINUOUS
 62
    4
 10
1600.3843000000002
 20
1087.8040000000001
 11
1605.0695999999998
 21
1088.0064
  0
LINE
  8
_0-0_LAYER001
  6
CONTINUOUS
 62
    4
 10
1595.6014
 20
1087.6994999999999
 11
1600.3843000000002
 21
1087.8040000000001
  0
LINE
  8
_0-0_LAYER001
  6
CONTINUOUS
 62
    4
 10
1590.7534000000001
 20
1087.7147
 11
1595.6014
 21
1087.6994999999999
  0
LINE
  8
_0-0_LAYER001
  6
CONTINUOUS
 62
    4
 10
1585.8431999999998
 20
1087.8706999999999
 11
1590.7534000000001
 21
1087.7147
  0
LINE
  8
_0-0_LAYER001
  6
CONTINUOUS
 62
    4
 10
1580.9459000000002
 20
1088.1846
 11
1585.8431999999998
 21
1087.8706999999999
  0
LINE
  8
_0-0_LAYER001
  6
CONTINUOUS
 62
    4
 10
1577.9470999999999
 20
1088.4611
 11
1580.9459000000002
 21
1088.1846
  0
LINE
  8
_0-0_LAYER001
  6
CONTINUOUS
 62
    4
 10
1574.0816
 20
1088.9159
 11
1577.9470999999999
 21
1088.4611
  0
LINE
  8
_0-0_LAYER001
  6
CONTINUOUS
 62
    4
 10
1567.6532000000002
 20
1089.925
 11
1574.0816
 21
1088.9159
  0
LINE
  8
_0-0_LAYER001
  6
CONTINUOUS
 62
    4
 10
1561.1997000000001
 20
1091.2579000000001
 11
1567.6532000000002
 21
1089.925
  0
LINE
  8
_0-0_LAYER001
  6
CONTINUOUS
 62
    4
 10
1554.8274999999999
 20
1092.8905
 11
1561.1997000000001
 21
1091.2579000000001
  0
LINE
  8
_0-0_LAYER001
  6
CONTINUOUS
 62
    4
 10
1548.5502000000001
 20
1094.8141000000001
 11
1554.8274999999999
 21
1092.8905
  0
LINE
  8
_0-0_LAYER001
  6
CONTINUOUS
 62
    4
 10
1542.4630999999999
 20
1096.9912999999999
 11
1548.5502000000001
 21
1094.8141000000001
  0
LINE
  8
_0-0_LAYER001
  6
CONTINUOUS
 62
    4
 10
1538.8375000000001
 20
1098.4386999999999
 11
1542.4630999999999
 21
1096.9912999999999
  0
LINE
  8
_0-0_LAYER001
  6
CONTINUOUS
 62
    4
 10
1534.5376000000001
 20
1100.3033
 11
1538.8375000000001
 21
1098.4386999999999
  0
LINE
  8
_0-0_LAYER001
  6
CONTINUOUS
 62
    4
 10
1527.5466999999999
 20
1103.6804999999999
 11
1534.5376000000001
 21
1100.3033
  0
LINE
  8
_0-0_LAYER001
  6
CONTINUOUS
 62
    4
 10
1520.7285999999999
 20
1107.3696
 11
1527.5466999999999
 21
1103.6804999999999
  0
LINE
  8
_0-0_LAYER001
  6
CONTINUOUS
 62
    4
 10
1514.1527999999998
 20
1111.2670000000001
 11
1520.7285999999999
 21
1107.3696
  0
LINE
  8
_0-0_LAYER001
  6
CONTINUOUS
 62
    4
 10
1507.7919000000002
 20
1115.3186000000001
 11
1514.1527999999998
 21
1111.2670000000001
  0
LINE
  8
_0-0_LAYER001
  6
CONTINUOUS
 62
    4
 10
1501.6412999999998
 20
1119.4581000000001
 11
1507.7919000000002
 21
1115.3186000000001
  0
LINE
  8
_0-0_LAYER001
  6
CONTINUOUS
 62
    4
 10
1498.1167999999998
 20
1121.9095
 11
1501.6412999999998
 21
1119.4581000000001
  0
LINE
  8
_0-0_LAYER001
  6
CONTINUOUS
 62
    4
 10
1495.8877000000002
 20
1123.4809
 11
1498.1167999999998
 21
1121.9095
  0
LINE
  8
_0-0_LAYER001
  6
CONTINUOUS
 62
    4
 10
1492.2460000000001
 20
1126.0328
 11
1495.8877000000002
 21
1123.4809
  0
LINE
  8
_0-0_LAYER001
  6
CONTINUOUS
 62
    4
 10
1488.8287999999998
 20
1128.3302000000001
 11
1492.2460000000001
 21
1126.0328
  0
LINE
  8
_0-0_LAYER001
  6
CONTINUOUS
 62
    4
 10
1485.6332000000002
 20
1130.3072
 11
1488.8287999999998
 21
1128.3302000000001
  0
LINE
  8
_0-0_LAYER001
  6
CONTINUOUS
 62
    4
 10
1482.6493
 20
1131.9263000000001
 11
1485.6332000000002
 21
1130.3072
  0
LINE
  8
_0-0_LAYER001
  6
CONTINUOUS
 62
    4
 10
1479.6826999999998
 20
1133.2554
 11
1482.6493
 21
1131.9263000000001
  0
LINE
  8
_0-0_LAYER001
  6
CONTINUOUS
 62
    4
 10
1478.9326999999998
 20
1133.5281
 11
1479.6826999999998
 21
1133.2554
  0
LINE
  8
_0-0_LAYER001
  6
CONTINUOUS
 62
    4
 10
1479.2658000000001
 20
1153.5713000000001
 11
1479.0898000000002
 21
1133.3978
  0
LINE
  8
_0-0_LAYER001
  6
CONTINUOUS
 62
    4
 10
1727.0799000000002
 20
1108.5597
 11
1684.2597000000001
 21
1098.6384
  0
ARC
  8
_0-0_LAYER001
  6
CONTINUOUS
 62
    4
 10
1726.8542000000002
 20
1109.5338999999999
 40
1
 50
283.04496999999998
 51
359.5
  0
LINE
  8
_0-0_LAYER001
  6
CONTINUOUS
 62
    4
 10
1679.7687999999998
 20
1088.3249000000001
 11
1677.5234
 21
1096.8984
  0
ARC
  8
_0-0_LAYER001
  6
CONTINUOUS
 62
    4
 10
1682.6709000000001
 20
1089.085
 40
3
 50
194.67639000000003
 51
270.00000000000006
  0
LINE
  8
_0-0_LAYER001
  6
CONTINUOUS
 62
    4
 10
1686.0886999999998
 20
1086.085
 11
1682.6709000000001
 21
1086.085
  0
LINE
  8
_0-0_LAYER001
  6
CONTINUOUS
 62
    4
 10
1689.0479
 20
1088.5917999999999
 11
1690.9819000000002
 21
1100.1959999999999
  0
ARC
  8
_0-0_LAYER001
  6
CONTINUOUS
 62
    4
 10
1686.0886999999998
 20
1089.085
 40
3
 50
270
 51
350.53766999999999
  0
LINE
  8
_0-0_LAYER001
  6
CONTINUOUS
 62
    4
 10
1433.1817999999998
 20
1157.2331999999999
 11
1433.1817999999998
 21
1140.7008000000001
  0
LINE
  8
_0-0_LAYER001
  6
CONTINUOUS
 62
    4
 10
1434.4407000000001
 20
1159.0908999999999
 11
1435.5657000000001
 21
1159.5397
  0
ARC
  8
_0-0_LAYER001
  6
CONTINUOUS
 62
    4
 10
1435.1817999999998
 20
1157.2331999999999
 40
2
 50
111.74902000000002
 51
180
  0
LINE
  8
_0-0_LAYER001
  6
CONTINUOUS
 62
    4
 10
1727.2574
 20
1128.9079999999999
 11
1688.1817999999998
 21
1119.8543
  0
LINE
  8
_0-0_LAYER001
  6
CONTINUOUS
 62
    4
 10
1688.1817999999998
 20
1138.3312000000001
 11
1688.1817999999998
 21
1119.8543
  0
LINE
  8
_0-0_LAYER001
  6
CONTINUOUS
 62
    4
 10
1728.1181999999999
 20
1148.9399000000001
 11
1728.1181999999999
 21
1129.8598
  0
LINE
  8
_0-0_LAYER001
  6
CONTINUOUS
 62
    4
 10
1728.2256000000002
 20
1127.8729000000001
 11
1728.2256000000002
 21
1109.7018
  0
LINE
  8
_0-0_LAYER001
  6
CONTINUOUS
 62
    4
 10
1690.1316000000002
 20
1159.4323999999999
 11
1690.9353999999998
 21
1159.7645
  0
LINE
  8
_0-0_LAYER001
  6
CONTINUOUS
 62
    4
 10
1690.9353999999998
 20
1159.7645
 11
1694.4409000000001
 21
1161.2148999999999
  0
LINE
  8
_0-0_LAYER001
  6
CONTINUOUS
 62
    4
 10
1694.4409000000001
 20
1161.2148999999999
 11
1697.9533999999999
 21
1162.6749
  0
LINE
  8
_0-0_LAYER001
  6
CONTINUOUS
 62
    4
 10
1697.9533999999999
 20
1162.6749
 11
1701.4774000000002
 21
1164.1503
  0
LINE
  8
_0-0_LAYER001
  6
CONTINUOUS
 62
    4
 10
1701.4774000000002
 20
1164.1503
 11
1705.0174999999999
 21
1165.6473000000001
  0
LINE
  8
_0-0_LAYER001
  6
CONTINUOUS
 62
    4
 10
1705.0174999999999
 20
1165.6473000000001
 11
1708.5781000000002
 21
1167.1719000000001
  0
LINE
  8
_0-0_LAYER001
  6
CONTINUOUS
 62
    4
 10
1708.5781000000002
 20
1167.1719000000001
 11
1710.6543999999999
 21
1168.0710999999999
  0
LINE
  8
_0-0_LAYER001
  6
CONTINUOUS
 62
    4
 10
1710.6543999999999
 20
1168.0710999999999
 11
1712.7067000000002
 21
1168.9648999999999
  0
LINE
  8
_0-0_LAYER001
  6
CONTINUOUS
 62
    4
 10
1712.7067000000002
 20
1168.9648999999999
 11
1716.2674000000002
 21
1170.479
  0
LINE
  8
_0-0_LAYER001
  6
CONTINUOUS
 62
    4
 10
1716.2674000000002
 20
1170.479
 11
1719.8580000000002
 21
1171.8751999999999
  0
LINE
  8
_0-0_LAYER001
  6
CONTINUOUS
 62
    4
 10
1719.8580000000002
 20
1171.8751999999999
 11
1723.4807000000001
 21
1173.0562
  0
LINE
  8
_0-0_LAYER001
  6
CONTINUOUS
 62
    4
 10
1723.4807000000001
 20
1173.0562
 11
1727.1372999999999
 21
1173.9247
  0
LINE
  8
_0-0_LAYER001
  6
CONTINUOUS
 62
    4
 10
1727.1372999999999
 20
1173.9247
 11
1730.8299999999999
 21
1174.3833999999999
  0
LINE
  8
_0-0_LAYER001
  6
CONTINUOUS
 62
    4
 10
1730.8299999999999
 20
1174.3833999999999
 11
1732.9890999999998
 21
1174.4233999999999
  0
LINE
  8
_0-0_LAYER001
  6
CONTINUOUS
 62
    4
 10
1732.9890999999998
 20
1174.4233999999999
 11
1733.8398000000002
 21
1174.3887
  0
LINE
  8
_0-0_LAYER001
  6
CONTINUOUS
 62
    4
 10
1733.8398000000002
 20
1174.3887
 11
1735.3087999999998
 21
1174.2642000000001
  0
LINE
  8
_0-0_LAYER001
  6
CONTINUOUS
 62
    4
 10
1735.3087999999998
 20
1174.2642000000001
 11
1736.7768999999998
 21
1174.0635
  0
LINE
  8
_0-0_LAYER001
  6
CONTINUOUS
 62
    4
 10
1736.7768999999998
 20
1174.0635
 11
1738.2397999999998
 21
1173.7933
  0
LINE
  8
_0-0_LAYER001
  6
CONTINUOUS
 62
    4
 10
1738.2397999999998
 20
1173.7933
 11
1739.6931
 21
1173.4603
  0
LINE
  8
_0-0_LAYER001
  6
CONTINUOUS
 62
    4
 10
1739.6931
 20
1173.4603
 11
1741.1324
 21
1173.0710999999999
  0
LINE
  8
_0-0_LAYER001
  6
CONTINUOUS
 62
    4
 10
1741.1324
 20
1173.0710999999999
 11
1741.9591
 21
1172.8224
  0
LINE
  8
_0-0_LAYER001
  6
CONTINUOUS
 62
    4
 10
1741.9591
 20
1172.8224
 11
1744.4859000000001
 21
1171.9530999999999
  0
LINE
  8
_0-0_LAYER001
  6
CONTINUOUS
 62
    4
 10
1744.4859000000001
 20
1171.9530999999999
 11
1748.7035000000001
 21
1170.1511
  0
LINE
  8
_0-0_LAYER001
  6
CONTINUOUS
 62
    4
 10
1748.7035000000001
 20
1170.1511
 11
1752.7759000000001
 21
1168.0326
  0
LINE
  8
_0-0_LAYER001
  6
CONTINUOUS
 62
    4
 10
1752.7759000000001
 20
1168.0326
 11
1756.7388000000001
 21
1165.6757
  0
LINE
  8
_0-0_LAYER001
  6
CONTINUOUS
 62
    4
 10
1756.7388000000001
 20
1165.6757
 11
1760.6277
 21
1163.1584
  0
LINE
  8
_0-0_LAYER001
  6
CONTINUOUS
 62
    4
 10
1760.6277
 20
1163.1584
 11
1764.4785000000002
 21
1160.559
  0
LINE
  8
_0-0_LAYER001
  6
CONTINUOUS
 62
    4
 10
1764.4785000000002
 20
1160.559
 11
1766.7085999999999
 21
1159.0445
  0
LINE
  8
_0-0_LAYER001
  6
CONTINUOUS
 62
    4
 10
1766.7085999999999
 20
1159.0445
 11
1770.1134000000002
 21
1156.7635
  0
LINE
  8
_0-0_LAYER001
  6
CONTINUOUS
 62
    4
 10
1770.1134000000002
 20
1156.7635
 11
1776.029
 21
1152.9304999999999
  0
LINE
  8
_0-0_LAYER001
  6
CONTINUOUS
 62
    4
 10
1776.029
 20
1152.9304999999999
 11
1782.0194000000001
 21
1149.2601999999999
  0
LINE
  8
_0-0_LAYER001
  6
CONTINUOUS
 62
    4
 10
1782.0194000000001
 20
1149.2601999999999
 11
1788.1053999999999
 21
1145.7952
  0
LINE
  8
_0-0_LAYER001
  6
CONTINUOUS
 62
    4
 10
1788.1053999999999
 20
1145.7952
 11
1794.3076999999998
 21
1142.5779
  0
LINE
  8
_0-0_LAYER001
  6
CONTINUOUS
 62
    4
 10
1794.3076999999998
 20
1142.5779
 11
1800.6471000000001
 21
1139.6507999999999
  0
LINE
  8
_0-0_LAYER001
  6
CONTINUOUS
 62
    4
 10
1800.6471000000001
 20
1139.6507999999999
 11
1804.3948
 21
1138.1026999999999
  0
LINE
  8
_0-0_LAYER001
  6
CONTINUOUS
 62
    4
 10
1804.3948
 20
1138.1026999999999
 11
1807.4924999999998
 21
1136.9283
  0
LINE
  8
_0-0_LAYER001
  6
CONTINUOUS
 62
    4
 10
1807.4924999999998
 20
1136.9283
 11
1812.9133000000002
 21
1135.0956000000001
  0
LINE
  8
_0-0_LAYER001
  6
CONTINUOUS
 62
    4
 10
1812.9133000000002
 20
1135.0956000000001
 11
1818.4214000000002
 21
1133.5123000000001
  0
LINE
  8
_0-0_LAYER001
  6
CONTINUOUS
 62
    4
 10
1818.4214000000002
 20
1133.5123000000001
 11
1824.0007999999998
 21
1132.1860999999999
  0
LINE
  8
_0-0_LAYER001
  6
CONTINUOUS
 62
    4
 10
1824.0007999999998
 20
1132.1860999999999
 11
1829.6352000000002
 21
1131.1246000000001
  0
LINE
  8
_0-0_LAYER001
  6
CONTINUOUS
 62
    4
 10
1829.6352000000002
 20
1131.1246000000001
 11
1835.3085000000001
 21
1130.3352
  0
LINE
  8
_0-0_LAYER001
  6
CONTINUOUS
 62
    4
 10
1835.3085000000001
 20
1130.3352
 11
1838.6104999999998
 21
1130.0050000000001
  0
LINE
  8
_0-0_LAYER001
  6
CONTINUOUS
 62
    4
 10
1838.6104999999998
 20
1130.0050000000001
 11
1841.1370000000002
 21
1129.8163999999999
  0
LINE
  8
_0-0_LAYER001
  6
CONTINUOUS
 62
    4
 10
1841.1370000000002
 20
1129.8163999999999
 11
1845.4976000000001
 21
1129.6133
  0
LINE
  8
_0-0_LAYER001
  6
CONTINUOUS
 62
    4
 10
1845.4976000000001
 20
1129.6133
 11
1849.8618999999999
 21
1129.5509
  0
LINE
  8
_0-0_LAYER001
  6
CONTINUOUS
 62
    4
 10
1849.8618999999999
 20
1129.5509
 11
1854.2273
 21
1129.6134
  0
LINE
  8
_0-0_LAYER001
  6
CONTINUOUS
 62
    4
 10
1854.2273
 20
1129.6134
 11
1858.5911999999998
 21
1129.7849000000001
  0
LINE
  8
_0-0_LAYER001
  6
CONTINUOUS
 62
    4
 10
1858.5911999999998
 20
1129.7849000000001
 11
1862.9508999999998
 21
1130.0496000000001
  0
LINE
  8
_0-0_LAYER001
  6
CONTINUOUS
 62
    4
 10
1862.9508999999998
 20
1130.0496000000001
 11
1865.4767000000002
 21
1130.2394999999999
  0
LINE
  8
_0-0_LAYER001
  6
CONTINUOUS
 62
    4
 10
1865.4767000000002
 20
1130.2394999999999
 11
1870.1950000000002
 21
1130.6560999999999
  0
LINE
  8
_0-0_LAYER001
  6
CONTINUOUS
 62
    4
 10
1870.1950000000002
 20
1130.6560999999999
 11
1878.3092999999999
 21
1131.5424
  0
LINE
  8
_0-0_LAYER001
  6
CONTINUOUS
 62
    4
 10
1878.3092999999999
 20
1131.5424
 11
1886.4005000000002
 21
1132.6108999999999
  0
LINE
  8
_0-0_LAYER001
  6
CONTINUOUS
 62
    4
 10
1886.4005000000002
 20
1132.6108999999999
 11
1894.4721
 21
1133.8262999999999
  0
LINE
  8
_0-0_LAYER001
  6
CONTINUOUS
 62
    4
 10
1894.4721
 20
1133.8262999999999
 11
1902.5279
 21
1135.1532
  0
LINE
  8
_0-0_LAYER001
  6
CONTINUOUS
 62
    4
 10
1902.5279
 20
1135.1532
 11
1910.5713000000001
 21
1136.5561
  0
LINE
  8
_0-0_LAYER001
  6
CONTINUOUS
 62
    4
 10
1910.5713000000001
 20
1136.5561
 11
1915.2323000000001
 21
1137.3906999999999
  0
LINE
  8
_0-0_LAYER001
  6
CONTINUOUS
 62
    4
 10
1915.2323000000001
 20
1137.3906999999999
 11
1917.6547
 21
1137.8279
  0
LINE
  8
_0-0_LAYER001
  6
CONTINUOUS
 62
    4
 10
1917.6547
 20
1137.8279
 11
1921.8299000000002
 21
1138.5853999999999
  0
LINE
  8
_0-0_LAYER001
  6
CONTINUOUS
 62
    4
 10
1921.8299000000002
 20
1138.5853999999999
 11
1926.0038
 21
1139.347
  0
LINE
  8
_0-0_LAYER001
  6
CONTINUOUS
 62
    4
 10
1926.0038
 20
1139.347
 11
1930.1767
 21
1140.1116999999999
  0
LINE
  8
_0-0_LAYER001
  6
CONTINUOUS
 62
    4
 10
1930.1767
 20
1140.1116999999999
 11
1934.3488000000002
 21
1140.8787
  0
LINE
  8
_0-0_LAYER001
  6
CONTINUOUS
 62
    4
 10
1934.3488000000002
 20
1140.8787
 11
1938.5205000000001
 21
1141.6470999999999
  0
LINE
  8
_0-0_LAYER001
  6
CONTINUOUS
 62
    4
 10
1938.5205000000001
 20
1141.6470999999999
 11
1940.9400000000001
 21
1142.0931
  0
LINE
  8
_0-0_LAYER001
  6
CONTINUOUS
 62
    4
 10
1695.7761
 20
1142.2888
 11
1697.8126000000002
 21
1143.1301000000001
  0
LINE
  8
_0-0_LAYER001
  6
CONTINUOUS
 62
    4
 10
1697.8126000000002
 20
1143.1301000000001
 11
1701.3361
 21
1144.588
  0
LINE
  8
_0-0_LAYER001
  6
CONTINUOUS
 62
    4
 10
1701.3361
 20
1144.588
 11
1704.8834000000002
 21
1146.0624
  0
LINE
  8
_0-0_LAYER001
  6
CONTINUOUS
 62
    4
 10
1704.8834000000002
 20
1146.0624
 11
1708.4585000000002
 21
1147.5591999999999
  0
LINE
  8
_0-0_LAYER001
  6
CONTINUOUS
 62
    4
 10
1708.4585000000002
 20
1147.5591999999999
 11
1712.0654
 21
1149.0844
  0
LINE
  8
_0-0_LAYER001
  6
CONTINUOUS
 62
    4
 10
1712.0654
 20
1149.0844
 11
1715.6975000000002
 21
1150.6396999999999
  0
LINE
  8
_0-0_LAYER001
  6
CONTINUOUS
 62
    4
 10
1715.6975000000002
 20
1150.6396999999999
 11
1717.8247999999999
 21
1151.5609999999999
  0
LINE
  8
_0-0_LAYER001
  6
CONTINUOUS
 62
    4
 10
1717.8247999999999
 20
1151.5609999999999
 11
1719.8220999999999
 21
1152.4308000000001
  0
LINE
  8
_0-0_LAYER001
  6
CONTINUOUS
 62
    4
 10
1719.8220999999999
 20
1152.4308000000001
 11
1723.0524
 21
1153.8044
  0
LINE
  8
_0-0_LAYER001
  6
CONTINUOUS
 62
    4
 10
1723.0524
 20
1153.8044
 11
1725.9140000000002
 21
1154.9170999999999
  0
LINE
  8
_0-0_LAYER001
  6
CONTINUOUS
 62
    4
 10
1725.9140000000002
 20
1154.9170999999999
 11
1728.3582999999999
 21
1155.7139
  0
LINE
  8
_0-0_LAYER001
  6
CONTINUOUS
 62
    4
 10
1728.3582999999999
 20
1155.7139
 11
1730.3362000000002
 21
1156.1837
  0
LINE
  8
_0-0_LAYER001
  6
CONTINUOUS
 62
    4
 10
1730.3362000000002
 20
1156.1837
 11
1732.1095
 21
1156.404
  0
LINE
  8
_0-0_LAYER001
  6
CONTINUOUS
 62
    4
 10
1732.1095
 20
1156.404
 11
1732.7890000000002
 21
1156.4166
  0
LINE
  8
_0-0_LAYER001
  6
CONTINUOUS
 62
    4
 10
1732.7890000000002
 20
1156.4166
 11
1732.7127
 21
1156.4196999999999
  0
LINE
  8
_0-0_LAYER001
  6
CONTINUOUS
 62
    4
 10
1732.7127
 20
1156.4196999999999
 11
1733.3283000000001
 21
1156.3675000000001
  0
LINE
  8
_0-0_LAYER001
  6
CONTINUOUS
 62
    4
 10
1733.3283000000001
 20
1156.3675000000001
 11
1733.9216000000001
 21
1156.2864
  0
LINE
  8
_0-0_LAYER001
  6
CONTINUOUS
 62
    4
 10
1733.9216000000001
 20
1156.2864
 11
1734.5931999999998
 21
1156.1623
  0
LINE
  8
_0-0_LAYER001
  6
CONTINUOUS
 62
    4
 10
1734.5931999999998
 20
1156.1623
 11
1735.3325
 21
1155.9929999999999
  0
LINE
  8
_0-0_LAYER001
  6
CONTINUOUS
 62
    4
 10
1735.3325
 20
1155.9929999999999
 11
1736.1893
 21
1155.7612999999999
  0
LINE
  8
_0-0_LAYER001
  6
CONTINUOUS
 62
    4
 10
1736.1893
 20
1155.7612999999999
 11
1736.4358999999999
 21
1155.6871000000001
  0
LINE
  8
_0-0_LAYER001
  6
CONTINUOUS
 62
    4
 10
1736.4358999999999
 20
1155.6871000000001
 11
1738.0136000000002
 21
1155.1442999999999
  0
LINE
  8
_0-0_LAYER001
  6
CONTINUOUS
 62
    4
 10
1738.0136000000002
 20
1155.1442999999999
 11
1741.0029
 21
1153.8671999999999
  0
LINE
  8
_0-0_LAYER001
  6
CONTINUOUS
 62
    4
 10
1741.0029
 20
1153.8671999999999
 11
1744.0147000000002
 21
1152.3004000000001
  0
LINE
  8
_0-0_LAYER001
  6
CONTINUOUS
 62
    4
 10
1744.0147000000002
 20
1152.3004000000001
 11
1747.2442999999998
 21
1150.3795
  0
LINE
  8
_0-0_LAYER001
  6
CONTINUOUS
 62
    4
 10
1747.2442999999998
 20
1150.3795
 11
1750.701
 21
1148.1421
  0
LINE
  8
_0-0_LAYER001
  6
CONTINUOUS
 62
    4
 10
1750.701
 20
1148.1421
 11
1754.3867
 21
1145.6541
  0
LINE
  8
_0-0_LAYER001
  6
CONTINUOUS
 62
    4
 10
1754.3867
 20
1145.6541
 11
1756.6428999999998
 21
1144.1217999999999
  0
LINE
  8
_0-0_LAYER001
  6
CONTINUOUS
 62
    4
 10
1756.6428999999998
 20
1144.1217999999999
 11
1760.2096999999999
 21
1141.7324000000001
  0
LINE
  8
_0-0_LAYER001
  6
CONTINUOUS
 62
    4
 10
1760.2096999999999
 20
1141.7324000000001
 11
1766.4315999999999
 21
1137.7009
  0
LINE
  8
_0-0_LAYER001
  6
CONTINUOUS
 62
    4
 10
1766.4315999999999
 20
1137.7009
 11
1772.8622
 21
1133.7609
  0
LINE
  8
_0-0_LAYER001
  6
CONTINUOUS
 62
    4
 10
1772.8622
 20
1133.7609
 11
1779.5050000000001
 21
1129.9789000000001
  0
LINE
  8
_0-0_LAYER001
  6
CONTINUOUS
 62
    4
 10
1779.5050000000001
 20
1129.9789000000001
 11
1786.3865000000001
 21
1126.4093
  0
LINE
  8
_0-0_LAYER001
  6
CONTINUOUS
 62
    4
 10
1786.3865000000001
 20
1126.4093
 11
1793.4353000000001
 21
1123.1546000000001
  0
LINE
  8
_0-0_LAYER001
  6
CONTINUOUS
 62
    4
 10
1793.4353000000001
 20
1123.1546000000001
 11
1797.7669999999998
 21
1121.3652999999999
  0
LINE
  8
_0-0_LAYER001
  6
CONTINUOUS
 62
    4
 10
1797.7669999999998
 20
1121.3652999999999
 11
1801.4173999999998
 21
1119.9813999999999
  0
LINE
  8
_0-0_LAYER001
  6
CONTINUOUS
 62
    4
 10
1801.4173999999998
 20
1119.9813999999999
 11
1807.5414999999998
 21
1117.9108000000001
  0
LINE
  8
_0-0_LAYER001
  6
CONTINUOUS
 62
    4
 10
1807.5414999999998
 20
1117.9108000000001
 11
1813.8514
 21
1116.0971
  0
LINE
  8
_0-0_LAYER001
  6
CONTINUOUS
 62
    4
 10
1813.8514
 20
1116.0971
 11
1820.2511
 21
1114.5759
  0
LINE
  8
_0-0_LAYER001
  6
CONTINUOUS
 62
    4
 10
1820.2511
 20
1114.5759
 11
1826.7269000000001
 21
1113.3558
  0
LINE
  8
_0-0_LAYER001
  6
CONTINUOUS
 62
    4
 10
1826.7269000000001
 20
1113.3558
 11
1833.1718999999998
 21
1112.4591
  0
LINE
  8
_0-0_LAYER001
  6
CONTINUOUS
 62
    4
 10
1833.1718999999998
 20
1112.4591
 11
1837.0448000000001
 21
1112.0717999999999
  0
LINE
  8
_0-0_LAYER001
  6
CONTINUOUS
 62
    4
 10
1837.0448000000001
 20
1112.0717999999999
 11
1840.0479999999998
 21
1111.8476000000001
  0
LINE
  8
_0-0_LAYER001
  6
CONTINUOUS
 62
    4
 10
1840.0479999999998
 20
1111.8476000000001
 11
1844.9499999999998
 21
1111.6193000000001
  0
LINE
  8
_0-0_LAYER001
  6
CONTINUOUS
 62
    4
 10
1844.9499999999998
 20
1111.6193000000001
 11
1849.8622
 21
1111.549
  0
LINE
  8
_0-0_LAYER001
  6
CONTINUOUS
 62
    4
 10
1849.8622
 20
1111.549
 11
1854.7096999999999
 21
1111.6184000000001
  0
LINE
  8
_0-0_LAYER001
  6
CONTINUOUS
 62
    4
 10
1854.7096999999999
 20
1111.6184000000001
 11
1859.4901
 21
1111.8063
  0
LINE
  8
_0-0_LAYER001
  6
CONTINUOUS
 62
    4
 10
1859.4901
 20
1111.8063
 11
1864.1711
 21
1112.0905
  0
LINE
  8
_0-0_LAYER001
  6
CONTINUOUS
 62
    4
 10
1864.1711
 20
1112.0905
 11
1866.9431
 21
1112.2989
  0
LINE
  8
_0-0_LAYER001
  6
CONTINUOUS
 62
    4
 10
1866.9431
 20
1112.2989
 11
1871.9639999999999
 21
1112.7421999999999
  0
LINE
  8
_0-0_LAYER001
  6
CONTINUOUS
 62
    4
 10
1871.9639999999999
 20
1112.7421999999999
 11
1880.4650999999999
 21
1113.6708000000001
  0
LINE
  8
_0-0_LAYER001
  6
CONTINUOUS
 62
    4
 10
1880.4650999999999
 20
1113.6708000000001
 11
1888.9191000000001
 21
1114.7873
  0
LINE
  8
_0-0_LAYER001
  6
CONTINUOUS
 62
    4
 10
1888.9191000000001
 20
1114.7873
 11
1897.2750000000001
 21
1116.0454999999999
  0
LINE
  8
_0-0_LAYER001
  6
CONTINUOUS
 62
    4
 10
1897.2750000000001
 20
1116.0454999999999
 11
1905.5371
 21
1117.4063000000001
  0
LINE
  8
_0-0_LAYER001
  6
CONTINUOUS
 62
    4
 10
1905.5371
 20
1117.4063000000001
 11
1913.7040999999999
 21
1118.8308
  0
LINE
  8
_0-0_LAYER001
  6
CONTINUOUS
 62
    4
 10
1913.7040999999999
 20
1118.8308
 11
1918.4171000000001
 21
1119.6747
  0
LINE
  8
_0-0_LAYER001
  6
CONTINUOUS
 62
    4
 10
1918.4171000000001
 20
1119.6747
 11
1920.8598000000002
 21
1120.1155000000001
  0
LINE
  8
_0-0_LAYER001
  6
CONTINUOUS
 62
    4
 10
1920.8598000000002
 20
1120.1155000000001
 11
1925.0520999999999
 21
1120.8761999999999
  0
LINE
  8
_0-0_LAYER001
  6
CONTINUOUS
 62
    4
 10
1925.0520999999999
 20
1120.8761999999999
 11
1929.2417
 21
1121.6405999999999
  0
LINE
  8
_0-0_LAYER001
  6
CONTINUOUS
 62
    4
 10
1929.2417
 20
1121.6405999999999
 11
1933.4263999999998
 21
1122.4075
  0
LINE
  8
_0-0_LAYER001
  6
CONTINUOUS
 62
    4
 10
1933.4263999999998
 20
1122.4075
 11
1937.6064999999999
 21
1123.1759999999999
  0
LINE
  8
_0-0_LAYER001
  6
CONTINUOUS
 62
    4
 10
1937.6064999999999
 20
1123.1759999999999
 11
1941.7822999999999
 21
1123.9450999999999
  0
LINE
  8
_0-0_LAYER001
  6
CONTINUOUS
 62
    4
 10
1941.7822999999999
 20
1123.9450999999999
 11
1943.3915000000002
 21
1124.2418
  0
LINE
  8
_0-0_LAYER001
  6
CONTINUOUS
 62
    4
 10
1942.1446999999998
 20
1121.9783
 11
1944.5654
 21
1122.4244000000001
  0
LINE
  8
_0-0_LAYER001
  6
CONTINUOUS
 62
    4
 10
1937.9684999999999
 20
1121.2090000000001
 11
1942.1446999999998
 21
1121.9783
  0
LINE
  8
_0-0_LAYER001
  6
CONTINUOUS
 62
    4
 10
1933.7874000000002
 20
1120.4404
 11
1937.9684999999999
 21
1121.2090000000001
  0
LINE
  8
_0-0_LAYER001
  6
CONTINUOUS
 62
    4
 10
1929.6014
 20
1119.6732
 11
1933.7874000000002
 21
1120.4404
  0
LINE
  8
_0-0_LAYER001
  6
CONTINUOUS
 62
    4
 10
1925.4101000000001
 20
1118.9085
 11
1929.6014
 21
1119.6732
  0
LINE
  8
_0-0_LAYER001
  6
CONTINUOUS
 62
    4
 10
1921.2159000000001
 20
1118.1475
 11
1925.4101000000001
 21
1118.9085
  0
LINE
  8
_0-0_LAYER001
  6
CONTINUOUS
 62
    4
 10
1918.7709
 20
1117.7063000000001
 11
1921.2159000000001
 21
1118.1475
  0
LINE
  8
_0-0_LAYER001
  6
CONTINUOUS
 62
    4
 10
1914.0522000000001
 20
1116.8613
 11
1918.7709
 21
1117.7063000000001
  0
LINE
  8
_0-0_LAYER001
  6
CONTINUOUS
 62
    4
 10
1905.8714
 20
1115.4344000000001
 11
1914.0522000000001
 21
1116.8613
  0
LINE
  8
_0-0_LAYER001
  6
CONTINUOUS
 62
    4
 10
1897.5864999999999
 20
1114.0698
 11
1905.8714
 21
1115.4344000000001
  0
LINE
  8
_0-0_LAYER001
  6
CONTINUOUS
 62
    4
 10
1889.1990000000001
 20
1112.8069
 11
1897.5864999999999
 21
1114.0698
  0
LINE
  8
_0-0_LAYER001
  6
CONTINUOUS
 62
    4
 10
1880.7046999999998
 20
1111.6850999999999
 11
1889.1990000000001
 21
1112.8069
  0
LINE
  8
_0-0_LAYER001
  6
CONTINUOUS
 62
    4
 10
1872.1606000000002
 20
1110.7518
 11
1880.7046999999998
 21
1111.6850999999999
  0
LINE
  8
_0-0_LAYER001
  6
CONTINUOUS
 62
    4
 10
1867.1061
 20
1110.3054999999999
 11
1872.1606000000002
 21
1110.7518
  0
LINE
  8
_0-0_LAYER001
  6
CONTINUOUS
 62
    4
 10
1864.3067000000001
 20
1110.095
 11
1867.1061
 21
1110.3054999999999
  0
LINE
  8
_0-0_LAYER001
  6
CONTINUOUS
 62
    4
 10
1859.5900000000001
 20
1109.8087
 11
1864.3067000000001
 21
1110.095
  0
LINE
  8
_0-0_LAYER001
  6
CONTINUOUS
 62
    4
 10
1854.7633000000001
 20
1109.6189999999999
 11
1859.5900000000001
 21
1109.8087
  0
LINE
  8
_0-0_LAYER001
  6
CONTINUOUS
 62
    4
 10
1849.8622
 20
1109.5488
 11
1854.7633000000001
 21
1109.6189999999999
  0
LINE
  8
_0-0_LAYER001
  6
CONTINUOUS
 62
    4
 10
1844.8890999999999
 20
1109.6198999999999
 11
1849.8622
 21
1109.5488
  0
LINE
  8
_0-0_LAYER001
  6
CONTINUOUS
 62
    4
 10
1839.9270000000001
 20
1109.8511000000001
 11
1844.8890999999999
 21
1109.6198999999999
  0
LINE
  8
_0-0_LAYER001
  6
CONTINUOUS
 62
    4
 10
1836.8708999999999
 20
1110.0791999999999
 11
1839.9270000000001
 21
1109.8511000000001
  0
LINE
  8
_0-0_LAYER001
  6
CONTINUOUS
 62
    4
 10
1832.9344999999998
 20
1110.4728
 11
1836.8708999999999
 21
1110.0791999999999
  0
LINE
  8
_0-0_LAYER001
  6
CONTINUOUS
 62
    4
 10
1826.4036999999998
 20
1111.3815
 11
1832.9344999999998
 21
1110.4728
  0
LINE
  8
_0-0_LAYER001
  6
CONTINUOUS
 62
    4
 10
1819.8344999999999
 20
1112.6192000000001
 11
1826.4036999999998
 21
1111.3815
  0
LINE
  8
_0-0_LAYER001
  6
CONTINUOUS
 62
    4
 10
1813.3436999999999
 20
1114.162
 11
1819.8344999999999
 21
1112.6192000000001
  0
LINE
  8
_0-0_LAYER001
  6
CONTINUOUS
 62
    4
 10
1806.9447
 20
1116.0014000000001
 11
1813.3436999999999
 21
1114.162
  0
LINE
  8
_0-0_LAYER001
  6
CONTINUOUS
 62
    4
 10
1800.7422999999999
 20
1118.0984000000001
 11
1806.9447
 21
1116.0014000000001
  0
LINE
  8
_0-0_LAYER001
  6
CONTINUOUS
 62
    4
 10
1797.0306
 20
1119.5056
 11
1800.7422999999999
 21
1118.0984000000001
  0
LINE
  8
_0-0_LAYER001
  6
CONTINUOUS
 62
    4
 10
1792.6338999999998
 20
1121.3216
 11
1797.0306
 21
1119.5056
  0
LINE
  8
_0-0_LAYER001
  6
CONTINUOUS
 62
    4
 10
1785.5064000000002
 20
1124.6126999999999
 11
1792.6338999999998
 21
1121.3216
  0
LINE
  8
_0-0_LAYER001
  6
CONTINUOUS
 62
    4
 10
1778.5493999999999
 20
1128.2215000000001
 11
1785.5064000000002
 21
1124.6126999999999
  0
LINE
  8
_0-0_LAYER001
  6
CONTINUOUS
 62
    4
 10
1771.8447999999999
 20
1132.0387000000001
 11
1778.5493999999999
 21
1128.2215000000001
  0
LINE
  8
_0-0_LAYER001
  6
CONTINUOUS
 62
    4
 10
1765.3652000000002
 20
1136.0087000000001
 11
1771.8447999999999
 21
1132.0387000000001
  0
LINE
  8
_0-0_LAYER001
  6
CONTINUOUS
 62
    4
 10
1759.1093000000001
 20
1140.0623000000001
 11
1765.3652000000002
 21
1136.0087000000001
  0
LINE
  8
_0-0_LAYER001
  6
CONTINUOUS
 62
    4
 10
1755.5245
 20
1142.4638
 11
1759.1093000000001
 21
1140.0623000000001
  0
LINE
  8
_0-0_LAYER001
  6
CONTINUOUS
 62
    4
 10
1753.2654000000002
 20
1143.9981
 11
1755.5245
 21
1142.4638
  0
LINE
  8
_0-0_LAYER001
  6
CONTINUOUS
 62
    4
 10
1749.598
 20
1146.4736
 11
1753.2654000000002
 21
1143.9981
  0
LINE
  8
_0-0_LAYER001
  6
CONTINUOUS
 62
    4
 10
1746.1894000000002
 20
1148.6800000000001
 11
1749.598
 21
1146.4736
  0
LINE
  8
_0-0_LAYER001
  6
CONTINUOUS
 62
    4
 10
1743.0412000000001
 20
1150.5524
 11
1746.1894000000002
 21
1148.6800000000001
  0
LINE
  8
_0-0_LAYER001
  6
CONTINUOUS
 62
    4
 10
1740.1473000000001
 20
1152.0578
 11
1743.0412000000001
 21
1150.5524
  0
LINE
  8
_0-0_LAYER001
  6
CONTINUOUS
 62
    4
 10
1737.2945
 20
1153.2766999999999
 11
1740.1473000000001
 21
1152.0578
  0
LINE
  8
_0-0_LAYER001
  6
CONTINUOUS
 62
    4
 10
1735.8222000000001
 20
1153.7832000000001
 11
1737.2945
 21
1153.2766999999999
  0
LINE
  8
_0-0_LAYER001
  6
CONTINUOUS
 62
    4
 10
1735.6401000000001
 20
1153.838
 11
1735.8222000000001
 21
1153.7832000000001
  0
LINE
  8
_0-0_LAYER001
  6
CONTINUOUS
 62
    4
 10
1734.8479000000002
 20
1154.0521000000001
 11
1735.6401000000001
 21
1153.838
  0
LINE
  8
_0-0_LAYER001
  6
CONTINUOUS
 62
    4
 10
1734.1880999999998
 20
1154.2032999999999
 11
1734.8479000000002
 21
1154.0521000000001
  0
LINE
  8
_0-0_LAYER001
  6
CONTINUOUS
 62
    4
 10
1733.6043
 20
1154.3112000000001
 11
1734.1880999999998
 21
1154.2032999999999
  0
LINE
  8
_0-0_LAYER001
  6
CONTINUOUS
 62
    4
 10
1733.5641000000001
 20
1154.3167000000001
 11
1733.6043
 21
1154.3112000000001
  0
LINE
  8
_0-0_LAYER001
  6
CONTINUOUS
 62
    4
 10
1938.4695999999999
 20
1102.7237
 11
1940.0787999999998
 21
1103.0202999999999
  0
LINE
  8
_0-0_LAYER001
  6
CONTINUOUS
 62
    4
 10
1934.2937999999999
 20
1101.9545000000001
 11
1938.4695999999999
 21
1102.7237
  0
LINE
  8
_0-0_LAYER001
  6
CONTINUOUS
 62
    4
 10
1930.1136999999999
 20
1101.1859999999999
 11
1934.2937999999999
 21
1101.9545000000001
  0
LINE
  8
_0-0_LAYER001
  6
CONTINUOUS
 62
    4
 10
1925.9288999999999
 20
1100.4191000000001
 11
1930.1136999999999
 21
1101.1859999999999
  0
LINE
  8
_0-0_LAYER001
  6
CONTINUOUS
 62
    4
 10
1921.7393000000002
 20
1099.6547
 11
1925.9288999999999
 21
1100.4191000000001
  0
LINE
  8
_0-0_LAYER001
  6
CONTINUOUS
 62
    4
 10
1917.547
 20
1098.8941
 11
1921.7393000000002
 21
1099.6547
  0
LINE
  8
_0-0_LAYER001
  6
CONTINUOUS
 62
    4
 10
1915.1043
 20
1098.4532999999999
 11
1917.547
 21
1098.8941
  0
LINE
  8
_0-0_LAYER001
  6
CONTINUOUS
 62
    4
 10
1910.3914
 20
1097.6093000000001
 11
1915.1043
 21
1098.4532999999999
  0
LINE
  8
_0-0_LAYER001
  6
CONTINUOUS
 62
    4
 10
1902.2242999999999
 20
1096.1849
 11
1910.3914
 21
1097.6093000000001
  0
LINE
  8
_0-0_LAYER001
  6
CONTINUOUS
 62
    4
 10
1893.9623000000001
 20
1094.8240000000001
 11
1902.2242999999999
 21
1096.1849
  0
LINE
  8
_0-0_LAYER001
  6
CONTINUOUS
 62
    4
 10
1885.6064000000001
 20
1093.5658000000001
 11
1893.9623000000001
 21
1094.8240000000001
  0
LINE
  8
_0-0_LAYER001
  6
CONTINUOUS
 62
    4
 10
1877.1525000000001
 20
1092.4494
 11
1885.6064000000001
 21
1093.5658000000001
  0
LINE
  8
_0-0_LAYER001
  6
CONTINUOUS
 62
    4
 10
1868.6513
 20
1091.5208
 11
1877.1525000000001
 21
1092.4494
  0
LINE
  8
_0-0_LAYER001
  6
CONTINUOUS
 62
    4
 10
1863.6304
 20
1091.0775000000001
 11
1868.6513
 21
1091.5208
  0
LINE
  8
_0-0_LAYER001
  6
CONTINUOUS
 62
    4
 10
1860.8584000000001
 20
1090.8689999999999
 11
1863.6304
 21
1091.0775000000001
  0
LINE
  8
_0-0_LAYER001
  6
CONTINUOUS
 62
    4
 10
1856.1774
 20
1090.5849000000001
 11
1860.8584000000001
 21
1090.8689999999999
  0
LINE
  8
_0-0_LAYER001
  6
CONTINUOUS
 62
    4
 10
1851.3969999999999
 20
1090.3969999999999
 11
1856.1774
 21
1090.5849000000001
  0
LINE
  8
_0-0_LAYER001
  6
CONTINUOUS
 62
    4
 10
1846.5493999999999
 20
1090.3276000000001
 11
1851.3969999999999
 21
1090.3969999999999
  0
LINE
  8
_0-0_LAYER001
  6
CONTINUOUS
 62
    4
 10
1841.6372999999999
 20
1090.3978
 11
1846.5493999999999
 21
1090.3276000000001
  0
LINE
  8
_0-0_LAYER001
  6
CONTINUOUS
 62
    4
 10
1836.7352000000001
 20
1090.6261999999999
 11
1841.6372999999999
 21
1090.3978
  0
LINE
  8
_0-0_LAYER001
  6
CONTINUOUS
 62
    4
 10
1833.7321000000002
 20
1090.8504
 11
1836.7352000000001
 21
1090.6261999999999
  0
LINE
  8
_0-0_LAYER001
  6
CONTINUOUS
 62
    4
 10
1829.8591999999999
 20
1091.2375999999999
 11
1833.7321000000002
 21
1090.8504
  0
LINE
  8
_0-0_LAYER001
  6
CONTINUOUS
 62
    4
 10
1823.4142000000002
 20
1092.1343999999999
 11
1829.8591999999999
 21
1091.2375999999999
  0
LINE
  8
_0-0_LAYER001
  6
CONTINUOUS
 62
    4
 10
1816.9384
 20
1093.3544999999999
 11
1823.4142000000002
 21
1092.1343999999999
  0
LINE
  8
_0-0_LAYER001
  6
CONTINUOUS
 62
    4
 10
1810.5387000000001
 20
1094.8756000000001
 11
1816.9384
 21
1093.3544999999999
  0
LINE
  8
_0-0_LAYER001
  6
CONTINUOUS
 62
    4
 10
1804.2287999999999
 20
1096.6893
 11
1810.5387000000001
 21
1094.8756000000001
  0
LINE
  8
_0-0_LAYER001
  6
CONTINUOUS
 62
    4
 10
1798.1046000000001
 20
1098.7599
 11
1804.2287999999999
 21
1096.6893
  0
LINE
  8
_0-0_LAYER001
  6
CONTINUOUS
 62
    4
 10
1794.4542999999999
 20
1100.1439
 11
1798.1046000000001
 21
1098.7599
  0
LINE
  8
_0-0_LAYER001
  6
CONTINUOUS
 62
    4
 10
1790.1224999999999
 20
1101.9331
 11
1794.4542999999999
 21
1100.1439
  0
LINE
  8
_0-0_LAYER001
  6
CONTINUOUS
 62
    4
 10
1783.0738000000001
 20
1105.1877999999999
 11
1790.1224999999999
 21
1101.9331
  0
LINE
  8
_0-0_LAYER001
  6
CONTINUOUS
 62
    4
 10
1776.1923000000002
 20
1108.7574
 11
1783.0738000000001
 21
1105.1877999999999
  0
LINE
  8
_0-0_LAYER001
  6
CONTINUOUS
 62
    4
 10
1769.5495000000001
 20
1112.5393999999999
 11
1776.1923000000002
 21
1108.7574
  0
LINE
  8
_0-0_LAYER001
  6
CONTINUOUS
 62
    4
 10
1763.1188000000002
 20
1116.4793999999999
 11
1769.5495000000001
 21
1112.5393999999999
  0
LINE
  8
_0-0_LAYER001
  6
CONTINUOUS
 62
    4
 10
1756.8969999999999
 20
1120.5109
 11
1763.1188000000002
 21
1116.4793999999999
  0
LINE
  8
_0-0_LAYER001
  6
CONTINUOUS
 62
    4
 10
1753.3301999999999
 20
1122.9004
 11
1756.8969999999999
 21
1120.5109
  0
LINE
  8
_0-0_LAYER001
  6
CONTINUOUS
 62
    4
 10
1751.0740000000001
 20
1124.4327000000001
 11
1753.3301999999999
 21
1122.9004
  0
LINE
  8
_0-0_LAYER001
  6
CONTINUOUS
 62
    4
 10
1747.3883000000001
 20
1126.9205999999999
 11
1751.0740000000001
 21
1124.4327000000001
  0
LINE
  8
_0-0_LAYER001
  6
CONTINUOUS
 62
    4
 10
1743.9315999999999
 20
1129.1581000000001
 11
1747.3883000000001
 21
1126.9205999999999
  0
LINE
  8
_0-0_LAYER001
  6
CONTINUOUS
 62
    4
 10
1740.7019
 20
1131.0789
 11
1743.9315999999999
 21
1129.1581000000001
  0
LINE
  8
_0-0_LAYER001
  6
CONTINUOUS
 62
    4
 10
1737.6902
 20
1132.6457
 11
1740.7019
 21
1131.0789
  0
LINE
  8
_0-0_LAYER001
  6
CONTINUOUS
 62
    4
 10
1734.7008999999998
 20
1133.9229
 11
1737.6902
 21
1132.6457
  0
LINE
  8
_0-0_LAYER001
  6
CONTINUOUS
 62
    4
 10
1733.9463000000001
 20
1134.1824999999999
 11
1734.7008999999998
 21
1133.9229
  0
LINE
  8
_0-0_LAYER001
  6
CONTINUOUS
 62
    4
 10
1733.9295000000002
 20
1154.2284
 11
1734.1055000000001
 21
1134.0549000000001
  0
LINE
  8
_0-0_LAYER001
  6
CONTINUOUS
 62
    4
 10
1689.0149000000001
 20
1158.9648
 11
1690.1318999999999
 21
1159.4331999999999
  0
ARC
  8
_0-0_LAYER001
  6
CONTINUOUS
 62
    4
 10
1689.7883000000002
 20
1157.1204
 40
2
 50
112.74902000000002
 51
181
  0
LINE
  8
_0-0_LAYER001
  6
CONTINUOUS
 62
    4
 10
1941.0637000000002
 20
1142.1324
 11
1982.8483999999999
 21
1152.5853
  0
LINE
  8
_0-0_LAYER001
  6
CONTINUOUS
 62
    4
 10
1687.8121999999998
 20
1140.4753000000001
 11
1687.8121999999998
 21
1157.2692
  0
LINE
  8
_0-0_LAYER001
  6
CONTINUOUS
 62
    4
 10
1689.1954000000001
 20
1139.5516
 11
1695.7408
 21
1142.2670000000001
  0
ARC
  8
_0-0_LAYER001
  6
CONTINUOUS
 62
    4
 10
1688.8121999999998
 20
1140.4753000000001
 40
1
 50
180
 51
292.53166000000004
  0
LINE
  8
_0-0_LAYER001
  6
CONTINUOUS
 62
    4
 10
1964.6686
 20
1109.0899999999999
 11
1939.8508000000002
 21
1102.8815999999999
  0
LINE
  8
_0-0_LAYER001
  6
CONTINUOUS
 62
    4
 10
1977.1975000000002
 20
1132.617
 11
1943.4020999999998
 21
1124.1627000000001
  0
ARC
  8
_0-0_LAYER001
  6
CONTINUOUS
 62
    4
 10
1979.0209
 20
1116.1588999999999
 40
16.544874
 50
77.324888000000001
 51
96.274505000000005
  0
LINE
  8
_0-0_LAYER001
  6
CONTINUOUS
 62
    4
 10
1986.0493999999999
 20
1132.9893999999999
 11
1983.0025000000001
 21
1073.3565000000001
  0
LINE
  8
_0-0_LAYER001
  6
CONTINUOUS
 62
    4
 10
1944.6062999999999
 20
1122.5247999999999
 11
1964.6686
 21
1127.5907
  0
LINE
  8
_0-0_LAYER001
  6
CONTINUOUS
 62
    4
 10
1964.6686
 20
1129.2356
 11
1964.6686
 21
1072.8059000000001
  0
LINE
  8
_0-0_LAYER001
  6
CONTINUOUS
 62
    4
 10
1982.6686
 20
1132.1358
 11
1986.0493999999999
 21
1132.9893999999999
  0
LINE
  8
_0-0_LAYER001
  6
CONTINUOUS
 62
    4
 10
1982.6686
 20
1152.5077000000001
 11
1982.6686
 21
1072.8059000000001
  0
LINE
  8
_0-0_LAYER001
  6
CONTINUOUS
 62
    4
 10
1982.6686
 20
1072.8059000000001
 11
1964.6686
 21
1072.8059000000001
  0
LINE
  8
_0-0_LAYER001
  6
DASHED1
 62
    2
 10
1929.5432999999998
 20
1126.6857
 11
1945.5432999999998
 21
1126.6857
  0
LINE
  8
_0-0_LAYER001
  6
DASHED1
 62
    2
 10
1945.5432999999998
 20
1126.6857
 11
1945.5432999999998
 21
1123.6857
  0
LINE
  8
_0-0_LAYER001
  6
DASHED1
 62
    2
 10
1929.5432999999998
 20
1126.6857
 11
1929.5432999999998
 21
1123.6857
  0
LINE
  8
_0-0_LAYER001
  6
DASHED1
 62
    2
 10
1929.5432999999998
 20
1123.6857
 11
1945.5432999999998
 21
1123.6857
  0
LINE
  8
_0-0_LAYER001
  6
DASHED1
 62
    2
 10
1940.5432999999998
 20
1068.7896000000001
 11
1937.4931000000001
 21
1054.2807
  0
LINE
  8
_0-0_LAYER001
  6
DASHED1
 62
    2
 10
1940.5432999999998
 20
1123.6857
 11
1940.5432999999998
 21
1068.7896000000001
  0
LINE
  8
_0-0_LAYER001
  6
DASHED1
 62
    2
 10
1937.4931000000001
 20
1054.2807
 11
1934.5432999999998
 21
1068.5382
  0
LINE
  8
_0-0_LAYER001
  6
DASHED1
 62
    2
 10
1934.5432999999998
 20
1123.6857
 11
1934.5432999999998
 21
1068.5382
  0
LINE
  8
_0-0_LAYER001
  6
DASHED1
 62
    2
 10
1786.3917999999999
 20
1123.5395000000001
 11
1802.3917999999999
 21
1123.5395000000001
  0
LINE
  8
_0-0_LAYER001
  6
DASHED1
 62
    2
 10
1802.3917999999999
 20
1123.5395000000001
 11
1802.3917999999999
 21
1120.5395000000001
  0
LINE
  8
_0-0_LAYER001
  6
DASHED1
 62
    2
 10
1786.3917999999999
 20
1123.5395000000001
 11
1786.3917999999999
 21
1120.5395000000001
  0
LINE
  8
_0-0_LAYER001
  6
DASHED1
 62
    2
 10
1786.3917999999999
 20
1120.5395000000001
 11
1802.3917999999999
 21
1120.5395000000001
  0
LINE
  8
_0-0_LAYER001
  6
DASHED1
 62
    2
 10
1797.3917999999999
 20
1065.6434999999999
 11
1794.3416000000002
 21
1051.1344999999999
  0
LINE
  8
_0-0_LAYER001
  6
DASHED1
 62
    2
 10
1797.3917999999999
 20
1120.5395000000001
 11
1797.3917999999999
 21
1065.6434999999999
  0
LINE
  8
_0-0_LAYER001
  6
DASHED1
 62
    2
 10
1794.3416000000002
 20
1051.1344999999999
 11
1791.3917999999999
 21
1065.3920000000001
  0
LINE
  8
_0-0_LAYER001
  6
DASHED1
 62
    2
 10
1791.3917999999999
 20
1120.5395000000001
 11
1791.3917999999999
 21
1065.3920000000001
  0
LINE
  8
_0-0_LAYER001
  6
DASHED1
 62
    2
 10
1536.27
 20
1125.1125999999999
 11
1552.27
 21
1125.1125999999999
  0
LINE
  8
_0-0_LAYER001
  6
DASHED1
 62
    2
 10
1552.27
 20
1125.1125999999999
 11
1552.27
 21
1122.1125999999999
  0
LINE
  8
_0-0_LAYER001
  6
DASHED1
 62
    2
 10
1536.27
 20
1125.1125999999999
 11
1536.27
 21
1122.1125999999999
  0
LINE
  8
_0-0_LAYER001
  6
DASHED1
 62
    2
 10
1536.27
 20
1122.1125999999999
 11
1552.27
 21
1122.1125999999999
  0
LINE
  8
_0-0_LAYER001
  6
DASHED1
 62
    2
 10
1547.27
 20
1067.2166
 11
1544.2197999999999
 21
1052.7076
  0
LINE
  8
_0-0_LAYER001
  6
DASHED1
 62
    2
 10
1547.27
 20
1122.1125999999999
 11
1547.27
 21
1067.2166
  0
LINE
  8
_0-0_LAYER001
  6
DASHED1
 62
    2
 10
1544.2197999999999
 20
1052.7076
 11
1541.27
 21
1066.9650999999999
  0
LINE
  8
_0-0_LAYER001
  6
DASHED1
 62
    2
 10
1541.27
 20
1122.1125999999999
 11
1541.27
 21
1066.9650999999999
  0
LINE
  8
_0-0_LAYER001
  6
DASHED1
 62
    2
 10
1276.7095999999999
 20
1123.5395000000001
 11
1292.7096000000001
 21
1123.5395000000001
  0
LINE
  8
_0-0_LAYER001
  6
DASHED1
 62
    2
 10
1292.7096000000001
 20
1123.5395000000001
 11
1292.7096000000001
 21
1120.5395000000001
  0
LINE
  8
_0-0_LAYER001
  6
DASHED1
 62
    2
 10
1276.7095999999999
 20
1123.5395000000001
 11
1276.7095999999999
 21
1120.5395000000001
  0
LINE
  8
_0-0_LAYER001
  6
DASHED1
 62
    2
 10
1276.7095999999999
 20
1120.5395000000001
 11
1292.7096000000001
 21
1120.5395000000001
  0
LINE
  8
_0-0_LAYER001
  6
DASHED1
 62
    2
 10
1287.7096000000001
 20
1065.6434999999999
 11
1284.6594
 21
1051.1344999999999
  0
LINE
  8
_0-0_LAYER001
  6
DASHED1
 62
    2
 10
1287.7096000000001
 20
1120.5395000000001
 11
1287.7096000000001
 21
1065.6434999999999
  0
LINE
  8
_0-0_LAYER001
  6
DASHED1
 62
    2
 10
1284.6594
 20
1051.1344999999999
 11
1281.7095999999997
 21
1065.3920000000001
  0
LINE
  8
_0-0_LAYER001
  6
DASHED1
 62
    2
 10
1281.7095999999997
 20
1120.5395000000001
 11
1281.7095999999997
 21
1065.3920000000001
  0
LINE
  8
_0-0_LAYER001
  6
CONTINUOUS
 62
    3
 10
1938.6686
 20
1100.3878
 11
1962.6686
 21
1100.3878
  0
LINE
  8
_0-1_LAYER004
  6
CONTINUOUS
 62
    2
 10
1938.6686
 20
1084.8668
 11
916.90969999999993
 21
1084.8668
  0
LINE
  8
_0-1_LAYER004
  6
CONTINUOUS
 62
    3
 10
1938.6686
 20
1100.3878
 11
1938.6686
 21
938.98479999999995
  0
LINE
  8
_0-1_LAYER004
  6
CONTINUOUS
 62
    2
 10
1938.6686
 20
1052.3878
 11
916.90969999999993
 21
1052.3878
  0
LINE
  8
_0-1_LAYER004
  6
CONTINUOUS
 62
    2
 10
1938.6686
 20
1069.8668
 11
916.90969999999993
 21
1069.8668
  0
LINE
  8
_0-1_LAYER004
  6
CONTINUOUS
 62
    2
 10
1938.6686
 20
1052.3878
 11
1878.6686
 21
1052.3878
  0
LINE
  8
_0-1_LAYER004
  6
CONTINUOUS
 62
    2
 10
1878.6686
 20
1052.3878
 11
1878.6686
 21
992.38779999999997
  0
LINE
  8
_0-1_LAYER004
  6
CONTINUOUS
 62
    2
 10
1878.6686
 20
992.38779999999997
 11
1938.6686
 21
992.38779999999997
  0
LINE
  8
_0-1_LAYER004
  6
CONTINUOUS
 62
    2
 10
1635.6686
 20
992.38779999999997
 11
1635.6686
 21
1052.3878
  0
LINE
  8
_0-1_LAYER004
  6
CONTINUOUS
 62
    2
 10
1635.6686
 20
1052.3878
 11
1575.6686
 21
1052.3878
  0
LINE
  8
_0-1_LAYER004
  6
CONTINUOUS
 62
    2
 10
1575.6686
 20
1052.3878
 11
1575.6686
 21
992.38779999999997
  0
LINE
  8
_0-1_LAYER004
  6
CONTINUOUS
 62
    2
 10
1575.6686
 20
992.38779999999997
 11
1635.6686
 21
992.38779999999997
  0
LINE
  8
_0-1_LAYER004
  6
CONTINUOUS
 62
    2
 10
1332.6686
 20
992.38779999999997
 11
1332.6686
 21
1052.3878
  0
LINE
  8
_0-1_LAYER004
  6
CONTINUOUS
 62
    2
 10
1332.6686
 20
1052.3878
 11
1272.6686
 21
1052.3878
  0
LINE
  8
_0-1_LAYER004
  6
CONTINUOUS
 62
    2
 10
1272.6686
 20
1052.3878
 11
1272.6686
 21
992.38779999999997
  0
LINE
  8
_0-1_LAYER004
  6
CONTINUOUS
 62
    2
 10
1272.6686
 20
992.38779999999997
 11
1332.6686
 21
992.38779999999997
  0
LINE
  8
_0-1_LAYER004
  6
CONTINUOUS
 62
    2
 10
1029.6686
 20
992.38779999999997
 11
1029.6686
 21
1052.3878
  0
LINE
  8
_0-1_LAYER004
  6
CONTINUOUS
 62
    2
 10
1029.6686
 20
1052.3878
 11
969.66859999999997
 21
1052.3878
  0
LINE
  8
_0-1_LAYER004
  6
CONTINUOUS
 62
    2
 10
969.66859999999997
 20
1052.3878
 11
969.66859999999997
 21
992.38779999999997
  0
LINE
  8
_0-1_LAYER004
  6
CONTINUOUS
 62
    2
 10
969.66859999999997
 20
992.38779999999997
 11
1029.6686
 21
992.38779999999997
  0
LINE
  8
_0-1_LAYER004
  6
CONTINUOUS
 62
    2
 10
1878.6686
 20
1052.3878
 11
1938.6686
 21
992.38779999999997
  0
LINE
  8
_0-1_LAYER004
  6
CONTINUOUS
 62
    2
 10
1635.6686
 20
992.38779999999997
 11
1575.6686
 21
1052.3878
  0
LINE
  8
_0-1_LAYER004
  6
CONTINUOUS
 62
    2
 10
1332.6686
 20
992.38779999999997
 11
1272.6686
 21
1052.3878
  0
LINE
  8
_0-1_LAYER004
  6
CONTINUOUS
 62
    2
 10
1029.6686
 20
992.38779999999997
 11
969.66859999999997
 21
1052.3878
  0
LINE
  8
_0-1_LAYER004
  6
CONTINUOUS
 62
    3
 10
1962.6686
 20
1100.3878
 11
1962.6686
 21
938.98479999999995
  0
LINE
  8
_0-1_LAYER004
  6
CONTINUOUS
 62
    3
 10
1938.6686
 20
938.98479999999995
 11
1962.6686
 21
938.98479999999995
  0
LINE
  8
_0-0_LAYER001
  6
CONTINUOUS
 62
    2
 10
1949.2752
 20
938.98479999999995
 11
1938.6686
 21
949.59140000000002
  0
LINE
  8
_0-0_LAYER001
  6
CONTINUOUS
 62
    2
 10
1959.8818000000001
 20
938.98479999999995
 11
1938.6686
 21
960.19800000000009
  0
LINE
  8
_0-0_LAYER001
  6
CONTINUOUS
 62
    2
 10
1962.6686
 20
946.80459999999994
 11
1938.6686
 21
970.80459999999994
  0
LINE
  8
_0-0_LAYER001
  6
CONTINUOUS
 62
    2
 10
1962.6686
 20
957.41120000000001
 11
1938.6686
 21
981.41120000000001
  0
LINE
  8
_0-0_LAYER001
  6
CONTINUOUS
 62
    2
 10
1962.6686
 20
968.01780000000008
 11
1938.6686
 21
992.01780000000008
  0
LINE
  8
_0-0_LAYER001
  6
CONTINUOUS
 62
    2
 10
1962.6686
 20
978.62439999999992
 11
1938.6686
 21
1002.6243999999999
  0
LINE
  8
_0-0_LAYER001
  6
CONTINUOUS
 62
    2
 10
1962.6686
 20
989.23099999999999
 11
1938.6686
 21
1013.231
  0
LINE
  8
_0-0_LAYER001
  6
CONTINUOUS
 62
    2
 10
1962.6686
 20
999.83760000000007
 11
1938.6686
 21
1023.8376000000001
  0
LINE
  8
_0-0_LAYER001
  6
CONTINUOUS
 62
    2
 10
1962.6686
 20
1010.4441999999999
 11
1938.6686
 21
1034.4441999999999
  0
LINE
  8
_0-0_LAYER001
  6
CONTINUOUS
 62
    2
 10
1962.6686
 20
1021.0508
 11
1938.6686
 21
1045.0508
  0
LINE
  8
_0-0_LAYER001
  6
CONTINUOUS
 62
    2
 10
1962.6686
 20
1031.6574000000001
 11
1938.6686
 21
1055.6574000000001
  0
LINE
  8
_0-0_LAYER001
  6
CONTINUOUS
 62
    2
 10
1962.6686
 20
1042.2639999999999
 11
1938.6686
 21
1066.2639999999999
  0
LINE
  8
_0-0_LAYER001
  6
CONTINUOUS
 62
    2
 10
1962.6686
 20
1052.8706999999999
 11
1938.6686
 21
1076.8706999999999
  0
LINE
  8
_0-0_LAYER001
  6
CONTINUOUS
 62
    2
 10
1962.6686
 20
1063.4773
 11
1938.6686
 21
1087.4773
  0
LINE
  8
_0-0_LAYER001
  6
CONTINUOUS
 62
    2
 10
1962.6686
 20
1074.0839000000001
 11
1938.6686
 21
1098.0839000000001
  0
LINE
  8
_0-0_LAYER001
  6
CONTINUOUS
 62
    2
 10
1962.6686
 20
1084.6904999999999
 11
1946.9712
 21
1100.3878
  0
LINE
  8
_0-0_LAYER001
  6
CONTINUOUS
 62
    2
 10
2053.0902000000001
 20
1064.3878
 11
2010.5902000000001
 21
1064.3878
  0
CIRCLE
  8
_0-0_LAYER001
  6
CONTINUOUS
 62
    2
 10
2050.5902000000001
 20
1064.3878
 40
1.6999999999999997
  0
LINE
  8
_0-0_LAYER001
  6
CONTINUOUS
 62
    2
 10
2050.5902000000001
 20
1064.3878
 11
2050.5902000000001
 21
1100.3878
  0
CIRCLE
  8
_0-0_LAYER001
  6
CONTINUOUS
 62
    2
 10
2050.5902000000001
 20
1100.3878
 40
1.6999999999999997
  0
LINE
  8
_0-0_LAYER001
  6
CONTINUOUS
 62
    2
 10
2053.0902000000001
 20
1100.3878
 11
2010.5902000000001
 21
1100.3878
  0
LINE
  8
_0-1_LAYER004
  6
CONTINUOUS
 62
    2
 10
1814.0129999999999
 20
1109.4363000000001
 11
1810.2629999999999
 21
1102.9411
  0
LINE
  8
_0-1_LAYER004
  6
CONTINUOUS
 62
    2
 10
1810.2629999999999
 20
1102.9411
 11
1810.2629999999999
 21
1110.4411
  0
LINE
  8
_0-1_LAYER004
  6
CONTINUOUS
 62
    2
 10
1810.2629999999999
 20
1102.9411
 11
1841.0245
 21
1217.7446
  0
LINE
  8
_0-1_LAYER004
  6
CONTINUOUS
 62
    2
 10
1841.0245
 20
1217.7446
 11
1889.0245
 21
1217.7446
  0
LINE
  8
_0-0_LAYER001
  6
CONTINUOUS
 62
    2
 10
917.66859999999997
 20
1282.5219999999999
 11
917.66859999999997
 21
1230.0219999999999
  0
CIRCLE
  8
_0-0_LAYER001
  6
CONTINUOUS
 62
    2
 10
917.66859999999997
 20
1280.0219999999999
 40
1.6999999999999997
  0
LINE
  8
_0-0_LAYER001
  6
CONTINUOUS
 62
    2
 10
917.66859999999997
 20
1280.0219999999999
 11
1172.6686
 21
1280.0219999999999
  0
CIRCLE
  8
_0-0_LAYER001
  6
CONTINUOUS
 62
    2
 10
1172.6686
 20
1280.0219999999999
 40
1.6999999999999997
  0
LINE
  8
_0-0_LAYER001
  6
CONTINUOUS
 62
    2
 10
1172.6686
 20
1282.5219999999999
 11
1172.6686
 21
1230.0219999999999
  0
CIRCLE
  8
_0-0_LAYER001
  6
CONTINUOUS
 62
    2
 10
1172.6686
 20
1280.0219999999999
 40
1.6999999999999997
  0
LINE
  8
_0-0_LAYER001
  6
CONTINUOUS
 62
    2
 10
1172.6686
 20
1280.0219999999999
 11
1427.6686
 21
1280.0219999999999
  0
CIRCLE
  8
_0-0_LAYER001
  6
CONTINUOUS
 62
    2
 10
1427.6686
 20
1280.0219999999999
 40
1.6999999999999997
  0
LINE
  8
_0-0_LAYER001
  6
CONTINUOUS
 62
    2
 10
1427.6686
 20
1282.5219999999999
 11
1427.6686
 21
1230.0219999999999
  0
CIRCLE
  8
_0-0_LAYER001
  6
CONTINUOUS
 62
    2
 10
1427.6686
 20
1280.0219999999999
 40
1.6999999999999997
  0
LINE
  8
_0-0_LAYER001
  6
CONTINUOUS
 62
    2
 10
1427.6686
 20
1280.0219999999999
 11
1682.6686
 21
1280.0219999999999
  0
CIRCLE
  8
_0-0_LAYER001
  6
CONTINUOUS
 62
    2
 10
1682.6686
 20
1280.0219999999999
 40
1.6999999999999997
  0
LINE
  8
_0-0_LAYER001
  6
CONTINUOUS
 62
    2
 10
1682.6686
 20
1282.5219999999999
 11
1682.6686
 21
1230.0219999999999
  0
CIRCLE
  8
_0-0_LAYER001
  6
CONTINUOUS
 62
    2
 10
1682.6686
 20
1280.0219999999999
 40
1.6999999999999997
  0
LINE
  8
_0-0_LAYER001
  6
CONTINUOUS
 62
    2
 10
1682.6686
 20
1280.0219999999999
 11
1982.6686
 21
1280.0219999999999
  0
CIRCLE
  8
_0-0_LAYER001
  6
CONTINUOUS
 62
    2
 10
1982.6686
 20
1280.0219999999999
 40
1.6999999999999997
  0
LINE
  8
_0-0_LAYER001
  6
CONTINUOUS
 62
    2
 10
1982.6686
 20
1282.5219999999999
 11
1982.6686
 21
1230.0219999999999
  0
LINE
  8
_0-1_LAYER004
  6
CONTINUOUS
 62
    7
 10
917.66859999999997
 20
1281.722
 11
917.66859999999997
 21
1230.0219999999999
  0
LINE
  8
_0-1_LAYER004
  6
CONTINUOUS
 62
    7
 10
917.66859999999997
 20
1280.0219999999999
 11
1982.6686
 21
1280.0219999999999
  0
LINE
  8
_0-1_LAYER004
  6
CONTINUOUS
 62
    7
 10
1982.6686
 20
1230.0219999999999
 11
1982.6686
 21
1282.5219999999999
  0
LINE
  8
_0-1_LAYER004
  6
CONTINUOUS
 62
    7
 10
1841.0245
 20
1217.7446
 11
1889.0245
 21
1217.7446
  0
LINE
  8
_0-1_LAYER004
  6
CONTINUOUS
 62
    7
 10
1682.6686
 20
1282.5219999999999
 11
1682.6686
 21
1230.0219999999999
  0
LINE
  8
_0-1_LAYER004
  6
CONTINUOUS
 62
    7
 10
1427.6686
 20
1282.5219999999999
 11
1427.6686
 21
1230.0219999999999
  0
LINE
  8
_0-1_LAYER004
  6
CONTINUOUS
 62
    7
 10
1340.2339000000002
 20
1202.9692
 11
1380.7338999999999
 21
1202.9692
  0
LINE
  8
_0-1_LAYER004
  6
CONTINUOUS
 62
    7
 10
1282.1768
 20
894.53510000000006
 11
1479.4706419055094
 21
894.53510000000006
  0
LINE
  8
_0-1_LAYER004
  6
CONTINUOUS
 62
    7
 10
1225.2266999999999
 20
864.4398000000001
 11
1471.2267000000002
 21
864.4398000000001
  0
LINE
  8
_0-1_LAYER004
  6
CONTINUOUS
 62
    7
 10
1290.0121999999999
 20
834.34449999999993
 11
1461.6835999999998
 21
834.34449999999993
  0
LINE
  8
_0-1_LAYER004
  6
CONTINUOUS
 62
    7
 10
1392.4394000000002
 20
804.47790000000009
 11
1455.3398999999999
 21
804.47790000000009
  0
LINE
  8
_0-1_LAYER004
  6
CONTINUOUS
 62
    7
 10
1822.6369
 20
817.5766000000001
 11
1901.7689999999998
 21
817.5766000000001
  0
LINE
  8
_0-1_LAYER004
  6
CONTINUOUS
 62
    7
 10
1962.6686
 20
922.51430000000005
 11
1962.6686
 21
895.01430000000005
  0
LINE
  8
_0-1_LAYER004
  6
CONTINUOUS
 62
    7
 10
1962.6686
 20
897.51430000000005
 11
1982.6686
 21
897.51430000000005
  0
LINE
  8
_0-1_LAYER004
  6
CONTINUOUS
 62
    7
 10
1982.6686
 20
922.51430000000005
 11
1982.6686
 21
895.01430000000005
  0
LINE
  8
_0-1_LAYER004
  6
CONTINUOUS
 62
    7
 10
2010.5902000000001
 20
1100.3878
 11
2052.2902000000004
 21
1100.3878
  0
LINE
  8
_0-1_LAYER004
  6
CONTINUOUS
 62
    7
 10
2050.5902000000001
 20
1100.3878
 11
2050.5902000000001
 21
1052.3878
  0
LINE
  8
_0-1_LAYER004
  6
CONTINUOUS
 62
    7
 10
2010.5902000000001
 20
1052.3878
 11
2052.2902000000004
 21
1052.3878
  0
LINE
  8
_0-1_LAYER004
  6
CONTINUOUS
 62
    7
 10
2010.5902000000001
 20
1064.3878
 11
2052.2902000000004
 21
1064.3878
  0
LINE
  8
_0-1_LAYER004
  6
CONTINUOUS
 62
    7
 10
1878.6686
 20
1052.3878
 11
1878.6686
 21
992.38779999999997
  0
LINE
  8
_0-1_LAYER004
  6
CONTINUOUS
 62
    7
 10
1878.6686
 20
992.38779999999997
 11
1938.6686
 21
992.38779999999997
  0
LINE
  8
_0-1_LAYER004
  6
CONTINUOUS
 62
    7
 10
1938.6686
 20
992.38779999999997
 11
1938.6686
 21
1052.3878
  0
LINE
  8
_0-1_LAYER004
  6
CONTINUOUS
 62
    7
 10
1938.6686
 20
1052.3878
 11
916.90969999999993
 21
1052.3878
  0
LINE
  8
_0-1_LAYER004
  6
CONTINUOUS
 62
    7
 10
916.90969999999993
 20
1084.8668
 11
1938.6686
 21
1084.8668
  0
LINE
  8
_0-1_LAYER004
  6
CONTINUOUS
 62
    7
 10
1938.6686
 20
1069.8668
 11
916.90969999999993
 21
1069.8668
  0
LINE
  8
_0-1_LAYER004
  6
CONTINUOUS
 62
    7
 10
916.90969999999993
 20
1067.3878
 11
1938.6686
 21
1067.3878
  0
LINE
  8
_0-1_LAYER004
  6
CONTINUOUS
 62
    7
 10
1938.6686
 20
1068.8878
 11
916.90969999999993
 21
1068.8878
  0
LINE
  8
_0-1_LAYER004
  6
CONTINUOUS
 62
    7
 10
969.66859999999997
 20
1052.3878
 11
969.66859999999997
 21
992.38779999999997
  0
LINE
  8
_0-1_LAYER004
  6
CONTINUOUS
 62
    7
 10
969.66859999999997
 20
992.38779999999997
 11
1029.6686
 21
992.38779999999997
  0
LINE
  8
_0-1_LAYER004
  6
CONTINUOUS
 62
    7
 10
1029.6686
 20
992.38779999999997
 11
1029.6686
 21
1052.3878
  0
LINE
  8
_0-1_LAYER004
  6
CONTINUOUS
 62
    7
 10
1272.6686
 20
1052.3878
 11
1272.6686
 21
992.38779999999997
  0
LINE
  8
_0-1_LAYER004
  6
CONTINUOUS
 62
    7
 10
1272.6686
 20
992.38779999999997
 11
1332.6686
 21
992.38779999999997
  0
LINE
  8
_0-1_LAYER004
  6
CONTINUOUS
 62
    7
 10
1332.6686
 20
992.38779999999997
 11
1332.6686
 21
1052.3878
  0
LINE
  8
_0-1_LAYER004
  6
CONTINUOUS
 62
    7
 10
1575.6686
 20
1052.3878
 11
1575.6686
 21
992.38779999999997
  0
LINE
  8
_0-1_LAYER004
  6
CONTINUOUS
 62
    7
 10
1575.6686
 20
992.38779999999997
 11
1635.6686
 21
992.38779999999997
  0
LINE
  8
_0-1_LAYER004
  6
CONTINUOUS
 62
    7
 10
1635.6686
 20
992.38779999999997
 11
1635.6686
 21
1052.3878
  0
LINE
  8
_0-1_LAYER004
  6
CONTINUOUS
 62
    7
 10
1172.6686
 20
1282.5219999999999
 11
1172.6686
 21
1230.0219999999999
  0
LINE
  8
_0-1_LAYER004
  6
CONTINUOUS
 62
    7
 10
1311.5712000000003
 20
1103.4987000000001
 11
1311.5712000000003
 21
1095.9987000000001
  0
LINE
  8
_0-1_LAYER004
  6
CONTINUOUS
 62
    7
 10
1311.5712000000003
 20
1095.9987000000001
 11
1315.3212000000003
 21
1102.4938
  0
LINE
  8
_0-1_LAYER004
  6
CONTINUOUS
 62
    7
 10
1311.5712000000003
 20
1095.9987000000001
 11
1340.2339000000002
 21
1202.9692
  0
LINE
  8
_0-1_LAYER004
  6
CONTINUOUS
 62
    7
 10
1524.9450000000002
 20
1064.2478000000001
 11
1521.1950000000002
 21
1057.7526
  0
LINE
  8
_0-1_LAYER004
  6
CONTINUOUS
 62
    7
 10
1524.9450000000002
 20
1064.2478000000001
 11
1524.9450000000002
 21
1056.7478000000001
  0
LINE
  8
_0-1_LAYER004
  6
CONTINUOUS
 62
    7
 10
1575.6686
 20
1052.3878
 11
1635.6686
 21
992.38779999999997
  0
LINE
  8
_0-1_LAYER004
  6
CONTINUOUS
 62
    7
 10
1524.9450000000002
 20
1064.2478000000001
 11
1455.3398999999999
 21
804.47790000000009
  0
LINE
  8
_0-1_LAYER004
  6
CONTINUOUS
 62
    7
 10
1332.6686
 20
992.38779999999997
 11
1272.6686
 21
1052.3878
  0
LINE
  8
_0-1_LAYER004
  6
CONTINUOUS
 62
    7
 10
1029.6686
 20
992.38779999999997
 11
969.66859999999997
 21
1052.3878
  0
LINE
  8
_0-1_LAYER004
  6
CONTINUOUS
 62
    7
 10
1938.6686
 20
992.01780000000008
 11
1878.6686
 21
1052.3878
  0
LINE
  8
_0-1_LAYER004
  6
CONTINUOUS
 62
    7
 10
1810.2629999999999
 20
1110.4411
 11
1810.2629999999999
 21
1102.9411
  0
LINE
  8
_0-1_LAYER004
  6
CONTINUOUS
 62
    7
 10
1810.2629999999999
 20
1102.9411
 11
1814.0129999999999
 21
1109.4363000000001
  0
LINE
  8
_0-1_LAYER004
  6
CONTINUOUS
 62
    7
 10
1810.2629999999999
 20
1102.9411
 11
1841.0245
 21
1217.7446
  0
LINE
  8
_0-1_LAYER004
  6
CONTINUOUS
 62
    7
 10
1944.1297
 20
975.66869999999994
 11
1940.3797
 21
969.1735000000001
  0
LINE
  8
_0-1_LAYER004
  6
CONTINUOUS
 62
    7
 10
1944.1297
 20
975.66869999999994
 11
1944.1297
 21
968.16869999999994
  0
LINE
  8
_0-1_LAYER004
  6
CONTINUOUS
 62
    7
 10
1944.1297
 20
975.66869999999994
 11
1901.7689999999998
 21
817.5766000000001
  0
TEXT
  8
_0-0_LAYER001
 62
    7
 10
1339.4675428758162
 20
1211.2743009783603
 40
20
 41
1
 50
0
  1
桟　瓦
  0
TEXT
  8
_0-1_LAYER004
 62
    7
 10
1841.3225314198394
 20
1224.1791435409211
 40
20
 41
1
 50
0
  1
左袖瓦
  0
TEXT
  8
_0-0_LAYER001
 62
    7
 10
1034.8785258398723
 20
1290.8854974932583
 40
20
 41
1
 50
0
  1
255
  0
TEXT
  8
_0-0_LAYER001
 62
    7
 10
1289.7778515694013
 20
1288.8862870953801
 40
20
 41
1
 50
0
  1
255
  0
TEXT
  8
_0-0_LAYER001
 62
    7
 10
1542.6779669010511
 20
1292.8847078911372
 40
20
 41
1
 50
0
  1
255
  0
TEXT
  8
_0-0_LAYER001
 62
    7
 10
1820.5682122061842
 20
1287.8866818964402
 40
20
 41
1
 50
0
  1
295
  0
TEXT
  8
_0-0_LAYER001
 62
    7
 10
2077.4667483335925
 20
1049.9806445488803
 40
20
 41
1
 50
90
  1
12
  0
TEXT
  8
_0-0_LAYER001
 62
    7
 10
2076.4671431346524
 20
1075.9703797213028
 40
20
 41
1
 50
90
  1
36
  0
TEXT
  8
_0-0_LAYER001
 62
    7
 10
1967.5101764502663
 20
870.05170873980114
 40
20
 41
1
 50
0
  1
20
  0
TEXT
  8
_0-0_LAYER001
 62
    7
 10
1226.3250337956072
 20
837.70082529487991
 40
20
 41
1
 50
0
  1
　野地板：杉ｔ＝１２　
  0
TEXT
  8
_0-0_LAYER001
 62
    7
 10
1234.3548700895738
 20
897.92459749962813
 40
20
 41
1
 50
0
  1
　瓦桟：１５ｘ３０以上　　
  0
TEXT
  8
_0-0_LAYER001
 62
    7
 10
1225.2267000000002
 20
866.93980000000022
 40
20
 41
1
 50
0
  1
　下葺材：ルーフィング
  0
TEXT
  8
_0-1_LAYER004
 62
    7
 10
1825.8861437451012
 20
825.65607085393026
 40
20
 41
1
 50
0
  1
破風板　
  0
TEXT
  8
_0-0_LAYER001
 62
    7
 10
1384.2451475769471
 20
806.91978616800861
 40
20
 41
1
 50
0
  1
　垂木　
  0
ENDSEC
  0
EOF
