  0
SECTION
  2
HEADER
  9
$ACADVER
  1
AC1009
  9
$INSBASE
 10
0
 20
0
 30
0
  9
$EXTMIN
 10
0
 20
0
  9
$EXTMAX
 10
2970
 20
2100
  9
$LIMMIN
 10
0
 20
0
  9
$LIMMAX
 10
2970
 20
2100
  9
$LTSCALE
 40
10
  0
ENDSEC
  0
SECTION
  2
TABLES
  0
TABLE
  2
LTYPE
 70
     9
  0
LTYPE
  2
CONTINUOUS
 70
    64
  3
実線
 72
    65
 73
     0
 40
0.0
  0
LTYPE
  2
DASHED1
 70
    64
  3
--  --  --  --  --  --  --  --  
 72
    65
 73
     2
 40
2.5
 49
1.25
 49
-1.25
  0
LTYPE
  2
DASHED2
 70
    64
  3
----    ----    ----    ----    
 72
    65
 73
     2
 40
5.0
 49
2.5
 49
-2.5
  0
LTYPE
  2
DASHED3
 70
    64
  3
------  ------  ------  ------  
 72
    65
 73
     2
 40
5.0
 49
3.75
 49
-1.25
  0
LTYPE
  2
CENTER1
 70
    64
  3
----- - ----- - ----- - ----- - 
 72
    65
 73
     4
 40
10.0
 49
6.25
 49
-1.25
 49
1.25
 49
-1.25
  0
LTYPE
  2
CENTER2
 70
    64
  3
----------  --  ----------  --  
 72
    65
 73
     4
 40
20.0
 49
12.5
 49
-2.5
 49
2.5
 49
-2.5
  0
LTYPE
  2
PHANTOM1
 70
    64
  3
--- - - --- - - --- - - --- - - 
 72
    65
 73
     6
 40
10.0
 49
3.25
 49
-1.25
 49
1.25
 49
-1.25
 49
1.25
 49
-1.25
  0
LTYPE
  2
PHANTOM2
 70
    64
  3
--------  -  -  --------  -  -  
 72
    65
 73
     6
 40
20.0
 49
10.0
 49
-2.5
 49
1.25
 49
-2.5
 49
1.25
 49
-2.5
  0
LTYPE
  2
DOT
 70
    64
  3
-   -   -   -   -   -   -   -   
 72
    65
 73
     2
 40
2.5
 49
0.625
 49
-1.875
  0
LTYPE
  2
DUMMY
 70
    64
  3
ダミー
 72
    65
 73
     0
 40
0.0
  0
LTYPE
  2
RAND1
 70
    64
  3
ランダム線1
 72
    65
 73
     4
 40
10.0
 49
1.0
 49
-2.0
 49
3.0
 49
-4.0
  0
LTYPE
  2
RAND2
 70
    64
  3
ランダム線2
 72
    65
 73
     4
 40
14.0
 49
2.0
 49
-3.0
 49
4.0
 49
-5.0
  0
LTYPE
  2
RAND3
 70
    64
  3
ランダム線3
 72
    65
 73
     4
 40
18.0
 49
3.0
 49
-4.0
 49
5.0
 49
-6.0
  0
LTYPE
  2
RAND4
 70
    64
  3
ランダム線4
 72
    65
 73
     4
 40
22.0
 49
4.0
 49
-5.0
 49
6.0
 49
-7.0
  0
LTYPE
  2
RAND5
 70
    64
  3
ランダム線5
 72
    65
 73
     4
 40
26.0
 49
5.0
 49
-6.0
 49
7.0
 49
-8.0
  0
LTYPE
  2
LONG1
 70
    64
  3
----------  --  ----------  --  
 72
    65
 73
     4
 40
40.0
 49
32.5
 49
-2.5
 49
2.5
 49
-2.5
  0
LTYPE
  2
LONG2
 70
    64
  3
--------  -  -  --------  -  -  
 72
    65
 73
     6
 40
40.0
 49
30.0
 49
-2.5
 49
1.25
 49
-2.5
 49
1.25
 49
-2.5
  0
LTYPE
  2
LONG3
 70
    64
  3
+++++++++++++++..+++++++++++++++
 72
    65
 73
     2
 40
40.0
 49
37.5
 49
-2.5
  0
LTYPE
  2
LONG4
 70
    64
  3
+++++++++++++++..+++++++++++++++
 72
    65
 73
     2
 40
80.0
 49
75.0
 49
-5.0
  0
LTYPE
  2
LONG5
 70
    64
  3
----------  --  ----------  --  
 72
    65
 73
     4
 40
60.0
 49
37.5
 49
-7.5
 49
7.5
 49
-7.5
  0
LTYPE
  2
dashed
 70
   64
  3
-------   -------------   ------
 72
   65
 73
    2
 40
7.5
 49
6
 49
-1.5
  0
LTYPE
  2
dashed_spaced
 70
   64
  3
----        --------        ----
 72
   65
 73
    2
 40
12
 49
6
 49
-6
  0
LTYPE
  2
long_dashed_dotted
 70
   64
  3
------------- --- --------------
 72
   65
 73
    4
 40
15.25
 49
12
 49
-1.5
 49
0.25
 49
-1.5
  0
LTYPE
  2
long_dashed_double-dotted
 70
   64
  3
----------- --- --- ------------
 72
   65
 73
    6
 40
17
 49
12
 49
-1.5
 49
0.25
 49
-1.5
 49
0.25
 49
-1.5
  0
LTYPE
  2
long_dashed_triplicate-dotted
 70
   64
  3
--------- --- --- --- ----------
 72
   65
 73
    8
 40
18.75
 49
12
 49
-1.5
 49
0.25
 49
-1.5
 49
0.25
 49
-1.5
 49
0.25
 49
-1.5
  0
LTYPE
  2
dotted
 70
   64
  3
   -       -       -       -    
 72
   65
 73
    2
 40
1.75
 49
0.25
 49
-1.5
  0
LTYPE
  2
chain
 70
   64
  3
-------------- -- --------------
 72
   65
 73
    4
 40
18.5
 49
12
 49
-1.5
 49
3.5
 49
-1.5
  0
LTYPE
  2
chain_double_dash
 70
   64
  3
------------ -- -- -------------
 72
   65
 73
    6
 40
23.5
 49
12
 49
-1.5
 49
3.5
 49
-1.5
 49
3.5
 49
-1.5
  0
LTYPE
  2
dashed_dotted
 70
   64
  3
-----------     -     ----------
 72
   65
 73
    4
 40
9.25
 49
6
 49
-1.5
 49
0.25
 49
-1.5
  0
LTYPE
  2
double-dashed_dotted
 70
   64
  3
------   -----------   -   -----
 72
   65
 73
    6
 40
16.75
 49
6
 49
-1.5
 49
6
 49
-1.5
 49
0.25
 49
-1.5
  0
LTYPE
  2
dashed_double-dotted
 70
   64
  3
---------    -    -    ---------
 72
   65
 73
    6
 40
11
 49
6
 49
-1.5
 49
0.25
 49
-1.5
 49
0.25
 49
-1.5
  0
LTYPE
  2
double-dashed_double-dotted
 70
   64
  3
-----   ---------   -   -   ----
 72
   65
 73
    8
 40
18.5
 49
6
 49
-1.5
 49
6
 49
-1.5
 49
0.25
 49
-1.5
 49
0.25
 49
-1.5
  0
LTYPE
  2
dashed_triplicate-dotted
 70
   64
  3
-------    -    -    -    ------
 72
   65
 73
    8
 40
12.75
 49
6
 49
-1.5
 49
0.25
 49
-1.5
 49
0.25
 49
-1.5
 49
0.25
 49
-1.5
  0
LTYPE
  2
double-dashed_triplicate-dotted
 70
   64
  3
-----  ---------  -  -  -  -----
 72
   65
 73
   10
 40
20.25
 49
6
 49
-1.5
 49
6
 49
-1.5
 49
0.25
 49
-1.5
 49
0.25
 49
-1.5
 49
0.25
 49
-1.5
  0
LTYPE
  2
undefined
 70
   64
  3
--------------------------------
 72
   65
 73
    0
 40
0
  0
ENDTAB
  0
TABLE
  2
STYLE
  5
3
100
AcDbSymbolTable
 70
     1
  0
STYLE
  5
10
100
AcDbSymbolTableRecord
100
AcDbTextStyleTableRecord
  2
STANDARD
 70
     0
 40
0.0
 41
1.0
 50
0.0
 71
     0
 42
0.2
  3
txt
  4
bigfont.shx
  0
STYLE
  5
26
100
AcDbSymbolTableRecord
100
AcDbTextStyleTableRecord
  2
TATEGAKI
 70
    68
 40
0.0
 41
1.0
 50
0.0
 71
     0
 42
1.0
  3
txt
  4
bigfont.shx
  0
ENDTAB
  0
TABLE
  2
LAYER
 70
    7
  0
LAYER
  2
_0-0_LAYER001
 70
   64
 62
    7
  6
CONTINUOUS
  0
LAYER
  2
_0-1_LAYER003
 70
   64
 62
    7
  6
CONTINUOUS
  0
LAYER
  2
_0-2_LAYER004
 70
   64
 62
    7
  6
CONTINUOUS
  0
LAYER
  2
_0-3_LAYER005
 70
   64
 62
    7
  6
CONTINUOUS
  0
LAYER
  2
_0-4_LAYER006
 70
   64
 62
    7
  6
CONTINUOUS
  0
LAYER
  2
_0-5_LAYER007
 70
   64
 62
    7
  6
CONTINUOUS
  0
LAYER
  2
ADD_LINE
 70
   64
 62
    7
  6
CONTINUOUS
  0
ENDTAB
  0
ENDSEC
  0
SECTION
  2
BLOCKS
  0
ENDSEC
  0
SECTION
  2
ENTITIES
  0
LINE
  8
_0-2_LAYER004
  6
CONTINUOUS
 62
    2
 10
1762.5345000000002
 20
1034.2792999999999
 11
1756.3789999999999
 21
1047.9583
  0
LINE
  8
_0-2_LAYER004
  6
CONTINUOUS
 62
    2
 10
1725.9212000000002
 20
1397.2683000000002
 11
1727.8624
 21
1390.0237999999999
  0
LINE
  8
_0-2_LAYER004
  6
CONTINUOUS
 62
    2
 10
1727.8624
 20
1390.0237999999999
 11
1722.5590999999999
 21
1395.3271
  0
LINE
  8
_0-2_LAYER004
  6
CONTINUOUS
 62
    2
 10
1727.8624
 20
1390.0237999999999
 11
1676.8256000000001
 21
1478.4221
  0
LINE
  8
_0-2_LAYER004
  6
CONTINUOUS
 62
    2
 10
1676.8256000000001
 20
1478.4221
 11
1504.3256000000001
 21
1478.4221
  0
LINE
  8
_0-2_LAYER004
  6
CONTINUOUS
 62
    2
 10
1641.2979999999998
 20
1163.0822000000001
 11
1643.2390999999998
 21
1155.8378
  0
LINE
  8
_0-2_LAYER004
  6
CONTINUOUS
 62
    2
 10
1643.2390999999998
 20
1155.8378
 11
1637.9358000000002
 21
1161.1411000000001
  0
LINE
  8
_0-2_LAYER004
  6
CONTINUOUS
 62
    2
 10
1643.2390999999998
 20
1155.8378
 11
1541.2635
 21
1332.4648
  0
LINE
  8
_0-2_LAYER004
  6
CONTINUOUS
 62
    2
 10
1541.2635
 20
1332.4648
 11
1427.2635
 21
1332.4648
  0
LINE
  8
_0-2_LAYER004
  6
CONTINUOUS
 62
    2
 10
1928.8742999999999
 20
1350.7283000000002
 11
1876.3742999999999
 21
1350.7283000000002
  0
CIRCLE
  8
_0-2_LAYER004
  6
CONTINUOUS
 62
    2
 10
1926.3742999999999
 20
1350.7283000000002
 40
1.6999999999999997
  0
LINE
  8
_0-2_LAYER004
  6
CONTINUOUS
 62
    2
 10
1926.3742999999999
 20
1350.7283000000002
 11
1926.3742999999999
 21
1053.7373
  0
CIRCLE
  8
_0-2_LAYER004
  6
CONTINUOUS
 62
    2
 10
1926.3742999999999
 20
1053.7373
 40
1.6999999999999997
  0
LINE
  8
_0-2_LAYER004
  6
CONTINUOUS
 62
    2
 10
1928.8742999999999
 20
1053.7373
 11
1876.3742999999999
 21
1053.7373
  0
LINE
  8
_0-0_LAYER001
  6
CONTINUOUS
 62
    2
 10
1516.0360000000001
 20
946.9387999999999
 11
1543.3217
 21
959.40840000000003
  0
LINE
  8
_0-0_LAYER001
  6
CONTINUOUS
 62
    2
 10
1537.0868999999998
 20
973.05120000000011
 11
1509.8011999999999
 21
960.58159999999998
  0
LINE
  8
_0-0_LAYER001
  6
CONTINUOUS
 62
    2
 10
1543.3217
 20
959.40840000000003
 11
1537.0868999999998
 21
973.05120000000011
  0
LINE
  8
_0-0_LAYER001
  6
CONTINUOUS
 62
    2
 10
1509.8011999999999
 20
960.58159999999998
 11
1516.0360000000001
 21
946.9387999999999
  0
LINE
  8
_0-0_LAYER001
  6
CONTINUOUS
 62
    2
 10
1537.0868999999998
 20
973.05120000000011
 11
1516.0360000000001
 21
946.9387999999999
  0
LINE
  8
_0-0_LAYER001
  6
CONTINUOUS
 62
    2
 10
1310.1312000000003
 20
854.65010000000007
 11
1337.4169000000002
 21
867.11969999999997
  0
LINE
  8
_0-0_LAYER001
  6
CONTINUOUS
 62
    2
 10
1331.1821
 20
880.76260000000002
 11
1303.8964000000001
 21
868.29299999999989
  0
LINE
  8
_0-0_LAYER001
  6
CONTINUOUS
 62
    2
 10
1337.4169000000002
 20
867.11969999999997
 11
1331.1821
 21
880.76260000000002
  0
LINE
  8
_0-0_LAYER001
  6
CONTINUOUS
 62
    2
 10
1303.8964000000001
 20
868.29299999999989
 11
1310.1312000000003
 21
854.65010000000007
  0
LINE
  8
_0-0_LAYER001
  6
CONTINUOUS
 62
    2
 10
1331.1821
 20
880.76260000000002
 11
1310.1312000000003
 21
854.65010000000007
  0
LINE
  8
_0-0_LAYER001
  6
CONTINUOUS
 62
    2
 10
1104.2264
 20
762.36149999999998
 11
1131.5119999999999
 21
774.83110000000011
  0
LINE
  8
_0-0_LAYER001
  6
CONTINUOUS
 62
    2
 10
1125.2772
 20
788.47389999999996
 11
1097.9916000000001
 21
776.00430000000006
  0
LINE
  8
_0-0_LAYER001
  6
CONTINUOUS
 62
    2
 10
1131.5119999999999
 20
774.83110000000011
 11
1125.2772
 21
788.47389999999996
  0
LINE
  8
_0-0_LAYER001
  6
CONTINUOUS
 62
    2
 10
1097.9916000000001
 20
776.00430000000006
 11
1104.2264
 21
762.36149999999998
  0
LINE
  8
_0-0_LAYER001
  6
CONTINUOUS
 62
    2
 10
1125.2772
 20
788.47389999999996
 11
1104.2264
 21
762.36149999999998
  0
LINE
  8
_0-0_LAYER001
  6
CONTINUOUS
 62
    4
 10
1538.5605999999998
 20
973.74219999999991
 11
1542.6297
 21
962.45319999999992
  0
LINE
  8
_0-0_LAYER001
  6
CONTINUOUS
 62
    4
 10
1273.1482000000001
 20
896.14540000000011
 11
1744.4654999999998
 21
1066.0309
  0
LINE
  8
_0-0_LAYER001
  6
CONTINUOUS
 62
    4
 10
1256.5900999999999
 20
942.08300000000008
 11
1458.8519999999999
 21
1014.9880000000001
  0
LINE
  8
_0-0_LAYER001
  6
CONTINUOUS
 62
    4
 10
1456.4783000000002
 20
1021.5732
 11
1475.4101000000001
 21
969.05040000000008
  0
ARC
  8
_0-0_LAYER001
  6
CONTINUOUS
 62
    4
 10
1465.8859000000002
 20
1024.9641999999999
 40
10
 50
109.8216
 51
199.82160000000002
  0
ARC
  8
_0-0_LAYER001
  6
CONTINUOUS
 62
    4
 10
1276.5391999999999
 20
886.73790000000008
 40
10
 50
109.8216
 51
199.82160000000002
  0
ARC
  8
_0-0_LAYER001
  6
CONTINUOUS
 62
    4
 10
1482.444
 20
979.02659999999992
 40
10
 50
109.8216
 51
199.82160000000002
  0
LINE
  8
_0-0_LAYER001
  6
CONTINUOUS
 62
    4
 10
1730.6095
 20
1131.0130999999999
 11
1757.0014000000001
 21
1057.7936999999999
  0
LINE
  8
_0-0_LAYER001
  6
CONTINUOUS
 62
    4
 10
1479.0531000000001
 20
988.43409999999994
 11
1747.1677
 21
1085.0754999999999
  0
LINE
  8
_0-0_LAYER001
  6
CONTINUOUS
 62
    4
 10
1730.6095
 20
1131.0130999999999
 11
1747.1677
 21
1085.0754999999999
  0
LINE
  8
_0-0_LAYER001
  6
CONTINUOUS
 62
    4
 10
1748.5346
 20
1054.7418
 11
1757.0014000000001
 21
1057.7936999999999
  0
LINE
  8
_0-0_LAYER001
  6
CONTINUOUS
 62
    4
 10
1542.6297
 20
962.45319999999992
 11
1551.0965000000001
 21
965.50500000000011
  0
LINE
  8
_0-0_LAYER001
  6
CONTINUOUS
 62
    4
 10
1541.2628
 20
992.78690000000006
 11
1551.0965000000001
 21
965.50500000000011
  0
LINE
  8
_0-0_LAYER001
  6
CONTINUOUS
 62
    4
 10
1744.4654999999998
 20
1066.0309
 11
1748.5346
 21
1054.7418
  0
LINE
  8
_0-0_LAYER001
  6
CONTINUOUS
 62
    4
 10
1456.4783000000002
 20
1021.5732
 11
1469.6455000000001
 21
985.04320000000007
  0
LINE
  8
_0-0_LAYER001
  6
CONTINUOUS
 62
    4
 10
1089.2618
 20
793.72260000000006
 11
1332.6558
 21
881.45360000000005
  0
LINE
  8
_0-0_LAYER001
  6
CONTINUOUS
 62
    4
 10
1332.6558
 20
881.45360000000005
 11
1336.7248999999997
 21
870.16450000000009
  0
LINE
  8
_0-0_LAYER001
  6
CONTINUOUS
 62
    4
 10
1336.7248999999997
 20
870.16450000000009
 11
1345.1917000000001
 21
873.21630000000005
  0
LINE
  8
_0-0_LAYER001
  6
CONTINUOUS
 62
    4
 10
1139.2869000000001
 20
780.92769999999996
 11
1130.8200999999999
 21
777.8759
  0
LINE
  8
_0-0_LAYER001
  6
CONTINUOUS
 62
    4
 10
1096.579
 20
778.28950000000009
 11
1126.751
 21
789.16489999999999
  0
LINE
  8
_0-0_LAYER001
  6
CONTINUOUS
 62
    4
 10
1126.751
 20
789.16489999999999
 11
1130.8200999999999
 21
777.8759
  0
LINE
  8
_0-0_LAYER001
  6
CONTINUOUS
 62
    4
 10
1089.2618
 20
793.72260000000006
 11
1129.4531999999999
 21
808.20949999999993
  0
LINE
  8
_0-0_LAYER001
  6
CONTINUOUS
 62
    4
 10
1129.4531999999999
 20
808.20949999999993
 11
1139.2869000000001
 21
780.92769999999996
  0
LINE
  8
_0-0_LAYER001
  6
CONTINUOUS
 62
    4
 10
1060.9264000000001
 20
853.48579999999993
 11
1252.9472000000001
 21
922.69929999999999
  0
LINE
  8
_0-0_LAYER001
  6
CONTINUOUS
 62
    4
 10
1256.3380999999999
 20
913.29179999999997
 11
1269.5053
 21
876.76170000000002
  0
LINE
  8
_0-0_LAYER001
  6
CONTINUOUS
 62
    4
 10
1335.3579999999999
 20
900.4982
 11
1345.1917000000001
 21
873.21630000000005
  0
LINE
  8
_0-0_LAYER001
  6
CONTINUOUS
 62
    4
 10
1081.9445000000001
 20
809.15570000000002
 11
1538.5605999999998
 21
973.74219999999991
  0
LINE
  8
_0-0_LAYER001
  6
CONTINUOUS
 62
    4
 10
1462.4949000000001
 20
1034.3716999999999
 11
1730.6095
 21
1131.0130999999999
  0
LINE
  8
_0-0_LAYER001
  6
CONTINUOUS
 62
    4
 10
1730.6095
 20
1131.0130999999999
 11
1747.1677
 21
1085.0754999999999
  0
LINE
  8
_0-0_LAYER001
  6
CONTINUOUS
 62
    4
 10
1250.5735
 20
929.28459999999995
 11
1269.5053
 21
876.76170000000002
  0
ARC
  8
_0-0_LAYER001
  6
CONTINUOUS
 62
    4
 10
1259.981
 20
932.67550000000006
 40
10
 50
109.8216
 51
199.82160000000002
  0
LINE
  8
_0-0_LAYER001
  6
CONTINUOUS
 62
    2
 10
1721.9409000000001
 20
1039.2274
 11
1749.2265000000002
 21
1051.6971000000001
  0
LINE
  8
_0-0_LAYER001
  6
CONTINUOUS
 62
    2
 10
1742.9917
 20
1065.3398999999999
 11
1715.7060999999999
 21
1052.8703
  0
LINE
  8
_0-0_LAYER001
  6
CONTINUOUS
 62
    2
 10
1749.2265000000002
 20
1051.6971000000001
 11
1742.9917
 21
1065.3398999999999
  0
LINE
  8
_0-0_LAYER001
  6
CONTINUOUS
 62
    2
 10
1715.7060999999999
 20
1052.8703
 11
1721.9409000000001
 21
1039.2274
  0
LINE
  8
_0-0_LAYER001
  6
CONTINUOUS
 62
    2
 10
1742.9917
 20
1065.3398999999999
 11
1721.9409000000001
 21
1039.2274
  0
LINE
  8
_0-0_LAYER001
  6
CONTINUOUS
 62
    2
 10
1391.8064999999999
 20
1197.6790000000001
 11
1409.8145999999999
 21
1148.3641
  0
CIRCLE
  8
_0-0_LAYER001
  6
CONTINUOUS
 62
    2
 10
1392.664
 20
1195.3306
 40
1.6999999999999997
  0
LINE
  8
_0-0_LAYER001
  6
CONTINUOUS
 62
    2
 10
1392.664
 20
1195.3306
 11
1669.7665999999999
 21
1296.5192999999999
  0
CIRCLE
  8
_0-0_LAYER001
  6
CONTINUOUS
 62
    2
 10
1669.7665999999999
 20
1296.5192999999999
 40
1.6999999999999997
  0
LINE
  8
_0-0_LAYER001
  6
CONTINUOUS
 62
    2
 10
1669.7665999999999
 20
1296.5192999999999
 11
1687.7748000000001
 21
1247.2044000000001
  0
LINE
  8
_0-0_LAYER001
  6
CONTINUOUS
 62
    2
 10
1403.0101999999999
 20
1167.0281
 11
1420.8125999999997
 21
1117.6386
  0
CIRCLE
  8
_0-0_LAYER001
  6
CONTINUOUS
 62
    2
 10
1403.8579999999999
 20
1164.6762000000001
 40
1.6999999999999997
  0
LINE
  8
_0-0_LAYER001
  6
CONTINUOUS
 62
    2
 10
1403.8579999999999
 20
1164.6762000000001
 11
1192.1886
 21
1088.3803
  0
CIRCLE
  8
_0-0_LAYER001
  6
CONTINUOUS
 62
    2
 10
1192.1886
 20
1088.3803
 40
1.6999999999999997
  0
LINE
  8
_0-0_LAYER001
  6
CONTINUOUS
 62
    2
 10
1191.3407999999999
 20
1090.7321999999999
 11
1209.1432
 21
1041.3426999999999
  0
LINE
  8
_0-0_LAYER001
  6
CONTINUOUS
 62
    2
 10
1204.5616
 20
1054.0536
 11
1222.3639000000001
 21
1004.6641
  0
CIRCLE
  8
_0-0_LAYER001
  6
CONTINUOUS
 62
    2
 10
1205.4093
 20
1051.7017000000001
 40
1.6999999999999997
  0
LINE
  8
_0-0_LAYER001
  6
CONTINUOUS
 62
    2
 10
1205.4093
 20
1051.7017000000001
 11
1010.7439999999999
 21
981.53500000000008
  0
LINE
  8
_0-0_LAYER001
  6
CONTINUOUS
 62
    3
 10
1719.3065999999999
 20
1150.7746999999999
 11
1719.3393000000001
 21
1150.3100999999999
  0
LINE
  8
_0-0_LAYER001
  6
CONTINUOUS
 62
    3
 10
1719.3393000000001
 20
1150.3100999999999
 11
1719.4283
 21
1149.0489
  0
LINE
  8
_0-0_LAYER001
  6
CONTINUOUS
 62
    3
 10
1719.4283
 20
1149.0489
 11
1719.5592999999999
 21
1147.1904
  0
LINE
  8
_0-0_LAYER001
  6
CONTINUOUS
 62
    3
 10
1719.5592999999999
 20
1147.1904
 11
1719.7184999999999
 21
1144.9337
  0
LINE
  8
_0-0_LAYER001
  6
CONTINUOUS
 62
    3
 10
1719.7184999999999
 20
1144.9337
 11
1719.8917000000001
 21
1142.4777999999999
  0
LINE
  8
_0-0_LAYER001
  6
CONTINUOUS
 62
    3
 10
1719.8917000000001
 20
1142.4777999999999
 11
1720.0648000000001
 21
1140.0219
  0
LINE
  8
_0-0_LAYER001
  6
CONTINUOUS
 62
    3
 10
1720.0648000000001
 20
1140.0219
 11
1720.2240000000002
 21
1137.7652
  0
LINE
  8
_0-0_LAYER001
  6
CONTINUOUS
 62
    3
 10
1720.2240000000002
 20
1137.7652
 11
1720.3551000000002
 21
1135.9067
  0
LINE
  8
_0-0_LAYER001
  6
CONTINUOUS
 62
    3
 10
1720.3551000000002
 20
1135.9067
 11
1720.444
 21
1134.6455000000001
  0
LINE
  8
_0-0_LAYER001
  6
CONTINUOUS
 62
    3
 10
1720.444
 20
1134.6455000000001
 11
1720.4767999999999
 21
1134.1809000000001
  0
LINE
  8
_0-0_LAYER001
  6
CONTINUOUS
 62
    3
 10
1720.4767999999999
 20
1134.1809000000001
 11
1719.3307
 21
1134.1199999999999
  0
LINE
  8
_0-0_LAYER001
  6
CONTINUOUS
 62
    3
 10
1719.3307
 20
1134.1199999999999
 11
1715.9712
 21
1133.7873
  0
LINE
  8
_0-0_LAYER001
  6
CONTINUOUS
 62
    3
 10
1715.9712
 20
1133.7873
 11
1710.5160999999998
 21
1132.9576
  0
LINE
  8
_0-0_LAYER001
  6
CONTINUOUS
 62
    3
 10
1710.5160999999998
 20
1132.9576
 11
1703.0832999999998
 21
1131.4057
  0
LINE
  8
_0-0_LAYER001
  6
CONTINUOUS
 62
    3
 10
1703.0832999999998
 20
1131.4057
 11
1693.7907
 21
1128.9066
  0
LINE
  8
_0-0_LAYER001
  6
CONTINUOUS
 62
    3
 10
1693.7907
 20
1128.9066
 11
1682.7561999999998
 21
1125.2348999999999
  0
LINE
  8
_0-0_LAYER001
  6
CONTINUOUS
 62
    3
 10
1682.7561999999998
 20
1125.2348999999999
 11
1670.0978
 21
1120.1656
  0
LINE
  8
_0-0_LAYER001
  6
CONTINUOUS
 62
    3
 10
1670.0978
 20
1120.1656
 11
1655.9331999999999
 21
1113.4736
  0
LINE
  8
_0-0_LAYER001
  6
CONTINUOUS
 62
    3
 10
1655.9331999999999
 20
1113.4736
 11
1640.3804
 21
1104.9336000000001
  0
LINE
  8
_0-0_LAYER001
  6
CONTINUOUS
 62
    3
 10
1640.3804
 20
1104.9336000000001
 11
1623.5572999999999
 21
1094.3206
  0
LINE
  8
_0-0_LAYER001
  6
CONTINUOUS
 62
    3
 10
1623.5572999999999
 20
1094.3206
 11
1623.5039999999999
 21
1095.0767000000001
  0
LINE
  8
_0-0_LAYER001
  6
CONTINUOUS
 62
    3
 10
1623.5039999999999
 20
1095.0767000000001
 11
1623.3593000000001
 21
1097.1292000000001
  0
LINE
  8
_0-0_LAYER001
  6
CONTINUOUS
 62
    3
 10
1623.3593000000001
 20
1097.1292000000001
 11
1623.1460000000002
 21
1100.1538
  0
LINE
  8
_0-0_LAYER001
  6
CONTINUOUS
 62
    3
 10
1623.1460000000002
 20
1100.1538
 11
1622.8870000000002
 21
1103.8266000000001
  0
LINE
  8
_0-0_LAYER001
  6
CONTINUOUS
 62
    3
 10
1622.8870000000002
 20
1103.8266000000001
 11
1622.6051000000002
 21
1107.8235
  0
LINE
  8
_0-0_LAYER001
  6
CONTINUOUS
 62
    3
 10
1622.6051000000002
 20
1107.8235
 11
1622.3231999999998
 21
1111.8204000000001
  0
LINE
  8
_0-0_LAYER001
  6
CONTINUOUS
 62
    3
 10
1622.3231999999998
 20
1111.8204000000001
 11
1622.0641999999998
 21
1115.4931999999999
  0
LINE
  8
_0-0_LAYER001
  6
CONTINUOUS
 62
    3
 10
1622.0641999999998
 20
1115.4931999999999
 11
1621.8508999999999
 21
1118.5178000000001
  0
LINE
  8
_0-0_LAYER001
  6
CONTINUOUS
 62
    3
 10
1621.8508999999999
 20
1118.5178000000001
 11
1621.7062000000001
 21
1120.5703000000001
  0
LINE
  8
_0-0_LAYER001
  6
CONTINUOUS
 62
    3
 10
1621.7062000000001
 20
1120.5703000000001
 11
1621.6529
 21
1121.3263999999999
  0
LINE
  8
_0-0_LAYER001
  6
CONTINUOUS
 62
    3
 10
1621.6529
 20
1121.3263999999999
 11
1623.2746000000002
 21
1122.0283999999999
  0
LINE
  8
_0-0_LAYER001
  6
CONTINUOUS
 62
    3
 10
1623.2746000000002
 20
1122.0283999999999
 11
1627.8530000000001
 21
1123.9530999999999
  0
LINE
  8
_0-0_LAYER001
  6
CONTINUOUS
 62
    3
 10
1627.8530000000001
 20
1123.9530999999999
 11
1634.9580000000001
 21
1126.8290999999999
  0
LINE
  8
_0-0_LAYER001
  6
CONTINUOUS
 62
    3
 10
1634.9580000000001
 20
1126.8290999999999
 11
1644.1594
 21
1130.3844999999999
  0
LINE
  8
_0-0_LAYER001
  6
CONTINUOUS
 62
    3
 10
1644.1594
 20
1130.3844999999999
 11
1655.0270999999998
 21
1134.3478
  0
LINE
  8
_0-0_LAYER001
  6
CONTINUOUS
 62
    3
 10
1655.0270999999998
 20
1134.3478
 11
1667.1311000000001
 21
1138.4473
  0
LINE
  8
_0-0_LAYER001
  6
CONTINUOUS
 62
    3
 10
1667.1311000000001
 20
1138.4473
 11
1680.0410999999999
 21
1142.4114
  0
LINE
  8
_0-0_LAYER001
  6
CONTINUOUS
 62
    3
 10
1680.0410999999999
 20
1142.4114
 11
1693.3271
 21
1145.9684999999999
  0
LINE
  8
_0-0_LAYER001
  6
CONTINUOUS
 62
    3
 10
1693.3271
 20
1145.9684999999999
 11
1706.5590000000002
 21
1148.8468
  0
LINE
  8
_0-0_LAYER001
  6
CONTINUOUS
 62
    3
 10
1719.3065999999999
 20
1150.7746999999999
 11
1706.4481000000001
 21
1148.8226
  0
LINE
  8
_0-0_LAYER001
  6
CONTINUOUS
 62
    2
 10
1648.0029
 20
1169.8749
 11
1671.5848999999998
 21
1178.4581000000001
  0
LINE
  8
_0-0_LAYER001
  6
CONTINUOUS
 62
    2
 10
1648.0029
 20
1169.8749
 11
1653.9155000000001
 21
1170.8951999999999
  0
LINE
  8
_0-0_LAYER001
  6
CONTINUOUS
 62
    2
 10
1673.9018000000001
 20
1176.8359
 11
1762.5345000000002
 21
1192.4641999999999
  0
LINE
  8
_0-0_LAYER001
  6
CONTINUOUS
 62
    2
 10
1671.2972
 20
1191.6079999999999
 11
1759.9297999999999
 21
1207.2363
  0
LINE
  8
_0-0_LAYER001
  6
CONTINUOUS
 62
    2
 10
1671.2972
 20
1191.6079999999999
 11
1673.9018000000001
 21
1176.8359
  0
LINE
  8
_0-0_LAYER001
  6
CONTINUOUS
 62
    2
 10
1759.9297999999999
 20
1207.2363
 11
1762.5345000000002
 21
1192.4641999999999
  0
LINE
  8
_0-0_LAYER001
  6
CONTINUOUS
 62
    2
 10
1762.5345000000002
 20
1192.4641999999999
 11
1671.2972
 21
1191.6079999999999
  0
LINE
  8
_0-0_LAYER001
  6
CONTINUOUS
 62
    2
 10
1668.9803000000002
 20
1193.2302
 11
1671.5848999999998
 21
1178.4581000000001
  0
LINE
  8
_0-0_LAYER001
  6
DASHED1
 62
    2
 10
1810.5345000000002
 20
1172.4641999999999
 11
1805.5344
 21
1175.4641999999999
  0
LINE
  8
_0-0_LAYER001
  6
DASHED1
 62
    2
 10
1805.5344
 20
1169.4643000000001
 11
1810.5345000000002
 21
1172.4641999999999
  0
LINE
  8
_0-0_LAYER001
  6
CONTINUOUS
 62
    2
 10
1738.5344
 20
1169.4643000000001
 11
1738.5344
 21
1175.4641999999999
  0
LINE
  8
_0-0_LAYER001
  6
CONTINUOUS
 62
    2
 10
1732.5345000000002
 20
1166.4641999999999
 11
1732.5345000000002
 21
1178.4643000000001
  0
LINE
  8
_0-0_LAYER001
  6
CONTINUOUS
 62
    2
 10
1741.4214000000002
 20
1169.4643000000001
 11
1744.8845000000001
 21
1175.4641999999999
  0
LINE
  8
_0-0_LAYER001
  6
CONTINUOUS
 62
    2
 10
1732.5345000000002
 20
1166.4641999999999
 11
1738.5344
 21
1169.4643000000001
  0
LINE
  8
_0-0_LAYER001
  6
CONTINUOUS
 62
    2
 10
1738.5344
 20
1175.4641999999999
 11
1732.5345000000002
 21
1178.4643000000001
  0
LINE
  8
_0-0_LAYER001
  6
DASHED1
 62
    2
 10
1805.5344
 20
1175.4641999999999
 11
1762.5345000000002
 21
1175.4641999999999
  0
LINE
  8
_0-0_LAYER001
  6
DASHED1
 62
    2
 10
1805.5344
 20
1169.4643000000001
 11
1762.5345000000002
 21
1169.4643000000001
  0
LINE
  8
_0-0_LAYER001
  6
CONTINUOUS
 62
    2
 10
1762.5345000000002
 20
1168.2141999999999
 11
1762.5345000000002
 21
1176.7141999999999
  0
LINE
  8
_0-0_LAYER001
  6
CONTINUOUS
 62
    2
 10
1732.5345000000002
 20
1152.4641999999999
 11
1762.5345000000002
 21
1152.4641999999999
  0
LINE
  8
_0-0_LAYER001
  6
CONTINUOUS
 62
    2
 10
1762.5345000000002
 20
1175.4641999999999
 11
1738.5344
 21
1175.4641999999999
  0
LINE
  8
_0-0_LAYER001
  6
CONTINUOUS
 62
    2
 10
1762.5345000000002
 20
1169.4643000000001
 11
1738.5344
 21
1169.4643000000001
  0
LINE
  8
_0-0_LAYER001
  6
CONTINUOUS
 62
    2
 10
1747.1446000000001
 20
1169.4643000000001
 11
1750.6075999999998
 21
1175.4641999999999
  0
LINE
  8
_0-0_LAYER001
  6
CONTINUOUS
 62
    2
 10
1752.8676999999998
 20
1169.4643000000001
 11
1756.3308000000002
 21
1175.4641999999999
  0
LINE
  8
_0-0_LAYER001
  6
CONTINUOUS
 62
    2
 10
1758.5907999999999
 20
1169.4643000000001
 11
1762.0538999999999
 21
1175.4641999999999
  0
LINE
  8
_0-0_LAYER001
  6
CONTINUOUS
 62
    2
 10
1732.5345000000002
 20
1152.4641999999999
 11
1732.5345000000002
 21
1187.1744000000001
  0
LINE
  8
_0-0_LAYER001
  6
CONTINUOUS
 62
    2
 10
1762.5345000000002
 20
1152.4641999999999
 11
1736.0385000000001
 21
1187.7923000000001
  0
LINE
  8
_0-0_LAYER001
  6
CONTINUOUS
 62
    2
 10
1668.9803000000002
 20
1193.2302
 11
1758.1405
 21
1208.9516000000001
  0
LINE
  8
_0-0_LAYER001
  6
CONTINUOUS
 62
    2
 10
1741.7125999999998
 20
1204.0241000000001
 11
1750.4821000000002
 21
1205.5704000000001
  0
LINE
  8
_0-0_LAYER001
  6
CONTINUOUS
 62
    2
 10
1749.2383
 20
1176.3122000000001
 11
1752.6799999999998
 21
1168.0732
  0
LINE
  8
_0-0_LAYER001
  6
CONTINUOUS
 62
    2
 10
1748.1985
 20
1203.5478000000001
 11
1752.8883999999998
 21
1176.9559999999999
  0
LINE
  8
_0-0_LAYER001
  6
CONTINUOUS
 62
    2
 10
1752.6799999999998
 20
1168.0732
 11
1752.8883999999998
 21
1176.9559999999999
  0
LINE
  8
_0-0_LAYER001
  6
CONTINUOUS
 62
    2
 10
1744.5486000000001
 20
1202.9055000000001
 11
1741.7125999999998
 21
1204.0241000000001
  0
LINE
  8
_0-0_LAYER001
  6
CONTINUOUS
 62
    2
 10
1748.1985
 20
1203.5478000000001
 11
1750.4821000000002
 21
1205.5704000000001
  0
LINE
  8
_0-0_LAYER001
  6
CONTINUOUS
 62
    2
 10
1744.5486000000001
 20
1202.9055000000001
 11
1749.2383
 21
1176.3122000000001
  0
LINE
  8
_0-0_LAYER001
  6
CONTINUOUS
 62
    3
 10
1729.2628
 20
1185.5996
 11
1729.2955999999999
 21
1185.135
  0
LINE
  8
_0-0_LAYER001
  6
CONTINUOUS
 62
    3
 10
1729.2955999999999
 20
1185.135
 11
1729.3845000000001
 21
1183.8739
  0
LINE
  8
_0-0_LAYER001
  6
CONTINUOUS
 62
    3
 10
1729.3845000000001
 20
1183.8739
 11
1729.5156000000002
 21
1182.0154
  0
LINE
  8
_0-0_LAYER001
  6
CONTINUOUS
 62
    3
 10
1729.5156000000002
 20
1182.0154
 11
1729.6747
 21
1179.7585999999999
  0
LINE
  8
_0-0_LAYER001
  6
CONTINUOUS
 62
    3
 10
1729.6747
 20
1179.7585999999999
 11
1729.8479000000002
 21
1177.3027
  0
LINE
  8
_0-0_LAYER001
  6
CONTINUOUS
 62
    3
 10
1729.8479000000002
 20
1177.3027
 11
1730.1801999999998
 21
1172.5900999999999
  0
LINE
  8
_0-0_LAYER001
  6
CONTINUOUS
 62
    3
 10
1730.1801999999998
 20
1172.5900999999999
 11
1730.3112999999998
 21
1170.7316000000001
  0
LINE
  8
_0-0_LAYER001
  6
CONTINUOUS
 62
    3
 10
1730.3112999999998
 20
1170.7316000000001
 11
1730.4002
 21
1169.4704999999999
  0
LINE
  8
_0-0_LAYER001
  6
CONTINUOUS
 62
    3
 10
1730.4002
 20
1169.4704999999999
 11
1730.433
 21
1169.0059000000001
  0
LINE
  8
_0-0_LAYER001
  6
CONTINUOUS
 62
    3
 10
1730.433
 20
1169.0059000000001
 11
1729.2869999999998
 21
1168.9449999999999
  0
LINE
  8
_0-0_LAYER001
  6
CONTINUOUS
 62
    3
 10
1729.2869999999998
 20
1168.9449999999999
 11
1725.9274
 21
1168.6123
  0
LINE
  8
_0-0_LAYER001
  6
CONTINUOUS
 62
    3
 10
1725.9274
 20
1168.6123
 11
1720.4722999999999
 21
1167.7826
  0
LINE
  8
_0-0_LAYER001
  6
CONTINUOUS
 62
    3
 10
1720.4722999999999
 20
1167.7826
 11
1713.0394999999999
 21
1166.2307000000001
  0
LINE
  8
_0-0_LAYER001
  6
CONTINUOUS
 62
    3
 10
1713.0394999999999
 20
1166.2307000000001
 11
1703.7469999999998
 21
1163.7315000000001
  0
LINE
  8
_0-0_LAYER001
  6
CONTINUOUS
 62
    3
 10
1703.7469999999998
 20
1163.7315000000001
 11
1692.7125000000001
 21
1160.0599
  0
LINE
  8
_0-0_LAYER001
  6
CONTINUOUS
 62
    3
 10
1692.7125000000001
 20
1160.0599
 11
1680.0540000000001
 21
1154.9906000000001
  0
LINE
  8
_0-0_LAYER001
  6
CONTINUOUS
 62
    3
 10
1680.0540000000001
 20
1154.9906000000001
 11
1665.8894
 21
1148.2986000000001
  0
LINE
  8
_0-0_LAYER001
  6
CONTINUOUS
 62
    3
 10
1665.8894
 20
1148.2986000000001
 11
1650.3366999999998
 21
1139.7585999999999
  0
LINE
  8
_0-0_LAYER001
  6
CONTINUOUS
 62
    3
 10
1650.3366999999998
 20
1139.7585999999999
 11
1633.5136000000002
 21
1129.1455000000001
  0
LINE
  8
_0-0_LAYER001
  6
CONTINUOUS
 62
    3
 10
1633.5136000000002
 20
1129.1455000000001
 11
1633.4603000000002
 21
1129.9016999999999
  0
LINE
  8
_0-0_LAYER001
  6
CONTINUOUS
 62
    3
 10
1633.4603000000002
 20
1129.9016999999999
 11
1633.3155000000002
 21
1131.9540999999999
  0
LINE
  8
_0-0_LAYER001
  6
CONTINUOUS
 62
    3
 10
1633.3155000000002
 20
1131.9540999999999
 11
1633.1021999999998
 21
1134.9788000000001
  0
LINE
  8
_0-0_LAYER001
  6
CONTINUOUS
 62
    3
 10
1633.1021999999998
 20
1134.9788000000001
 11
1632.8431999999998
 21
1138.6515999999999
  0
LINE
  8
_0-0_LAYER001
  6
CONTINUOUS
 62
    3
 10
1632.8431999999998
 20
1138.6515999999999
 11
1632.5612999999998
 21
1142.6484
  0
LINE
  8
_0-0_LAYER001
  6
CONTINUOUS
 62
    3
 10
1632.5612999999998
 20
1142.6484
 11
1632.2795000000001
 21
1146.6452999999999
  0
LINE
  8
_0-0_LAYER001
  6
CONTINUOUS
 62
    3
 10
1632.2795000000001
 20
1146.6452999999999
 11
1632.0205000000001
 21
1150.3181
  0
LINE
  8
_0-0_LAYER001
  6
CONTINUOUS
 62
    3
 10
1632.0205000000001
 20
1150.3181
 11
1631.8072000000002
 21
1153.3427999999999
  0
LINE
  8
_0-0_LAYER001
  6
CONTINUOUS
 62
    3
 10
1631.8072000000002
 20
1153.3427999999999
 11
1631.6624000000002
 21
1155.3951999999999
  0
LINE
  8
_0-0_LAYER001
  6
CONTINUOUS
 62
    3
 10
1631.6624000000002
 20
1155.3951999999999
 11
1631.6091000000001
 21
1156.1514
  0
LINE
  8
_0-0_LAYER001
  6
CONTINUOUS
 62
    3
 10
1631.6091000000001
 20
1156.1514
 11
1633.2307999999998
 21
1156.8533
  0
LINE
  8
_0-0_LAYER001
  6
CONTINUOUS
 62
    3
 10
1633.2307999999998
 20
1156.8533
 11
1637.8092000000001
 21
1158.7781
  0
LINE
  8
_0-0_LAYER001
  6
CONTINUOUS
 62
    3
 10
1637.8092000000001
 20
1158.7781
 11
1644.9142000000002
 21
1161.654
  0
LINE
  8
_0-0_LAYER001
  6
CONTINUOUS
 62
    3
 10
1644.9142000000002
 20
1161.654
 11
1654.1156000000001
 21
1165.2094999999999
  0
LINE
  8
_0-0_LAYER001
  6
CONTINUOUS
 62
    3
 10
1654.1156000000001
 20
1165.2094999999999
 11
1664.9834000000001
 21
1169.1728000000001
  0
LINE
  8
_0-0_LAYER001
  6
CONTINUOUS
 62
    3
 10
1664.9834000000001
 20
1169.1728000000001
 11
1677.0873000000001
 21
1173.2723000000001
  0
LINE
  8
_0-0_LAYER001
  6
CONTINUOUS
 62
    3
 10
1677.0873000000001
 20
1173.2723000000001
 11
1689.9974000000002
 21
1177.2364
  0
LINE
  8
_0-0_LAYER001
  6
CONTINUOUS
 62
    3
 10
1689.9974000000002
 20
1177.2364
 11
1703.2833999999998
 21
1180.7934
  0
LINE
  8
_0-0_LAYER001
  6
CONTINUOUS
 62
    3
 10
1703.2833999999998
 20
1180.7934
 11
1716.5151999999998
 21
1183.6717000000001
  0
LINE
  8
_0-0_LAYER001
  6
CONTINUOUS
 62
    3
 10
1729.2628
 20
1185.5996
 11
1716.4043000000001
 21
1183.6476
  0
LINE
  8
_0-2_LAYER004
  6
CONTINUOUS
 62
    2
 10
1708.5911999999998
 20
1206.6645000000001
 11
1710.5322999999999
 21
1199.4201
  0
LINE
  8
_0-2_LAYER004
  6
CONTINUOUS
 62
    2
 10
1710.5322999999999
 20
1199.4201
 11
1705.2289999999998
 21
1204.7234000000001
  0
LINE
  8
_0-2_LAYER004
  6
CONTINUOUS
 62
    2
 10
1710.5322999999999
 20
1199.4201
 11
1589.7132999999999
 21
1408.6847
  0
LINE
  8
_0-2_LAYER004
  6
CONTINUOUS
 62
    2
 10
1589.7132999999999
 20
1408.6847
 11
1355.7132999999999
 21
1408.6847
  0
LINE
  8
_0-0_LAYER001
  6
CONTINUOUS
 62
    2
 10
1661.0781000000002
 20
1145.6566
 11
1660.7372
 21
1136.2818
  0
LINE
  8
_0-2_LAYER004
  6
CONTINUOUS
 62
    2
 10
1842.7017000000001
 20
1208.8823
 11
1790.2017000000001
 21
1208.8823
  0
CIRCLE
  8
_0-2_LAYER004
  6
CONTINUOUS
 62
    2
 10
1840.2017000000001
 20
1208.8823
 40
1.6999999999999997
  0
LINE
  8
_0-2_LAYER004
  6
CONTINUOUS
 62
    2
 10
1840.2017000000001
 20
1208.8823
 11
1840.2017000000001
 21
1358.8823
  0
CIRCLE
  8
_0-2_LAYER004
  6
CONTINUOUS
 62
    2
 10
1840.2017000000001
 20
1358.8823
 40
1.6999999999999997
  0
LINE
  8
_0-2_LAYER004
  6
CONTINUOUS
 62
    2
 10
1842.7017000000001
 20
1358.8823
 11
1790.2017000000001
 21
1358.8823
  0
LINE
  8
_0-1_LAYER003
  6
CONTINUOUS
 62
    2
 10
1106.7835
 20
673.39630000000011
 11
1762.5345000000002
 21
968.48430000000008
  0
LINE
  8
_0-1_LAYER003
  6
CONTINUOUS
 62
    2
 10
1082.1614999999999
 20
728.11130000000003
 11
1762.5345000000002
 21
1034.2792999999999
  0
LINE
  8
_0-1_LAYER003
  6
CONTINUOUS
 62
    2
 10
1076.0065
 20
741.79029999999989
 11
1756.3789999999999
 21
1047.9583
  0
LINE
  8
_0-2_LAYER004
  6
DASHED3
 62
    2
 10
1074.3644999999999
 20
745.43830000000003
 11
1759.4735000000001
 21
1053.7373
  0
LINE
  8
_0-4_LAYER006
  6
DASHED3
 62
    2
 10
1759.4735000000001
 20
1053.7373
 11
1759.4735000000001
 21
1350.7283000000002
  0
LINE
  8
_0-4_LAYER006
  6
CONTINUOUS
 62
    2
 10
1758.1405
 20
1208.9516000000001
 11
1758.1405
 21
1358.8823
  0
LINE
  8
_0-4_LAYER006
  6
CONTINUOUS
 62
    2
 10
1735.1395000000002
 20
1210.9912999999999
 11
1723.1405
 21
1210.9912999999999
  0
LINE
  8
_0-4_LAYER006
  6
CONTINUOUS
 62
    2
 10
1735.1395000000002
 20
1232.7792999999999
 11
1735.1395000000002
 21
1272.7792999999999
  0
LINE
  8
_0-4_LAYER006
  6
CONTINUOUS
 62
    2
 10
1735.1395000000002
 20
1272.7792999999999
 11
1755.1405
 21
1272.7792999999999
  0
LINE
  8
_0-4_LAYER006
  6
CONTINUOUS
 62
    2
 10
1755.1405
 20
1272.7792999999999
 11
1755.1405
 21
1232.7792999999999
  0
LINE
  8
_0-4_LAYER006
  6
CONTINUOUS
 62
    2
 10
1755.1405
 20
1232.7792999999999
 11
1735.1395000000002
 21
1232.7792999999999
  0
LINE
  8
_0-4_LAYER006
  6
CONTINUOUS
 62
    2
 10
1755.1405
 20
1272.7792999999999
 11
1735.1395000000002
 21
1232.7792999999999
  0
LINE
  8
_0-3_LAYER005
  6
CONTINUOUS
 62
    2
 10
1702.5345000000002
 20
941.48430000000008
 11
1762.5345000000002
 21
941.48430000000008
  0
LINE
  8
_0-3_LAYER005
  6
CONTINUOUS
 62
    2
 10
1702.5345000000002
 20
836.48430000000008
 11
1762.5345000000002
 21
836.48430000000008
  0
LINE
  8
_0-3_LAYER005
  6
CONTINUOUS
 62
    2
 10
1702.5345000000002
 20
941.48430000000008
 11
1702.5345000000002
 21
836.48430000000008
  0
LINE
  8
_0-3_LAYER005
  6
CONTINUOUS
 62
    2
 10
1762.5345000000002
 20
941.48430000000008
 11
1702.5345000000002
 21
836.48430000000008
  0
LINE
  8
_0-1_LAYER003
  6
CONTINUOUS
 62
    3
 10
1762.5345000000002
 20
1469.4873000000002
 11
1762.5345000000002
 21
635.7953
  0
LINE
  8
_0-4_LAYER006
  6
CONTINUOUS
 62
    2
 10
1735.1395000000002
 20
1210.9912999999999
 11
1735.1395000000002
 21
1469.4873000000002
  0
LINE
  8
_0-4_LAYER006
  6
CONTINUOUS
 62
    2
 10
1723.1405
 20
1210.9912999999999
 11
1723.1405
 21
1469.4873000000002
  0
ARC
  8
_0-5_LAYER007
  6
CONTINUOUS
 62
    2
 10
1468.2624999999998
 20
1069.8533
 40
196.005
 50
355.72559000000001
 51
13.400274000000044
  0
CIRCLE
  8
_0-3_LAYER005
  6
CONTINUOUS
 62
    2
 10
1703.3515000000002
 20
1128.2517
 40
1.018
  0
CIRCLE
  8
_0-3_LAYER005
  6
CONTINUOUS
 62
    2
 10
1695.6725000000001
 20
1127.1547
 40
1.018
  0
CIRCLE
  8
_0-3_LAYER005
  6
CONTINUOUS
 62
    2
 10
1691.6505000000002
 20
1119.1097
 40
1.018
  0
CIRCLE
  8
_0-3_LAYER005
  6
CONTINUOUS
 62
    2
 10
1689.0915
 20
1113.6257000000001
 40
1.018
  0
CIRCLE
  8
_0-3_LAYER005
  6
CONTINUOUS
 62
    2
 10
1690.1875
 20
1108.1406999999999
 40
1.018
  0
CIRCLE
  8
_0-3_LAYER005
  6
CONTINUOUS
 62
    2
 10
1694.9414999999999
 20
1103.0217
 40
1.018
  0
CIRCLE
  8
_0-3_LAYER005
  6
CONTINUOUS
 62
    2
 10
1695.6725000000001
 20
1097.1706999999999
 40
1.018
  0
CIRCLE
  8
_0-3_LAYER005
  6
CONTINUOUS
 62
    2
 10
1692.0165000000002
 20
1076.6832999999999
 40
1.018
  0
CIRCLE
  8
_0-3_LAYER005
  6
CONTINUOUS
 62
    2
 10
1681.7784999999999
 20
1071.1983
 40
1.018
  0
CIRCLE
  8
_0-3_LAYER005
  6
CONTINUOUS
 62
    2
 10
1672.6365000000001
 20
1076.3172999999999
 40
1.018
  0
CIRCLE
  8
_0-3_LAYER005
  6
CONTINUOUS
 62
    2
 10
1669.7114999999999
 20
1069.0043000000001
 40
1.018
  0
CIRCLE
  8
_0-3_LAYER005
  6
CONTINUOUS
 62
    2
 10
1669.3454999999999
 20
1074.8552999999999
 40
1.018
  0
CIRCLE
  8
_0-3_LAYER005
  6
CONTINUOUS
 62
    2
 10
1669.3454999999999
 20
1080.7053000000001
 40
1.018
  0
CIRCLE
  8
_0-3_LAYER005
  6
CONTINUOUS
 62
    2
 10
1668.6145000000001
 20
1100.4617000000001
 40
1.018
  0
CIRCLE
  8
_0-3_LAYER005
  6
CONTINUOUS
 62
    2
 10
1669.3454999999999
 20
1106.6777
 40
1.018
  0
CIRCLE
  8
_0-3_LAYER005
  6
CONTINUOUS
 62
    2
 10
1669.7114999999999
 20
1116.5507
 40
1.018
  0
CIRCLE
  8
_0-3_LAYER005
  6
CONTINUOUS
 62
    2
 10
1670.8085000000001
 20
1121.3036999999999
 40
1.018
  0
CIRCLE
  8
_0-3_LAYER005
  6
CONTINUOUS
 62
    2
 10
1684.7035000000001
 20
1128.2517
 40
1.018
  0
CIRCLE
  8
_0-3_LAYER005
  6
CONTINUOUS
 62
    2
 10
1681.0464999999999
 20
1107.7746999999999
 40
1.018
  0
CIRCLE
  8
_0-3_LAYER005
  6
CONTINUOUS
 62
    2
 10
1679.9495000000002
 20
1099.3647000000001
 40
1.018
  0
CIRCLE
  8
_0-3_LAYER005
  6
CONTINUOUS
 62
    2
 10
1688.7255
 20
1094.9776999999999
 40
1.018
  0
CIRCLE
  8
_0-3_LAYER005
  6
CONTINUOUS
 62
    2
 10
1701.5234999999998
 20
1096.4396999999999
 40
1.018
  0
CIRCLE
  8
_0-3_LAYER005
  6
CONTINUOUS
 62
    2
 10
1704.4485
 20
1102.2907
 40
1.018
  0
CIRCLE
  8
_0-3_LAYER005
  6
CONTINUOUS
 62
    2
 10
1716.8805000000002
 20
1113.6257000000001
 40
1.018
  0
CIRCLE
  8
_0-3_LAYER005
  6
CONTINUOUS
 62
    2
 10
1712.1275000000001
 20
1129.3487
 40
1.018
  0
CIRCLE
  8
_0-3_LAYER005
  6
CONTINUOUS
 62
    2
 10
1719.0745000000002
 20
1138.4897000000001
 40
1.018
  0
CIRCLE
  8
_0-3_LAYER005
  6
CONTINUOUS
 62
    3
 10
1715.0524999999998
 20
1145.8027
 40
1.018
  0
CIRCLE
  8
_0-3_LAYER005
  6
CONTINUOUS
 62
    2
 10
1705.1795000000002
 20
1142.5117
 40
1.018
  0
CIRCLE
  8
_0-3_LAYER005
  6
CONTINUOUS
 62
    2
 10
1701.1574999999998
 20
1133.0047
 40
1.018
  0
CIRCLE
  8
_0-3_LAYER005
  6
CONTINUOUS
 62
    2
 10
1694.2105000000001
 20
1134.8326999999999
 40
1.018
  0
CIRCLE
  8
_0-3_LAYER005
  6
CONTINUOUS
 62
    2
 10
1686.1655000000001
 20
1135.5646999999999
 40
1.018
  0
CIRCLE
  8
_0-3_LAYER005
  6
CONTINUOUS
 62
    2
 10
1673.7334999999998
 20
1128.2517
 40
1.018
  0
CIRCLE
  8
_0-3_LAYER005
  6
CONTINUOUS
 62
    2
 10
1677.7555000000002
 20
1123.1327000000001
 40
1.018
  0
CIRCLE
  8
_0-3_LAYER005
  6
CONTINUOUS
 62
    2
 10
1685.8004999999998
 20
1120.5726999999999
 40
1.018
  0
CIRCLE
  8
_0-3_LAYER005
  6
CONTINUOUS
 62
    2
 10
1704.4485
 20
1122.7666999999999
 40
1.018
  0
CIRCLE
  8
_0-3_LAYER005
  6
CONTINUOUS
 62
    2
 10
1679.2184999999999
 20
1112.5287000000001
 40
1.018
  0
CIRCLE
  8
_0-3_LAYER005
  6
CONTINUOUS
 62
    2
 10
1711.3955000000001
 20
1114.3567
 40
1.018
  0
CIRCLE
  8
_0-3_LAYER005
  6
CONTINUOUS
 62
    2
 10
1717.9775
 20
1099.3647000000001
 40
1.018
  0
CIRCLE
  8
_0-3_LAYER005
  6
CONTINUOUS
 62
    2
 10
1720.1714999999999
 20
1094.9776999999999
 40
1.018
  0
CIRCLE
  8
_0-3_LAYER005
  6
CONTINUOUS
 62
    2
 10
1730.7755000000002
 20
1101.9247
 40
1.018
  0
CIRCLE
  8
_0-3_LAYER005
  6
CONTINUOUS
 62
    2
 10
1735.5284999999999
 20
1112.8937000000001
 40
1.018
  0
CIRCLE
  8
_0-3_LAYER005
  6
CONTINUOUS
 62
    2
 10
1733.7004999999999
 20
1122.7666999999999
 40
1.018
  0
CIRCLE
  8
_0-3_LAYER005
  6
CONTINUOUS
 62
    2
 10
1745.7665000000002
 20
1144.7057
 40
1.018
  0
CIRCLE
  8
_0-3_LAYER005
  6
CONTINUOUS
 62
    2
 10
1741.7444999999998
 20
1146.8996999999999
 40
1.018
  0
CIRCLE
  8
_0-3_LAYER005
  6
CONTINUOUS
 62
    2
 10
1736.9915000000001
 20
1144.3397
 40
1.018
  0
CIRCLE
  8
_0-3_LAYER005
  6
CONTINUOUS
 62
    2
 10
1732.6035000000002
 20
1150.9217000000001
 40
1.018
  0
CIRCLE
  8
_0-3_LAYER005
  6
CONTINUOUS
 62
    2
 10
1721.567
 20
1160.5414000000001
 40
1.018
  0
CIRCLE
  8
_0-3_LAYER005
  6
CONTINUOUS
 62
    2
 10
1712.0599999999999
 20
1162.0044
 40
1.018
  0
CIRCLE
  8
_0-3_LAYER005
  6
CONTINUOUS
 62
    2
 10
1708.4029999999998
 20
1159.8104000000001
 40
1.018
  0
CIRCLE
  8
_0-3_LAYER005
  6
CONTINUOUS
 62
    2
 10
1695.3822
 20
1158.1872000000001
 40
1.018
  0
CIRCLE
  8
_0-3_LAYER005
  6
CONTINUOUS
 62
    2
 10
1686.4495999999999
 20
1152.0218
 40
1.018
  0
CIRCLE
  8
_0-3_LAYER005
  6
CONTINUOUS
 62
    2
 10
1686.0835999999999
 20
1146.5378000000001
 40
1.018
  0
CIRCLE
  8
_0-3_LAYER005
  6
CONTINUOUS
 62
    2
 10
1672.2550000000001
 20
1143.1739
 40
1.018
  0
CIRCLE
  8
_0-3_LAYER005
  6
CONTINUOUS
 62
    2
 10
1665.4585000000002
 20
1143.3916999999999
 40
1.018
  0
CIRCLE
  8
_0-3_LAYER005
  6
CONTINUOUS
 62
    2
 10
1671.3085000000001
 20
1148.5117
 40
1.018
  0
CIRCLE
  8
_0-3_LAYER005
  6
CONTINUOUS
 62
    2
 10
1696.1131999999998
 20
1151.6052
 40
1.018
  0
CIRCLE
  8
_0-3_LAYER005
  6
CONTINUOUS
 62
    2
 10
1679.8676
 20
1147.2688000000001
 40
1.018
  0
CIRCLE
  8
_0-3_LAYER005
  6
CONTINUOUS
 62
    2
 10
1703.0612000000001
 20
1156.3581999999999
 40
1.018
  0
CIRCLE
  8
_0-3_LAYER005
  6
CONTINUOUS
 62
    2
 10
1723.8274999999999
 20
1154.2127
 40
1.018
  0
CIRCLE
  8
_0-3_LAYER005
  6
CONTINUOUS
 62
    2
 10
1730.0435000000002
 20
1137.7587000000001
 40
1.018
  0
CIRCLE
  8
_0-3_LAYER005
  6
CONTINUOUS
 62
    2
 10
1724.1934999999999
 20
1126.4227000000001
 40
1.018
  0
CIRCLE
  8
_0-3_LAYER005
  6
CONTINUOUS
 62
    2
 10
1726.3874999999998
 20
1113.9907000000001
 40
1.018
  0
CIRCLE
  8
_0-3_LAYER005
  6
CONTINUOUS
 62
    2
 10
1710.6644999999999
 20
1107.7746999999999
 40
1.018
  0
CIRCLE
  8
_0-3_LAYER005
  6
CONTINUOUS
 62
    2
 10
1712.1275000000001
 20
1102.2907
 40
1.018
  0
CIRCLE
  8
_0-3_LAYER005
  6
CONTINUOUS
 62
    2
 10
1717.6115
 20
1078.1452999999999
 40
1.018
  0
CIRCLE
  8
_0-3_LAYER005
  6
CONTINUOUS
 62
    2
 10
1735.5284999999999
 20
1112.5287000000001
 40
1.018
  0
CIRCLE
  8
_0-3_LAYER005
  6
CONTINUOUS
 62
    2
 10
1749.0574999999999
 20
1116.5507
 40
1.018
  0
CIRCLE
  8
_0-3_LAYER005
  6
CONTINUOUS
 62
    2
 10
1745.7665000000002
 20
1094.9776999999999
 40
1.018
  0
CIRCLE
  8
_0-3_LAYER005
  6
CONTINUOUS
 62
    2
 10
1742.8415
 20
1096.4396999999999
 40
1.018
  0
CIRCLE
  8
_0-3_LAYER005
  6
CONTINUOUS
 62
    2
 10
1751.6174999999998
 20
1104.4837
 40
1.018
  0
CIRCLE
  8
_0-3_LAYER005
  6
CONTINUOUS
 62
    2
 10
1738.8195000000001
 20
1115.8197
 40
1.018
  0
CIRCLE
  8
_0-3_LAYER005
  6
CONTINUOUS
 62
    2
 10
1750.5205000000001
 20
1125.6917000000001
 40
1.018
  0
CIRCLE
  8
_0-3_LAYER005
  6
CONTINUOUS
 62
    2
 10
1756.3705
 20
1135.9296999999999
 40
1.018
  0
CIRCLE
  8
_0-3_LAYER005
  6
CONTINUOUS
 62
    2
 10
1753.4454999999998
 20
1150.5556999999999
 40
1.018
  0
CIRCLE
  8
_0-3_LAYER005
  6
CONTINUOUS
 62
    2
 10
1706.6145000000001
 20
1135.2127
 40
1.018
  0
CIRCLE
  8
_0-3_LAYER005
  6
CONTINUOUS
 62
    2
 10
1723.7154999999998
 20
1113.6126999999999
 40
1.018
  0
CIRCLE
  8
_0-3_LAYER005
  6
CONTINUOUS
 62
    2
 10
1719.2154999999998
 20
1120.8126999999999
 40
1.018
  0
CIRCLE
  8
_0-3_LAYER005
  6
CONTINUOUS
 62
    2
 10
1727.3155000000002
 20
1102.8117
 40
1.018
  0
CIRCLE
  8
_0-3_LAYER005
  6
CONTINUOUS
 62
    2
 10
1717.4155000000001
 20
1106.4117000000001
 40
1.018
  0
CIRCLE
  8
_0-3_LAYER005
  6
CONTINUOUS
 62
    2
 10
1737.2154999999998
 20
1107.3117
 40
1.018
  0
CIRCLE
  8
_0-3_LAYER005
  6
CONTINUOUS
 62
    2
 10
1747.1165000000001
 20
1105.5117
 40
1.018
  0
CIRCLE
  8
_0-3_LAYER005
  6
CONTINUOUS
 62
    2
 10
1739.9155000000001
 20
1131.6126999999999
 40
1.018
  0
LINE
  8
_0-2_LAYER004
  6
CONTINUOUS
 62
    2
 10
1747.2691
 20
1273.8235999999999
 11
1741.9657999999999
 21
1268.5202999999999
  0
LINE
  8
_0-2_LAYER004
  6
CONTINUOUS
 62
    2
 10
1741.9657999999999
 20
1268.5202999999999
 11
1743.9069
 21
1275.7647999999999
  0
LINE
  8
_0-2_LAYER004
  6
CONTINUOUS
 62
    2
 10
1741.9657999999999
 20
1268.5202999999999
 11
1823.4378999999999
 21
1409.6341000000002
  0
LINE
  8
_0-2_LAYER004
  6
CONTINUOUS
 62
    2
 10
1823.4378999999999
 20
1409.6341000000002
 11
1863.9378999999999
 21
1409.6341000000002
  0
LINE
  8
_0-0_LAYER001
  6
CONTINUOUS
 62
    2
 10
1723.1405
 20
1353.9845
 11
1723.1405
 21
1336.4845
  0
CIRCLE
  8
_0-0_LAYER001
  6
CONTINUOUS
 62
    2
 10
1723.1405
 20
1351.4845
 40
1.6999999999999997
  0
LINE
  8
_0-0_LAYER001
  6
CONTINUOUS
 62
    2
 10
1723.1405
 20
1351.4845
 11
1648.0029
 21
1351.4845
  0
CIRCLE
  8
_0-0_LAYER001
  6
CONTINUOUS
 62
    2
 10
1648.0029
 20
1351.4845
 40
1.6999999999999997
  0
LINE
  8
_0-0_LAYER001
  6
CONTINUOUS
 62
    2
 10
1648.0029
 20
1353.9845
 11
1648.0029
 21
1266.6605
  0
LINE
  8
_0-0_LAYER001
  6
CONTINUOUS
 62
    2
 10
1419.6083000000001
 20
948.39419999999996
 11
1421.5494000000001
 21
941.14979999999991
  0
LINE
  8
_0-0_LAYER001
  6
CONTINUOUS
 62
    2
 10
1421.5494000000001
 20
941.14979999999991
 11
1416.2461000000003
 21
946.45309999999995
  0
LINE
  8
_0-0_LAYER001
  6
CONTINUOUS
 62
    2
 10
1421.5494000000001
 20
941.14979999999991
 11
1364.0751
 21
1040.6982
  0
LINE
  8
_0-0_LAYER001
  6
CONTINUOUS
 62
    2
 10
1364.0751
 20
1040.6982
 11
1323.5751
 21
1040.6982
  0
LINE
  8
_0-0_LAYER001
  6
CONTINUOUS
 62
    2
 10
1749.0857000000001
 20
1162.2198000000001
 11
1747.1446000000001
 21
1169.4643000000001
  0
LINE
  8
_0-0_LAYER001
  6
CONTINUOUS
 62
    2
 10
1747.1446000000001
 20
1169.4643000000001
 11
1752.4479000000001
 21
1164.1610000000001
  0
LINE
  8
_0-0_LAYER001
  6
CONTINUOUS
 62
    2
 10
1747.1446000000001
 20
1169.4643000000001
 11
1845.2559000000001
 21
999.53050000000007
  0
LINE
  8
_0-0_LAYER001
  6
CONTINUOUS
 62
    2
 10
1845.2559000000001
 20
999.53050000000007
 11
1959.2559000000001
 21
999.53050000000007
  0
LINE
  8
_0-2_LAYER004
  6
CONTINUOUS
 62
    2
 10
1677.3815
 20
1194.3720000000001
 11
1679.3227000000002
 21
1187.1275000000001
  0
LINE
  8
_0-2_LAYER004
  6
CONTINUOUS
 62
    2
 10
1679.3227000000002
 20
1187.1275000000001
 11
1674.0194000000001
 21
1192.4308000000001
  0
LINE
  8
_0-2_LAYER004
  6
CONTINUOUS
 62
    2
 10
1679.3227000000002
 20
1187.1275000000001
 11
1577.0259000000001
 21
1364.3108000000002
  0
LINE
  8
_0-2_LAYER004
  6
CONTINUOUS
 62
    2
 10
1577.0259000000001
 20
1364.3108000000002
 11
1446.5259000000001
 21
1364.3108000000002
  0
LINE
  8
_0-0_LAYER001
  6
CONTINUOUS
 62
    2
 10
1737.1017000000002
 20
1082.5199
 11
1735.1606000000002
 21
1089.7643
  0
LINE
  8
_0-0_LAYER001
  6
CONTINUOUS
 62
    2
 10
1735.1606000000002
 20
1089.7643
 11
1740.4639000000002
 21
1084.461
  0
LINE
  8
_0-0_LAYER001
  6
CONTINUOUS
 62
    2
 10
1735.1606000000002
 20
1089.7643
 11
1824.3564000000001
 21
935.27269999999999
  0
LINE
  8
_0-0_LAYER001
  6
CONTINUOUS
 62
    2
 10
1824.3564000000001
 20
935.27269999999999
 11
1907.1183999999998
 21
935.27269999999999
  0
LINE
  8
_0-0_LAYER001
  6
CONTINUOUS
 62
    2
 10
1367.8843999999999
 20
694.13499999999999
 11
1553.9277000000002
 21
694.13499999999999
  0
LINE
  8
_0-0_LAYER001
  6
CONTINUOUS
 62
    2
 10
1376.5137999999999
 20
664.03970000000004
 11
1621.7820999999999
 21
664.03970000000004
  0
LINE
  8
_0-0_LAYER001
  6
CONTINUOUS
 62
    2
 10
1386.0569
 20
633.94440000000009
 11
1557.7283000000002
 21
633.94440000000009
  0
LINE
  8
_0-0_LAYER001
  6
CONTINUOUS
 62
    2
 10
1322.7954
 20
856.34760000000006
 11
1322.7954
 21
863.84760000000006
  0
LINE
  8
_0-0_LAYER001
  6
CONTINUOUS
 62
    2
 10
1322.7954
 20
863.84760000000006
 11
1326.5454
 21
857.35239999999999
  0
LINE
  8
_0-0_LAYER001
  6
CONTINUOUS
 62
    2
 10
1322.7954
 20
863.84760000000006
 11
1392.4005
 21
604.07780000000002
  0
LINE
  8
_0-0_LAYER001
  6
CONTINUOUS
 62
    2
 10
1392.4005
 20
604.07780000000002
 11
1458.9630999999999
 21
604.07780000000002
  0
LINE
  8
_0-1_LAYER003
  6
CONTINUOUS
 62
    7
 10
1504.3256000000001
 20
1478.4221
 11
1676.8256000000001
 21
1478.4221
  0
LINE
  8
_0-1_LAYER003
  6
CONTINUOUS
 62
    7
 10
1823.4378999999999
 20
1409.6341000000002
 11
1863.9378999999999
 21
1409.6341000000002
  0
LINE
  8
_0-1_LAYER003
  6
CONTINUOUS
 62
    7
 10
1355.7132999999999
 20
1408.6847
 11
1589.7132999999999
 21
1408.6847
  0
LINE
  8
_0-1_LAYER003
  6
CONTINUOUS
 62
    7
 10
1446.5259000000001
 20
1364.3108000000002
 11
1577.0259000000001
 21
1364.3108000000002
  0
LINE
  8
_0-1_LAYER003
  6
CONTINUOUS
 62
    7
 10
1427.2635
 20
1332.4648
 11
1541.2635
 21
1332.4648
  0
LINE
  8
_0-1_LAYER003
  6
CONTINUOUS
 62
    7
 10
1649.7029
 20
1351.4845
 11
1723.1405
 21
1351.4845
  0
LINE
  8
_0-1_LAYER003
  6
CONTINUOUS
 62
    7
 10
1723.1405
 20
1469.4873000000002
 11
1723.1405
 21
1210.9912999999999
  0
LINE
  8
_0-1_LAYER003
  6
CONTINUOUS
 62
    7
 10
1723.1405
 20
1210.9912999999999
 11
1735.1395000000002
 21
1210.9912999999999
  0
LINE
  8
_0-1_LAYER003
  6
CONTINUOUS
 62
    7
 10
1735.1395000000002
 20
1210.9912999999999
 11
1735.1395000000002
 21
1469.4873000000002
  0
LINE
  8
_0-1_LAYER003
  6
CONTINUOUS
 62
    7
 10
1759.4735000000001
 20
1350.7283000000002
 11
1759.4735000000001
 21
1053.7373
  0
LINE
  8
_0-1_LAYER003
  6
CONTINUOUS
 62
    7
 10
1762.5345000000002
 20
1152.4641999999999
 11
1732.5345000000002
 21
1152.4641999999999
  0
LINE
  8
_0-1_LAYER003
  6
CONTINUOUS
 62
    7
 10
1732.5345000000002
 20
1152.4641999999999
 11
1732.5345000000002
 21
1187.1744000000001
  0
LINE
  8
_0-1_LAYER003
  6
CONTINUOUS
 62
    7
 10
1738.5344
 20
1175.4641999999999
 11
1738.5344
 21
1169.4643000000001
  0
LINE
  8
_0-1_LAYER003
  6
CONTINUOUS
 62
    7
 10
1738.5344
 20
1169.4643000000001
 11
1805.5344
 21
1169.4643000000001
  0
LINE
  8
_0-1_LAYER003
  6
CONTINUOUS
 62
    7
 10
1738.5344
 20
1175.4641999999999
 11
1805.5344
 21
1175.4641999999999
  0
LINE
  8
_0-1_LAYER003
  6
CONTINUOUS
 62
    7
 10
1790.2017000000001
 20
1208.8823
 11
1841.9017000000003
 21
1208.8823
  0
LINE
  8
_0-1_LAYER003
  6
CONTINUOUS
 62
    7
 10
1838.5016999999998
 20
1208.8823
 11
1840.2017000000001
 21
1208.8823
  0
LINE
  8
_0-1_LAYER003
  6
CONTINUOUS
 62
    7
 10
1840.2017000000001
 20
1208.8823
 11
1840.2017000000001
 21
1358.8823
  0
LINE
  8
_0-1_LAYER003
  6
CONTINUOUS
 62
    7
 10
1790.2017000000001
 20
1358.8823
 11
1841.9017000000003
 21
1358.8823
  0
LINE
  8
_0-1_LAYER003
  6
CONTINUOUS
 62
    7
 10
1876.3742999999999
 20
1350.7283000000002
 11
1928.0743000000002
 21
1350.7283000000002
  0
LINE
  8
_0-1_LAYER003
  6
CONTINUOUS
 62
    7
 10
1926.3742999999999
 20
1350.7283000000002
 11
1926.3742999999999
 21
1053.7373
  0
LINE
  8
_0-1_LAYER003
  6
CONTINUOUS
 62
    7
 10
1928.0743000000002
 20
1053.7373
 11
1876.3742999999999
 21
1053.7373
  0
LINE
  8
_0-1_LAYER003
  6
CONTINUOUS
 62
    7
 10
1845.2559000000001
 20
999.53050000000007
 11
1959.2559000000001
 21
999.53050000000007
  0
LINE
  8
_0-1_LAYER003
  6
CONTINUOUS
 62
    7
 10
1907.1183999999998
 20
935.27269999999999
 11
1824.3564000000001
 21
935.27269999999999
  0
LINE
  8
_0-1_LAYER003
  6
CONTINUOUS
 62
    7
 10
1762.5345000000002
 20
941.48430000000008
 11
1702.5345101664589
 21
941.48430000000008
  0
LINE
  8
_0-1_LAYER003
  6
CONTINUOUS
 62
    7
 10
1702.5345101664589
 20
941.48430000000008
 11
1702.5345101664589
 21
836.48430000000008
  0
LINE
  8
_0-1_LAYER003
  6
CONTINUOUS
 62
    7
 10
1702.5345000000002
 20
836.48430000000008
 11
1762.5345000000002
 21
836.48430000000008
  0
LINE
  8
_0-1_LAYER003
  6
CONTINUOUS
 62
    7
 10
1735.1395000000002
 20
1232.7792999999999
 11
1755.1405
 21
1232.7792999999999
  0
LINE
  8
_0-1_LAYER003
  6
CONTINUOUS
 62
    7
 10
1755.1405
 20
1232.7792999999999
 11
1755.1405
 21
1272.7792999999999
  0
LINE
  8
_0-1_LAYER003
  6
CONTINUOUS
 62
    7
 10
1755.1405
 20
1272.7792999999999
 11
1735.1395000000002
 21
1272.7792999999999
  0
LINE
  8
_0-1_LAYER003
  6
CONTINUOUS
 62
    7
 10
1758.1405
 20
1208.9516000000001
 11
1758.1405
 21
1358.8823
  0
LINE
  8
_0-1_LAYER003
  6
CONTINUOUS
 62
    7
 10
1648.0029
 20
1353.9845
 11
1648.0029
 21
1266.6605
  0
LINE
  8
_0-1_LAYER003
  6
CONTINUOUS
 62
    7
 10
1648.0029
 20
1351.4845
 11
1649.7029
 21
1351.4845
  0
LINE
  8
_0-1_LAYER003
  6
CONTINUOUS
 62
    7
 10
1368.2697488052113
 20
694.13499999999999
 11
1553.9277000000002
 21
694.13499999999999
  0
LINE
  8
_0-1_LAYER003
  6
CONTINUOUS
 62
    7
 10
1376.5137999999999
 20
664.03970000000004
 11
1621.7820999999999
 21
664.03970000000004
  0
LINE
  8
_0-1_LAYER003
  6
CONTINUOUS
 62
    7
 10
1386.0569
 20
633.94440000000009
 11
1557.7283000000002
 21
633.94440000000009
  0
LINE
  8
_0-1_LAYER003
  6
CONTINUOUS
 62
    7
 10
1392.4005
 20
604.07780000000002
 11
1458.9630999999999
 21
604.07780000000002
  0
LINE
  8
_0-1_LAYER003
  6
CONTINUOUS
 62
    7
 10
1010.7439999999999
 20
981.53500000000008
 11
1205.4093
 21
1051.7017000000001
  0
LINE
  8
_0-1_LAYER003
  6
CONTINUOUS
 62
    7
 10
1222.3639000000001
 20
1004.6641
 11
1191.6120882160239
 21
1089.9795605050263
  0
LINE
  8
_0-1_LAYER003
  6
CONTINUOUS
 62
    7
 10
1192.1886
 20
1088.3803
 11
1403.8579999999999
 21
1164.6762000000001
  0
LINE
  8
_0-1_LAYER003
  6
CONTINUOUS
 62
    7
 10
1420.8125999999997
 20
1117.6386
 11
1392.664
 21
1195.3306
  0
LINE
  8
_0-1_LAYER003
  6
CONTINUOUS
 62
    7
 10
1392.664
 20
1195.3306
 11
1392.0809289045815
 21
1196.9274807399702
  0
LINE
  8
_0-1_LAYER003
  6
CONTINUOUS
 62
    7
 10
1392.6640482241621
 20
1195.3306176098683
 11
1669.7665999999999
 21
1296.5192999999999
  0
LINE
  8
_0-1_LAYER003
  6
CONTINUOUS
 62
    7
 10
1687.7748000000001
 20
1247.2044000000001
 11
1669.7665999999999
 21
1296.5192999999999
  0
LINE
  8
_0-1_LAYER003
  6
CONTINUOUS
 62
    7
 10
1541.2635
 20
1332.4648
 11
1643.2390999999998
 21
1155.8378
  0
LINE
  8
_0-1_LAYER003
  6
CONTINUOUS
 62
    7
 10
1643.2390999999998
 20
1155.8378
 11
1641.2979999999998
 21
1163.0822000000001
  0
LINE
  8
_0-1_LAYER003
  6
CONTINUOUS
 62
    7
 10
1643.2390999999998
 20
1155.8378
 11
1637.9358000000002
 21
1161.1411000000001
  0
LINE
  8
_0-1_LAYER003
  6
CONTINUOUS
 62
    7
 10
1648.0029
 20
1169.8749
 11
1653.9155000000001
 21
1170.8951999999999
  0
LINE
  8
_0-1_LAYER003
  6
CONTINUOUS
 62
    7
 10
1648.0029
 20
1169.8749
 11
1671.5848999999998
 21
1178.4581000000001
  0
LINE
  8
_0-1_LAYER003
  6
CONTINUOUS
 62
    7
 10
1671.5848999999998
 20
1178.4581000000001
 11
1668.9803000000002
 21
1193.2302
  0
LINE
  8
_0-1_LAYER003
  6
CONTINUOUS
 62
    7
 10
1668.9803000000002
 20
1193.2302
 11
1758.1405
 21
1208.9516000000001
  0
LINE
  8
_0-1_LAYER003
  6
CONTINUOUS
 62
    7
 10
1759.9297999999999
 20
1207.2363
 11
1762.5345000000002
 21
1192.4641999999999
  0
LINE
  8
_0-1_LAYER003
  6
CONTINUOUS
 62
    7
 10
1762.5345000000002
 20
1192.4641999999999
 11
1673.9018000000001
 21
1176.8359
  0
LINE
  8
_0-1_LAYER003
  6
CONTINUOUS
 62
    7
 10
1673.9018000000001
 20
1176.8359
 11
1671.2972
 21
1191.6079999999999
  0
LINE
  8
_0-1_LAYER003
  6
CONTINUOUS
 62
    7
 10
1671.2972
 20
1191.6079999999999
 11
1759.9297999999999
 21
1207.2363
  0
LINE
  8
_0-1_LAYER003
  6
CONTINUOUS
 62
    7
 10
1750.4821000000002
 20
1205.5704000000001
 11
1748.1985
 21
1203.5478000000001
  0
LINE
  8
_0-1_LAYER003
  6
CONTINUOUS
 62
    7
 10
1748.1985
 20
1203.5478000000001
 11
1752.8883999999998
 21
1176.9559999999999
  0
LINE
  8
_0-1_LAYER003
  6
CONTINUOUS
 62
    7
 10
1752.8883999999998
 20
1176.9559999999999
 11
1752.6799999999998
 21
1168.0732
  0
LINE
  8
_0-1_LAYER003
  6
CONTINUOUS
 62
    7
 10
1752.6799999999998
 20
1168.0732
 11
1749.2383
 21
1176.3122000000001
  0
LINE
  8
_0-1_LAYER003
  6
CONTINUOUS
 62
    7
 10
1749.2383
 20
1176.3122000000001
 11
1744.5486000000001
 21
1202.9055000000001
  0
LINE
  8
_0-1_LAYER003
  6
CONTINUOUS
 62
    7
 10
1744.5486000000001
 20
1202.9055000000001
 11
1741.7125999999998
 21
1204.0241000000001
  0
LINE
  8
_0-1_LAYER003
  6
CONTINUOUS
 62
    7
 10
1762.5345000000002
 20
1192.4641999999999
 11
1671.2972
 21
1191.6079999999999
  0
LINE
  8
_0-1_LAYER003
  6
CONTINUOUS
 62
    7
 10
1679.3227000000002
 20
1187.1275000000001
 11
1677.3815
 21
1194.3720000000001
  0
LINE
  8
_0-1_LAYER003
  6
CONTINUOUS
 62
    7
 10
1679.3227000000002
 20
1187.1275000000001
 11
1674.0194000000001
 21
1192.4308000000001
  0
LINE
  8
_0-1_LAYER003
  6
CONTINUOUS
 62
    7
 10
1679.3227000000002
 20
1187.1275000000001
 11
1577.0259000000001
 21
1364.3108000000002
  0
LINE
  8
_0-1_LAYER003
  6
CONTINUOUS
 62
    7
 10
1589.7132999999999
 20
1408.6847
 11
1710.5322999999999
 21
1199.4201
  0
LINE
  8
_0-1_LAYER003
  6
CONTINUOUS
 62
    7
 10
1710.5322999999999
 20
1199.4201
 11
1708.5911999999998
 21
1206.6645000000001
  0
LINE
  8
_0-1_LAYER003
  6
CONTINUOUS
 62
    7
 10
1710.5322999999999
 20
1199.4201
 11
1705.2289999999998
 21
1204.7234000000001
  0
LINE
  8
_0-1_LAYER003
  6
CONTINUOUS
 62
    7
 10
1735.1395000000002
 20
1232.7792999999999
 11
1755.1405
 21
1272.7792999999999
  0
LINE
  8
_0-1_LAYER003
  6
CONTINUOUS
 62
    7
 10
1743.9069
 20
1275.7647999999999
 11
1741.9657999999999
 21
1268.5202999999999
  0
LINE
  8
_0-1_LAYER003
  6
CONTINUOUS
 62
    7
 10
1741.9657999999999
 20
1268.5202999999999
 11
1747.2691
 21
1273.8235999999999
  0
LINE
  8
_0-1_LAYER003
  6
CONTINUOUS
 62
    7
 10
1741.9657999999999
 20
1268.5202999999999
 11
1823.4378999999999
 21
1409.6341000000002
  0
LINE
  8
_0-1_LAYER003
  6
CONTINUOUS
 62
    7
 10
1762.5345000000002
 20
1152.4641999999999
 11
1736.0385323280273
 21
1187.792256895842
  0
LINE
  8
_0-1_LAYER003
  6
CONTINUOUS
 62
    7
 10
1732.5345000000002
 20
1178.4643000000001
 11
1738.5344
 21
1175.4641999999999
  0
LINE
  8
_0-1_LAYER003
  6
CONTINUOUS
 62
    7
 10
1738.5344
 20
1169.4643000000001
 11
1732.5345000000002
 21
1166.4641999999999
  0
LINE
  8
_0-1_LAYER003
  6
CONTINUOUS
 62
    7
 10
1805.5344
 20
1175.4641999999999
 11
1810.5345000000002
 21
1172.4641999999999
  0
LINE
  8
_0-1_LAYER003
  6
CONTINUOUS
 62
    7
 10
1810.5345000000002
 20
1172.4641999999999
 11
1805.5344
 21
1169.4643000000001
  0
LINE
  8
_0-1_LAYER003
  6
CONTINUOUS
 62
    7
 10
1747.1446000000001
 20
1169.4643000000001
 11
1749.0857000000001
 21
1162.2198000000001
  0
LINE
  8
_0-1_LAYER003
  6
CONTINUOUS
 62
    7
 10
1747.1446000000001
 20
1169.4643000000001
 11
1752.4479000000001
 21
1164.1610000000001
  0
LINE
  8
_0-1_LAYER003
  6
CONTINUOUS
 62
    7
 10
1747.1446000000001
 20
1169.4643000000001
 11
1845.2559000000001
 21
999.53050000000007
  0
LINE
  8
_0-1_LAYER003
  6
CONTINUOUS
 62
    7
 10
1824.3564000000001
 20
935.27269999999999
 11
1735.1606000000002
 21
1089.7643
  0
LINE
  8
_0-1_LAYER003
  6
CONTINUOUS
 62
    7
 10
1735.1606000000002
 20
1089.7643
 11
1737.1017000000002
 21
1082.5199
  0
LINE
  8
_0-1_LAYER003
  6
CONTINUOUS
 62
    7
 10
1735.1606000000002
 20
1089.7643
 11
1740.4639000000002
 21
1084.461
  0
LINE
  8
_0-1_LAYER003
  6
CONTINUOUS
 62
    7
 10
1742.9917
 20
1065.3398999999999
 11
1749.2265000000002
 21
1051.6971000000001
  0
LINE
  8
_0-1_LAYER003
  6
CONTINUOUS
 62
    7
 10
1749.2265000000002
 20
1051.6971000000001
 11
1721.9409000000001
 21
1039.2274
  0
LINE
  8
_0-1_LAYER003
  6
CONTINUOUS
 62
    7
 10
1721.9409000000001
 20
1039.2274
 11
1715.7060999999999
 21
1052.8703
  0
LINE
  8
_0-1_LAYER003
  6
CONTINUOUS
 62
    7
 10
1715.7060999999999
 20
1052.8703
 11
1742.9917
 21
1065.3398999999999
  0
LINE
  8
_0-1_LAYER003
  6
CONTINUOUS
 62
    7
 10
1742.9917
 20
1065.3398999999999
 11
1721.9409000000001
 21
1039.2274
  0
LINE
  8
_0-1_LAYER003
  6
CONTINUOUS
 62
    7
 10
1759.4735000000001
 20
1053.7373
 11
1074.3644999999999
 21
745.43830000000003
  0
LINE
  8
_0-1_LAYER003
  6
CONTINUOUS
 62
    7
 10
1076.0065
 20
741.79029999999989
 11
1756.3789999999999
 21
1047.9583
  0
LINE
  8
_0-1_LAYER003
  6
CONTINUOUS
 62
    7
 10
1756.3789999999999
 20
1047.9583
 11
1762.5345000000002
 21
1034.2793000000001
  0
LINE
  8
_0-1_LAYER003
  6
CONTINUOUS
 62
    7
 10
1762.5345000000002
 20
1034.2793000000001
 11
1082.1614999999999
 21
728.11130000000003
  0
LINE
  8
_0-1_LAYER003
  6
CONTINUOUS
 62
    7
 10
1106.7835
 20
673.39630000000011
 11
1762.5345000000002
 21
968.48430000000008
  0
LINE
  8
_0-1_LAYER003
  6
CONTINUOUS
 62
    7
 10
1762.5345000000002
 20
941.48430000000008
 11
1702.5345101664589
 21
836.48430000000008
  0
LINE
  8
_0-1_LAYER003
  6
CONTINUOUS
 62
    7
 10
1516.0360000000001
 20
946.9387999999999
 11
1509.8011999999999
 21
960.58159999999998
  0
LINE
  8
_0-1_LAYER003
  6
CONTINUOUS
 62
    7
 10
1509.8011999999999
 20
960.58159999999998
 11
1537.0868999999998
 21
973.05120000000011
  0
LINE
  8
_0-1_LAYER003
  6
CONTINUOUS
 62
    7
 10
1537.0868999999998
 20
973.05120000000011
 11
1543.3217
 21
959.40840000000003
  0
LINE
  8
_0-1_LAYER003
  6
CONTINUOUS
 62
    7
 10
1543.3217
 20
959.40840000000003
 11
1516.0360000000001
 21
946.9387999999999
  0
LINE
  8
_0-1_LAYER003
  6
CONTINUOUS
 62
    7
 10
1516.0360000000001
 20
946.9387999999999
 11
1537.0868999999998
 21
973.05120000000011
  0
LINE
  8
_0-1_LAYER003
  6
CONTINUOUS
 62
    7
 10
1364.0751
 20
1040.6982
 11
1323.5751
 21
1040.6982
  0
LINE
  8
_0-1_LAYER003
  6
CONTINUOUS
 62
    7
 10
1364.0751
 20
1040.6982
 11
1421.5494000000001
 21
941.14979999999991
  0
LINE
  8
_0-1_LAYER003
  6
CONTINUOUS
 62
    7
 10
1421.5494000000001
 20
941.14979999999991
 11
1419.6083000000001
 21
948.39419999999996
  0
LINE
  8
_0-1_LAYER003
  6
CONTINUOUS
 62
    7
 10
1421.5494000000001
 20
941.14979999999991
 11
1416.2461000000003
 21
946.45309999999995
  0
LINE
  8
_0-1_LAYER003
  6
CONTINUOUS
 62
    7
 10
1310.1312000000003
 20
854.65010000000007
 11
1303.8964000000001
 21
868.29299999999989
  0
LINE
  8
_0-1_LAYER003
  6
CONTINUOUS
 62
    7
 10
1303.8964000000001
 20
868.29299999999989
 11
1331.1821
 21
880.76260000000002
  0
LINE
  8
_0-1_LAYER003
  6
CONTINUOUS
 62
    7
 10
1331.1821
 20
880.76260000000002
 11
1337.4169000000002
 21
867.11969999999997
  0
LINE
  8
_0-1_LAYER003
  6
CONTINUOUS
 62
    7
 10
1337.4169000000002
 20
867.11969999999997
 11
1310.1312000000003
 21
854.65010000000007
  0
LINE
  8
_0-1_LAYER003
  6
CONTINUOUS
 62
    7
 10
1310.1312000000003
 20
854.65010000000007
 11
1331.1821
 21
880.76260000000002
  0
LINE
  8
_0-1_LAYER003
  6
CONTINUOUS
 62
    7
 10
1322.7954
 20
863.84760000000006
 11
1322.7954
 21
857.2321868692427
  0
LINE
  8
_0-1_LAYER003
  6
CONTINUOUS
 62
    7
 10
1322.7954
 20
863.84760000000006
 11
1325.8271376990556
 21
858.59646861255828
  0
LINE
  8
_0-1_LAYER003
  6
CONTINUOUS
 62
    7
 10
1322.7954
 20
863.84760000000006
 11
1392.4005
 21
604.07780000000002
  0
LINE
  8
_0-1_LAYER003
  6
CONTINUOUS
 62
    7
 10
1104.2264
 20
762.36149999999998
 11
1097.9916000000001
 21
776.00430000000006
  0
LINE
  8
_0-1_LAYER003
  6
CONTINUOUS
 62
    7
 10
1097.9916000000001
 20
776.00430000000006
 11
1125.2772
 21
788.47389999999996
  0
LINE
  8
_0-1_LAYER003
  6
CONTINUOUS
 62
    7
 10
1125.2772
 20
788.47389999999996
 11
1131.5119999999999
 21
774.83110000000011
  0
LINE
  8
_0-1_LAYER003
  6
CONTINUOUS
 62
    7
 10
1131.5119999999999
 20
774.83110000000011
 11
1104.2264
 21
762.36149999999998
  0
LINE
  8
_0-1_LAYER003
  6
CONTINUOUS
 62
    7
 10
1104.2264
 20
762.36149999999998
 11
1125.2772
 21
788.47389999999996
  0
LINE
  8
_0-1_LAYER003
  6
CONTINUOUS
 62
    7
 10
1676.8256000000001
 20
1478.4221
 11
1727.8624
 21
1390.0237999999999
  0
LINE
  8
_0-1_LAYER003
  6
CONTINUOUS
 62
    7
 10
1727.8624
 20
1390.0237999999999
 11
1725.9212000000002
 21
1397.2683000000002
  0
LINE
  8
_0-1_LAYER003
  6
CONTINUOUS
 62
    7
 10
1727.8624
 20
1390.0237999999999
 11
1722.5590999999999
 21
1395.3271
  0
ARC
  8
_0-1_LAYER003
  6
CONTINUOUS
 62
    7
 10
1655.3548236611855
 20
1141.1711198808405
 40
7.2715489374556377
 50
317.74817187753058
 51
38.086719757948686
  0
ARC
  8
_0-1_LAYER003
  6
CONTINUOUS
 62
    7
 10
1472.0010510937623
 20
1070.1516624599553
 40
192.29994874872946
 50
355.55391709242241
 51
13.571946907577669
  0
TEXT
  8
_0-2_LAYER004
 62
    7
 10
1504.3256000000001
 20
1480.9220999999998
 40
20
 41
1
 50
0
  1
外壁　防火サイディング
  0
TEXT
  8
_0-2_LAYER004
 62
    7
 10
1427.2635
 20
1334.9647999999997
 40
20
 41
1
 50
0
  1
熨斗瓦２段積み
  0
TEXT
  8
_0-2_LAYER004
 62
    7
 10
1823.4378999999999
 20
1412.1340999999998
 40
20
 41
1
 50
0
  1
胴　縁
  0
TEXT
  8
_0-0_LAYER001
 62
    7
 10
1845.2558999999999
 20
1002.0304999999997
 40
20
 41
1
 50
0
  1
下地４０ｘ３０
  0
TEXT
  8
_0-0_LAYER001
 62
    7
 10
1824.3563999999997
 20
937.77269999999976
 40
20
 41
1
 50
0
  1
　葺　土
  0
TEXT
  8
_0-0_LAYER001
 62
    7
 10
1367.8843999999999
 20
696.63499999999976
 40
20
 41
1
 50
0
  1
　瓦桟：１５ｘ３０以上
  0
TEXT
  8
_0-0_LAYER001
 62
    7
 10
1386.0568999999998
 20
636.44439999999975
 40
20
 41
1
 50
0
  1
　野地板：杉ｔ＝１２
  0
TEXT
  8
_0-0_LAYER001
 62
    7
 10
1393.2300999999998
 20
606.5777999999998
 40
20
 41
1
 50
0
  1
　垂木
  0
TEXT
  8
_0-0_LAYER001
 62
    7
 10
1320.6507038095949
 20
1046.0647824613936
 40
20
 41
1
 50
0
  1
桟　瓦
  0
TEXT
  8
_0-2_LAYER004
 62
    7
 10
1396.6286296034987
 20
1368.4537433457035
 40
20
 41
1
 50
0
  1
笠木：１５ｘ９０
  0
TEXT
  8
_0-2_LAYER004
 62
    7
 10
1355.7132999999999
 20
1411.1846999999998
 40
20
 41
1
 50
0
  1
雨押水切カラー鋼板0.35ｍｍ以上
  0
TEXT
  8
_0-2_LAYER004
 62
    7
 10
1865.5670841407195
 20
1205.1936888031155
 40
20
 41
1
 50
90
  1
水切り立上がり寸法
  0
TEXT
  8
_0-1_LAYER003
 62
    7
 10
1961.0915841390422
 20
1106.1955706230356
 40
20
 41
1
 50
90
  1
下葺き材立上がり寸法
  0
TEXT
  8
_0-2_LAYER004
 62
    7
 10
1828.6588666659238
 20
1274.1523210313467
 40
20
 41
1
 50
90
  1
150
  0
TEXT
  8
_0-2_LAYER004
 62
    7
 10
1913.118809888558
 20
1184.9340711482823
 40
20
 41
1
 50
90
  1
300
  0
TEXT
  8
_0-0_LAYER001
 62
    7
 10
1518.1793570728607
 20
1249.1712110640888
 40
20
 41
1
 50
20.060506999999969
  1
295
  0
TEXT
  8
_0-0_LAYER001
 62
    7
 10
1286.211907376894
 20
1138.5405812090889
 40
20
 41
1
 50
19.821608999999981
  1
225
  0
TEXT
  8
_0-0_LAYER001
 62
    7
 10
1082.7942976435079
 20
1014.8246080379067
 40
20
 41
1
 50
19.821599999999993
  1
225
  0
TEXT
  8
_0-0_LAYER001
 62
    7
 10
1678.7722068623759
 20
1364.5601475795179
 40
20
 41
1
 50
0
  1
75
  0
TEXT
  8
_0-0_LAYER001
 62
    7
 10
1376.5137999999999
 20
666.5396999999997
 40
20
 41
1
 50
0
  1
　下葺材：ルーフィング
  0
ENDSEC
  0
EOF
