  0
SECTION
  2
HEADER
  9
$ACADVER
  1
AC1009
  9
$INSBASE
 10
0
 20
0
 30
0
  9
$EXTMIN
 10
0
 20
0
  9
$EXTMAX
 10
2970
 20
2100
  9
$LIMMIN
 10
0
 20
0
  9
$LIMMAX
 10
2970
 20
2100
  9
$LTSCALE
 40
10
  0
ENDSEC
  0
SECTION
  2
TABLES
  0
TABLE
  2
LTYPE
 70
     9
  0
LTYPE
  2
CONTINUOUS
 70
    64
  3
実線
 72
    65
 73
     0
 40
0.0
  0
LTYPE
  2
DASHED1
 70
    64
  3
--  --  --  --  --  --  --  --  
 72
    65
 73
     2
 40
2.5
 49
1.25
 49
-1.25
  0
LTYPE
  2
DASHED2
 70
    64
  3
----    ----    ----    ----    
 72
    65
 73
     2
 40
5.0
 49
2.5
 49
-2.5
  0
LTYPE
  2
DASHED3
 70
    64
  3
------  ------  ------  ------  
 72
    65
 73
     2
 40
5.0
 49
3.75
 49
-1.25
  0
LTYPE
  2
CENTER1
 70
    64
  3
----- - ----- - ----- - ----- - 
 72
    65
 73
     4
 40
10.0
 49
6.25
 49
-1.25
 49
1.25
 49
-1.25
  0
LTYPE
  2
CENTER2
 70
    64
  3
----------  --  ----------  --  
 72
    65
 73
     4
 40
20.0
 49
12.5
 49
-2.5
 49
2.5
 49
-2.5
  0
LTYPE
  2
PHANTOM1
 70
    64
  3
--- - - --- - - --- - - --- - - 
 72
    65
 73
     6
 40
10.0
 49
3.25
 49
-1.25
 49
1.25
 49
-1.25
 49
1.25
 49
-1.25
  0
LTYPE
  2
PHANTOM2
 70
    64
  3
--------  -  -  --------  -  -  
 72
    65
 73
     6
 40
20.0
 49
10.0
 49
-2.5
 49
1.25
 49
-2.5
 49
1.25
 49
-2.5
  0
LTYPE
  2
DOT
 70
    64
  3
-   -   -   -   -   -   -   -   
 72
    65
 73
     2
 40
2.5
 49
0.625
 49
-1.875
  0
LTYPE
  2
DUMMY
 70
    64
  3
ダミー
 72
    65
 73
     0
 40
0.0
  0
LTYPE
  2
RAND1
 70
    64
  3
ランダム線1
 72
    65
 73
     4
 40
10.0
 49
1.0
 49
-2.0
 49
3.0
 49
-4.0
  0
LTYPE
  2
RAND2
 70
    64
  3
ランダム線2
 72
    65
 73
     4
 40
14.0
 49
2.0
 49
-3.0
 49
4.0
 49
-5.0
  0
LTYPE
  2
RAND3
 70
    64
  3
ランダム線3
 72
    65
 73
     4
 40
18.0
 49
3.0
 49
-4.0
 49
5.0
 49
-6.0
  0
LTYPE
  2
RAND4
 70
    64
  3
ランダム線4
 72
    65
 73
     4
 40
22.0
 49
4.0
 49
-5.0
 49
6.0
 49
-7.0
  0
LTYPE
  2
RAND5
 70
    64
  3
ランダム線5
 72
    65
 73
     4
 40
26.0
 49
5.0
 49
-6.0
 49
7.0
 49
-8.0
  0
LTYPE
  2
LONG1
 70
    64
  3
----------  --  ----------  --  
 72
    65
 73
     4
 40
40.0
 49
32.5
 49
-2.5
 49
2.5
 49
-2.5
  0
LTYPE
  2
LONG2
 70
    64
  3
--------  -  -  --------  -  -  
 72
    65
 73
     6
 40
40.0
 49
30.0
 49
-2.5
 49
1.25
 49
-2.5
 49
1.25
 49
-2.5
  0
LTYPE
  2
LONG3
 70
    64
  3
+++++++++++++++..+++++++++++++++
 72
    65
 73
     2
 40
40.0
 49
37.5
 49
-2.5
  0
LTYPE
  2
LONG4
 70
    64
  3
+++++++++++++++..+++++++++++++++
 72
    65
 73
     2
 40
80.0
 49
75.0
 49
-5.0
  0
LTYPE
  2
LONG5
 70
    64
  3
----------  --  ----------  --  
 72
    65
 73
     4
 40
60.0
 49
37.5
 49
-7.5
 49
7.5
 49
-7.5
  0
LTYPE
  2
dashed
 70
   64
  3
-------   -------------   ------
 72
   65
 73
    2
 40
7.5
 49
6
 49
-1.5
  0
LTYPE
  2
dashed_spaced
 70
   64
  3
----        --------        ----
 72
   65
 73
    2
 40
12
 49
6
 49
-6
  0
LTYPE
  2
long_dashed_dotted
 70
   64
  3
------------- --- --------------
 72
   65
 73
    4
 40
15.25
 49
12
 49
-1.5
 49
0.25
 49
-1.5
  0
LTYPE
  2
long_dashed_double-dotted
 70
   64
  3
----------- --- --- ------------
 72
   65
 73
    6
 40
17
 49
12
 49
-1.5
 49
0.25
 49
-1.5
 49
0.25
 49
-1.5
  0
LTYPE
  2
long_dashed_triplicate-dotted
 70
   64
  3
--------- --- --- --- ----------
 72
   65
 73
    8
 40
18.75
 49
12
 49
-1.5
 49
0.25
 49
-1.5
 49
0.25
 49
-1.5
 49
0.25
 49
-1.5
  0
LTYPE
  2
dotted
 70
   64
  3
   -       -       -       -    
 72
   65
 73
    2
 40
1.75
 49
0.25
 49
-1.5
  0
LTYPE
  2
chain
 70
   64
  3
-------------- -- --------------
 72
   65
 73
    4
 40
18.5
 49
12
 49
-1.5
 49
3.5
 49
-1.5
  0
LTYPE
  2
chain_double_dash
 70
   64
  3
------------ -- -- -------------
 72
   65
 73
    6
 40
23.5
 49
12
 49
-1.5
 49
3.5
 49
-1.5
 49
3.5
 49
-1.5
  0
LTYPE
  2
dashed_dotted
 70
   64
  3
-----------     -     ----------
 72
   65
 73
    4
 40
9.25
 49
6
 49
-1.5
 49
0.25
 49
-1.5
  0
LTYPE
  2
double-dashed_dotted
 70
   64
  3
------   -----------   -   -----
 72
   65
 73
    6
 40
16.75
 49
6
 49
-1.5
 49
6
 49
-1.5
 49
0.25
 49
-1.5
  0
LTYPE
  2
dashed_double-dotted
 70
   64
  3
---------    -    -    ---------
 72
   65
 73
    6
 40
11
 49
6
 49
-1.5
 49
0.25
 49
-1.5
 49
0.25
 49
-1.5
  0
LTYPE
  2
double-dashed_double-dotted
 70
   64
  3
-----   ---------   -   -   ----
 72
   65
 73
    8
 40
18.5
 49
6
 49
-1.5
 49
6
 49
-1.5
 49
0.25
 49
-1.5
 49
0.25
 49
-1.5
  0
LTYPE
  2
dashed_triplicate-dotted
 70
   64
  3
-------    -    -    -    ------
 72
   65
 73
    8
 40
12.75
 49
6
 49
-1.5
 49
0.25
 49
-1.5
 49
0.25
 49
-1.5
 49
0.25
 49
-1.5
  0
LTYPE
  2
double-dashed_triplicate-dotted
 70
   64
  3
-----  ---------  -  -  -  -----
 72
   65
 73
   10
 40
20.25
 49
6
 49
-1.5
 49
6
 49
-1.5
 49
0.25
 49
-1.5
 49
0.25
 49
-1.5
 49
0.25
 49
-1.5
  0
LTYPE
  2
undefined
 70
   64
  3
--------------------------------
 72
   65
 73
    0
 40
0
  0
ENDTAB
  0
TABLE
  2
STYLE
  5
3
100
AcDbSymbolTable
 70
     1
  0
STYLE
  5
10
100
AcDbSymbolTableRecord
100
AcDbTextStyleTableRecord
  2
STANDARD
 70
     0
 40
0.0
 41
1.0
 50
0.0
 71
     0
 42
0.2
  3
txt
  4
bigfont.shx
  0
STYLE
  5
26
100
AcDbSymbolTableRecord
100
AcDbTextStyleTableRecord
  2
TATEGAKI
 70
    68
 40
0.0
 41
1.0
 50
0.0
 71
     0
 42
1.0
  3
txt
  4
bigfont.shx
  0
ENDTAB
  0
TABLE
  2
LAYER
 70
    7
  0
LAYER
  2
_0-0_LAYER001
 70
   64
 62
    7
  6
CONTINUOUS
  0
LAYER
  2
_0-1_LAYER003
 70
   64
 62
    7
  6
CONTINUOUS
  0
LAYER
  2
_0-2_LAYER004
 70
   64
 62
    7
  6
CONTINUOUS
  0
LAYER
  2
_0-3_LAYER005
 70
   64
 62
    7
  6
CONTINUOUS
  0
LAYER
  2
_0-4_LAYER006
 70
   64
 62
    7
  6
CONTINUOUS
  0
LAYER
  2
_0-5_LAYER007
 70
   64
 62
    7
  6
CONTINUOUS
  0
LAYER
  2
ADD_LINE
 70
   64
 62
    7
  6
CONTINUOUS
  0
ENDTAB
  0
ENDSEC
  0
SECTION
  2
BLOCKS
  0
ENDSEC
  0
SECTION
  2
ENTITIES
  0
LINE
  8
_0-0_LAYER001
  6
CONTINUOUS
 62
    2
 10
1151.5174999999999
 20
986.03500000000008
 11
1149.5763999999999
 21
993.2793999999999
  0
LINE
  8
_0-0_LAYER001
  6
CONTINUOUS
 62
    2
 10
1149.5763999999999
 20
993.2793999999999
 11
1154.8797
 21
987.97610000000009
  0
LINE
  8
_0-0_LAYER001
  6
CONTINUOUS
 62
    2
 10
1149.5763999999999
 20
993.2793999999999
 11
1254.2279000000001
 21
812.0177000000001
  0
LINE
  8
_0-0_LAYER001
  6
CONTINUOUS
 62
    2
 10
1254.2279000000001
 20
812.0177000000001
 11
1455.2278999999999
 21
812.0177000000001
  0
LINE
  8
_0-4_LAYER006
  6
CONTINUOUS
 62
    2
 10
890.80510000000004
 20
988.6844000000001
 11
943.30510000000004
 21
988.6844000000001
  0
CIRCLE
  8
_0-4_LAYER006
  6
CONTINUOUS
 62
    2
 10
893.30510000000004
 20
988.6844000000001
 40
1.6999999999999997
  0
LINE
  8
_0-4_LAYER006
  6
CONTINUOUS
 62
    2
 10
893.30510000000004
 20
988.6844000000001
 11
893.30510000000004
 21
1288.6844000000001
  0
CIRCLE
  8
_0-4_LAYER006
  6
CONTINUOUS
 62
    2
 10
893.30510000000004
 20
1288.6844000000001
 40
1.6999999999999997
  0
LINE
  8
_0-4_LAYER006
  6
CONTINUOUS
 62
    2
 10
890.80510000000004
 20
1288.6844000000001
 11
943.30510000000004
 21
1288.6844000000001
  0
LINE
  8
_0-0_LAYER001
  6
CONTINUOUS
 62
    2
 10
1074.3681999999999
 20
1022.0831000000001
 11
1079.6715999999999
 21
1027.3864000000001
  0
LINE
  8
_0-0_LAYER001
  6
CONTINUOUS
 62
    2
 10
1079.6715999999999
 20
1027.3864000000001
 11
1077.7303999999999
 21
1020.1420000000001
  0
LINE
  8
_0-0_LAYER001
  6
CONTINUOUS
 62
    2
 10
1079.6715999999999
 20
1027.3864000000001
 11
1020.8262
 21
925.46329999999989
  0
LINE
  8
_0-0_LAYER001
  6
CONTINUOUS
 62
    2
 10
1020.8262
 20
925.46329999999989
 11
832.60860000000002
 21
925.46329999999989
  0
LINE
  8
_0-4_LAYER006
  6
CONTINUOUS
 62
    2
 10
1068.0953999999999
 20
1114.0340000000001
 11
1084.4250999999999
 21
1114.0340000000001
  0
LINE
  8
_0-4_LAYER006
  6
CONTINUOUS
 62
    2
 10
1098.0953999999999
 20
1111.53
 11
1098.0953999999999
 21
1084.0340000000001
  0
LINE
  8
_0-4_LAYER006
  6
CONTINUOUS
 62
    2
 10
1098.0953999999999
 20
1084.0340000000001
 11
1068.0953999999999
 21
1084.0340000000001
  0
LINE
  8
_0-4_LAYER006
  6
CONTINUOUS
 62
    2
 10
1068.0953999999999
 20
1084.0340000000001
 11
1068.0953999999999
 21
1114.0340000000001
  0
LINE
  8
_0-4_LAYER006
  6
CONTINUOUS
 62
    2
 10
1068.0953999999999
 20
1114.0340000000001
 11
1098.0953999999999
 21
1084.0340000000001
  0
LINE
  8
_0-0_LAYER001
  6
CONTINUOUS
 62
    2
 10
1090.4323999999999
 20
1084.0340000000001
 11
1098.7707
 21
1073.5432000000001
  0
LINE
  8
_0-0_LAYER001
  6
CONTINUOUS
 62
    2
 10
1072.9014
 20
1084.0340000000001
 11
1087.9014
 21
992.93039999999996
  0
LINE
  8
_0-0_LAYER001
  6
CONTINUOUS
 62
    2
 10
812.87519999999995
 20
988.6844000000001
 11
865.37519999999995
 21
988.6844000000001
  0
CIRCLE
  8
_0-0_LAYER001
  6
CONTINUOUS
 62
    2
 10
815.37519999999995
 20
988.6844000000001
 40
1.6999999999999997
  0
LINE
  8
_0-0_LAYER001
  6
CONTINUOUS
 62
    2
 10
815.37519999999995
 20
988.6844000000001
 11
815.37519999999995
 21
1133.6844000000001
  0
CIRCLE
  8
_0-0_LAYER001
  6
CONTINUOUS
 62
    2
 10
815.37519999999995
 20
1133.6844000000001
 40
1.6999999999999997
  0
LINE
  8
_0-0_LAYER001
  6
CONTINUOUS
 62
    2
 10
812.87519999999995
 20
1133.6844000000001
 11
865.37519999999995
 21
1133.6844000000001
  0
CIRCLE
  8
_0-0_LAYER001
  6
CONTINUOUS
 62
    2
 10
815.37519999999995
 20
1133.6844000000001
 40
1.6999999999999997
  0
LINE
  8
_0-0_LAYER001
  6
CONTINUOUS
 62
    2
 10
815.37519999999995
 20
1133.6844000000001
 11
815.37519999999995
 21
1283.6844000000001
  0
CIRCLE
  8
_0-0_LAYER001
  6
CONTINUOUS
 62
    2
 10
815.37519999999995
 20
1283.6844000000001
 40
1.6999999999999997
  0
LINE
  8
_0-0_LAYER001
  6
CONTINUOUS
 62
    2
 10
812.87519999999995
 20
1283.6844000000001
 11
865.37519999999995
 21
1283.6844000000001
  0
LINE
  8
_0-0_LAYER001
  6
CONTINUOUS
 62
    2
 10
966.22309999999993
 20
988.6844000000001
 11
1018.7230999999999
 21
988.6844000000001
  0
CIRCLE
  8
_0-0_LAYER001
  6
CONTINUOUS
 62
    2
 10
968.72309999999993
 20
988.6844000000001
 40
1.6999999999999997
  0
LINE
  8
_0-0_LAYER001
  6
CONTINUOUS
 62
    2
 10
968.72309999999993
 20
988.6844000000001
 11
968.72309999999993
 21
1084.0340000000001
  0
CIRCLE
  8
_0-0_LAYER001
  6
CONTINUOUS
 62
    2
 10
968.72309999999993
 20
1084.0340000000001
 40
1.6999999999999997
  0
LINE
  8
_0-0_LAYER001
  6
CONTINUOUS
 62
    2
 10
966.22309999999993
 20
1084.0340000000001
 11
1018.7230999999999
 21
1084.0340000000001
  0
LINE
  8
_0-4_LAYER006
  6
CONTINUOUS
 62
    2
 10
1069.7927999999999
 20
1106.212
 11
1071.7339999999999
 21
1098.9675
  0
LINE
  8
_0-4_LAYER006
  6
CONTINUOUS
 62
    2
 10
1071.7339999999999
 20
1098.9675
 11
1066.4306999999999
 21
1104.2708
  0
LINE
  8
_0-4_LAYER006
  6
CONTINUOUS
 62
    2
 10
1071.7339999999999
 20
1098.9675
 11
1027.8843999999999
 21
1174.9172000000001
  0
LINE
  8
_0-4_LAYER006
  6
CONTINUOUS
 62
    2
 10
1027.8843999999999
 20
1174.9172000000001
 11
946.88439999999991
 21
1174.9172000000001
  0
LINE
  8
_0-0_LAYER001
  6
CONTINUOUS
 62
    2
 10
1074.2598
 20
1172.6777
 11
1076.201
 21
1165.4331999999999
  0
LINE
  8
_0-0_LAYER001
  6
CONTINUOUS
 62
    2
 10
1076.201
 20
1165.4331999999999
 11
1070.8977
 21
1170.7365
  0
LINE
  8
_0-0_LAYER001
  6
CONTINUOUS
 62
    2
 10
1076.201
 20
1165.4331999999999
 11
1031.8902
 21
1242.1818000000001
  0
LINE
  8
_0-0_LAYER001
  6
CONTINUOUS
 62
    2
 10
1031.8902
 20
1242.1818000000001
 11
991.39020000000005
 21
1242.1818000000001
  0
LINE
  8
_0-0_LAYER001
  6
CONTINUOUS
 62
    2
 10
1102.1782000000001
 20
1293.4034999999999
 11
1096.8749
 21
1288.1002000000001
  0
LINE
  8
_0-0_LAYER001
  6
CONTINUOUS
 62
    2
 10
1096.8749
 20
1288.1002000000001
 11
1098.816
 21
1295.3445999999999
  0
LINE
  8
_0-0_LAYER001
  6
CONTINUOUS
 62
    2
 10
1096.8749
 20
1288.1002000000001
 11
1145.4384
 21
1372.2147
  0
LINE
  8
_0-0_LAYER001
  6
CONTINUOUS
 62
    2
 10
1145.4384
 20
1372.2147
 11
1317.9384
 21
1372.2147
  0
LINE
  8
_0-0_LAYER001
  6
CONTINUOUS
 62
    2
 10
1147.0545999999999
 20
1127.4137000000001
 11
1141.7512999999999
 21
1122.1104
  0
LINE
  8
_0-0_LAYER001
  6
CONTINUOUS
 62
    2
 10
1141.7512999999999
 20
1122.1104
 11
1143.6925000000001
 21
1129.3548000000001
  0
LINE
  8
_0-0_LAYER001
  6
CONTINUOUS
 62
    2
 10
1141.7512999999999
 20
1122.1104
 11
1223.0024000000001
 21
1262.8414
  0
LINE
  8
_0-0_LAYER001
  6
CONTINUOUS
 62
    2
 10
1223.0024000000001
 20
1262.8414
 11
1457.0023999999999
 21
1262.8414
  0
LINE
  8
_0-0_LAYER001
  6
CONTINUOUS
 62
    2
 10
1654.4886000000001
 20
1046.855
 11
1649.1853000000001
 21
1041.5517
  0
LINE
  8
_0-0_LAYER001
  6
CONTINUOUS
 62
    2
 10
1649.1853000000001
 20
1041.5517
 11
1651.1264000000001
 21
1048.7962
  0
LINE
  8
_0-0_LAYER001
  6
CONTINUOUS
 62
    2
 10
1649.1853000000001
 20
1041.5517
 11
1687.0054
 21
1107.0581
  0
LINE
  8
_0-0_LAYER001
  6
CONTINUOUS
 62
    2
 10
1687.0054
 20
1107.0581
 11
1727.5054
 21
1107.0581
  0
LINE
  8
_0-0_LAYER001
  6
CONTINUOUS
 62
    2
 10
1103.0953999999999
 20
1212.4145000000001
 11
1103.0953999999999
 21
1194.9145000000001
  0
CIRCLE
  8
_0-0_LAYER001
  6
CONTINUOUS
 62
    2
 10
1103.0953999999999
 20
1209.9145000000001
 40
1.6999999999999997
  0
LINE
  8
_0-0_LAYER001
  6
CONTINUOUS
 62
    2
 10
1103.0953999999999
 20
1209.9145000000001
 11
1178.0953999999999
 21
1209.9145000000001
  0
CIRCLE
  8
_0-0_LAYER001
  6
CONTINUOUS
 62
    2
 10
1178.0953999999999
 20
1209.9145000000001
 40
1.6999999999999997
  0
LINE
  8
_0-0_LAYER001
  6
CONTINUOUS
 62
    2
 10
1178.0953999999999
 20
1212.4145000000001
 11
1178.0953999999999
 21
1154.8670999999999
  0
LINE
  8
_0-0_LAYER001
  6
CONTINUOUS
 62
    2
 10
1853.2366000000002
 20
724.35400000000004
 11
2024.9079999999999
 21
724.35400000000004
  0
LINE
  8
_0-0_LAYER001
  6
CONTINUOUS
 62
    2
 10
1835.8611000000001
 20
754.44939999999997
 11
2077.2593000000002
 21
754.44939999999997
  0
LINE
  8
_0-0_LAYER001
  6
CONTINUOUS
 62
    2
 10
1870.4801000000002
 20
694.48749999999995
 11
1935.3083000000001
 21
694.48749999999995
  0
LINE
  8
_0-0_LAYER001
  6
CONTINUOUS
 62
    2
 10
1113.7555
 20
1125.3777
 11
1108.4521999999999
 21
1120.0744
  0
LINE
  8
_0-0_LAYER001
  6
CONTINUOUS
 62
    2
 10
1108.4521999999999
 20
1120.0744
 11
1110.3933
 21
1127.3189
  0
LINE
  8
_0-0_LAYER001
  6
CONTINUOUS
 62
    2
 10
1108.4521999999999
 20
1120.0744
 11
1219.7435
 21
1312.8366000000001
  0
LINE
  8
_0-0_LAYER001
  6
CONTINUOUS
 62
    2
 10
1219.7435
 20
1312.8366000000001
 11
1366.7435
 21
1312.8366000000001
  0
LINE
  8
_0-0_LAYER001
  6
CONTINUOUS
 62
    2
 10
1691.181
 20
1001.1603
 11
1689.2399
 21
1008.4047
  0
LINE
  8
_0-0_LAYER001
  6
CONTINUOUS
 62
    2
 10
1689.2399
 20
1008.4047
 11
1694.5432000000001
 21
1003.1014
  0
LINE
  8
_0-0_LAYER001
  6
CONTINUOUS
 62
    2
 10
1689.2399
 20
1008.4047
 11
1870.4801000000002
 21
694.48749999999995
  0
LINE
  8
_0-0_LAYER001
  6
CONTINUOUS
 62
    2
 10
1818.5515999999998
 20
784.43029999999999
 11
2007.7179999999998
 21
784.43029999999999
  0
LINE
  8
_0-2_LAYER004
  6
CONTINUOUS
 62
    2
 10
1942.7354
 20
916.6844000000001
 11
1942.7354
 21
976.6844000000001
  0
LINE
  8
_0-2_LAYER004
  6
CONTINUOUS
 62
    2
 10
1942.7354
 20
976.6844000000001
 11
2002.7354
 21
976.6844000000001
  0
LINE
  8
_0-2_LAYER004
  6
CONTINUOUS
 62
    2
 10
2002.7354
 20
916.6844000000001
 11
1942.7354
 21
916.6844000000001
  0
LINE
  8
_0-2_LAYER004
  6
CONTINUOUS
 62
    2
 10
2002.7354
 20
976.6844000000001
 11
1942.7354
 21
916.6844000000001
  0
LINE
  8
_0-2_LAYER004
  6
CONTINUOUS
 62
    2
 10
1639.7354
 20
916.6844000000001
 11
1639.7354
 21
976.6844000000001
  0
LINE
  8
_0-2_LAYER004
  6
CONTINUOUS
 62
    2
 10
1639.7354
 20
976.6844000000001
 11
1699.7354
 21
976.6844000000001
  0
LINE
  8
_0-2_LAYER004
  6
CONTINUOUS
 62
    2
 10
1699.7354
 20
976.6844000000001
 11
1699.7354
 21
916.6844000000001
  0
LINE
  8
_0-2_LAYER004
  6
CONTINUOUS
 62
    2
 10
1699.7354
 20
916.6844000000001
 11
1639.7354
 21
916.6844000000001
  0
LINE
  8
_0-2_LAYER004
  6
CONTINUOUS
 62
    2
 10
1699.7354
 20
976.6844000000001
 11
1639.7354
 21
916.6844000000001
  0
LINE
  8
_0-2_LAYER004
  6
CONTINUOUS
 62
    2
 10
1336.7354
 20
916.6844000000001
 11
1336.7354
 21
976.6844000000001
  0
LINE
  8
_0-2_LAYER004
  6
CONTINUOUS
 62
    2
 10
1336.7354
 20
976.6844000000001
 11
1396.7354
 21
976.6844000000001
  0
LINE
  8
_0-2_LAYER004
  6
CONTINUOUS
 62
    2
 10
1396.7354
 20
976.6844000000001
 11
1396.7354
 21
916.6844000000001
  0
LINE
  8
_0-2_LAYER004
  6
CONTINUOUS
 62
    2
 10
1396.7354
 20
916.6844000000001
 11
1336.7354
 21
916.6844000000001
  0
LINE
  8
_0-2_LAYER004
  6
CONTINUOUS
 62
    2
 10
1396.7354
 20
976.6844000000001
 11
1336.7354
 21
916.6844000000001
  0
LINE
  8
_0-2_LAYER004
  6
CONTINUOUS
 62
    2
 10
1068.0953999999999
 20
1327.6404
 11
1068.0953999999999
 21
910.91840000000002
  0
LINE
  8
_0-2_LAYER004
  6
CONTINUOUS
 62
    2
 10
1087.9014
 20
992.93039999999996
 11
1087.9014
 21
1084.0340000000001
  0
LINE
  8
_0-2_LAYER004
  6
CONTINUOUS
 62
    2
 10
1072.9014
 20
1084.0340000000001
 11
1072.9014
 21
992.93039999999996
  0
LINE
  8
_0-2_LAYER004
  6
CONTINUOUS
 62
    2
 10
1198.9376
 20
1008.5645
 11
1198.9376
 21
993.56449999999995
  0
LINE
  8
_0-2_LAYER004
  6
CONTINUOUS
 62
    2
 10
1193.6626000000001
 20
993.55639999999994
 11
1193.6626000000001
 21
1008.5645
  0
LINE
  8
_0-2_LAYER004
  6
CONTINUOUS
 62
    2
 10
1193.6626000000001
 20
1008.5645
 11
1173.1186
 21
1008.5645
  0
LINE
  8
_0-2_LAYER004
  6
CONTINUOUS
 62
    2
 10
1090.4323999999999
 20
993.55639999999994
 11
1090.4323999999999
 21
1084.0340000000001
  0
LINE
  8
_0-2_LAYER004
  6
CONTINUOUS
 62
    2
 10
1193.6626000000001
 20
993.55639999999994
 11
1090.4323999999999
 21
993.55639999999994
  0
LINE
  8
_0-2_LAYER004
  6
DASHED3
 62
    2
 10
1070.4184
 20
991.18139999999994
 11
1070.4184
 21
1288.6844000000001
  0
LINE
  8
_0-2_LAYER004
  6
CONTINUOUS
 62
    2
 10
1072.9014
 20
992.93039999999996
 11
1087.9014
 21
992.93039999999996
  0
LINE
  8
_0-2_LAYER004
  6
CONTINUOUS
 62
    3
 10
1068.0953999999999
 20
910.91840000000002
 11
1068.0953999999999
 21
756.8284000000001
  0
LINE
  8
_0-2_LAYER004
  6
CONTINUOUS
 62
    2
 10
1128.0953999999999
 20
916.6844000000001
 11
1128.0953999999999
 21
976.6844000000001
  0
LINE
  8
_0-2_LAYER004
  6
CONTINUOUS
 62
    2
 10
1128.0953999999999
 20
976.6844000000001
 11
1068.0953999999999
 21
976.6844000000001
  0
LINE
  8
_0-2_LAYER004
  6
CONTINUOUS
 62
    2
 10
1068.0953999999999
 20
976.6844000000001
 11
1068.0953999999999
 21
916.6844000000001
  0
LINE
  8
_0-2_LAYER004
  6
CONTINUOUS
 62
    2
 10
1068.0953999999999
 20
916.6844000000001
 11
1128.0953999999999
 21
916.6844000000001
  0
LINE
  8
_0-2_LAYER004
  6
CONTINUOUS
 62
    2
 10
1166.1164000000001
 20
1099.1954000000001
 11
1168.8194000000001
 21
1113.9494
  0
LINE
  8
_0-2_LAYER004
  6
CONTINUOUS
 62
    2
 10
1168.8194000000001
 20
1113.9494
 11
1080.2924
 21
1130.1654000000001
  0
LINE
  8
_0-2_LAYER004
  6
CONTINUOUS
 62
    2
 10
1080.2924
 20
1130.1654000000001
 11
1077.5894000000001
 21
1115.4104
  0
LINE
  8
_0-2_LAYER004
  6
CONTINUOUS
 62
    2
 10
1077.5894000000001
 20
1115.4104
 11
1166.1164000000001
 21
1099.1954000000001
  0
LINE
  8
_0-2_LAYER004
  6
CONTINUOUS
 62
    2
 10
1168.8194000000001
 20
1113.9494
 11
1077.5894000000001
 21
1115.4104
  0
LINE
  8
_0-2_LAYER004
  6
CONTINUOUS
 62
    2
 10
1178.0953999999999
 20
1114.1928
 11
1178.8855000000001
 21
1088.1251
  0
LINE
  8
_0-2_LAYER004
  6
CONTINUOUS
 62
    2
 10
1103.0953999999999
 20
1133.1614
 11
1091.0953999999999
 21
1133.1614
  0
LINE
  8
_0-2_LAYER004
  6
CONTINUOUS
 62
    2
 10
1091.0953999999999
 20
1140.9703999999999
 11
1091.0953999999999
 21
1180.9703999999999
  0
LINE
  8
_0-2_LAYER004
  6
CONTINUOUS
 62
    2
 10
1091.0953999999999
 20
1180.9703999999999
 11
1073.0953999999999
 21
1180.9703999999999
  0
LINE
  8
_0-2_LAYER004
  6
CONTINUOUS
 62
    2
 10
1073.0953999999999
 20
1180.9703999999999
 11
1073.0953999999999
 21
1140.9703999999999
  0
LINE
  8
_0-2_LAYER004
  6
CONTINUOUS
 62
    2
 10
1073.0953999999999
 20
1140.9703999999999
 11
1091.0953999999999
 21
1140.9703999999999
  0
LINE
  8
_0-2_LAYER004
  6
CONTINUOUS
 62
    2
 10
1073.0953999999999
 20
1180.9703999999999
 11
1091.0953999999999
 21
1140.9703999999999
  0
LINE
  8
_0-2_LAYER004
  6
CONTINUOUS
 62
    2
 10
1178.0953999999999
 20
1114.1928
 11
1071.6813999999999
 21
1133.6844000000001
  0
LINE
  8
_0-2_LAYER004
  6
CONTINUOUS
 62
    2
 10
1071.6813999999999
 20
1133.6844000000001
 11
1071.6813999999999
 21
1283.6844000000001
  0
LINE
  8
_0-5_LAYER007
  6
CONTINUOUS
 62
    3
 10
1068.0953999999999
 20
1405.5124000000001
 11
1068.0953999999999
 21
894.18540000000007
  0
LINE
  8
_0-2_LAYER004
  6
CONTINUOUS
 62
    3
 10
1068.0953999999999
 20
1327.6404
 11
1068.0953999999999
 21
1405.5124000000001
  0
LINE
  8
_0-2_LAYER004
  6
CONTINUOUS
 62
    2
 10
1091.0953999999999
 20
1133.1614
 11
1091.0953999999999
 21
1405.5124000000001
  0
LINE
  8
_0-2_LAYER004
  6
CONTINUOUS
 62
    2
 10
1103.0953999999999
 20
1133.1614
 11
1103.0953999999999
 21
1405.5124000000001
  0
LINE
  8
_0-2_LAYER004
  6
CONTINUOUS
 62
    2
 10
2191.9791
 20
1008.5645
 11
1198.9376
 21
1008.5645
  0
LINE
  8
_0-2_LAYER004
  6
CONTINUOUS
 62
    2
 10
1093.7354
 20
916.6844000000001
 11
1068.0953999999999
 21
916.6844000000001
  0
LINE
  8
_0-2_LAYER004
  6
CONTINUOUS
 62
    2
 10
1128.0953999999999
 20
976.6844000000001
 11
1068.0953999999999
 21
916.6844000000001
  0
LINE
  8
_0-2_LAYER004
  6
CONTINUOUS
 62
    2
 10
1068.0953999999999
 20
976.6844000000001
 11
1093.7354
 21
976.6844000000001
  0
LINE
  8
_0-2_LAYER004
  6
CONTINUOUS
 62
    2
 10
1198.9376
 20
993.56449999999995
 11
2191.9791
 21
993.56449999999995
  0
LINE
  8
_0-2_LAYER004
  6
DASHED3
 62
    2
 10
2191.9791
 20
991.18139999999994
 11
1070.4184
 21
991.18139999999994
  0
LINE
  8
_0-2_LAYER004
  6
CONTINUOUS
 62
    2
 10
2191.9791
 20
988.6844000000001
 11
1068.0953999999999
 21
988.6844000000001
  0
LINE
  8
_0-2_LAYER004
  6
CONTINUOUS
 62
    2
 10
2191.9791
 20
976.6844000000001
 11
1068.0953999999999
 21
976.6844000000001
  0
LINE
  8
_0-2_LAYER004
  6
CONTINUOUS
 62
    2
 10
2002.7354
 20
976.6844000000001
 11
2002.7354
 21
916.6844000000001
  0
LINE
  8
_0-3_LAYER005
  6
CONTINUOUS
 62
    2
 10
1178.8855000000001
 20
1088.1251
 11
1174.6479999999999
 21
1094.7639999999999
  0
LINE
  8
_0-0_LAYER001
  6
CONTINUOUS
 62
    2
 10
1315.7863
 20
1200.5980999999999
 11
1315.7863
 21
1148.0980999999999
  0
CIRCLE
  8
_0-0_LAYER001
  6
CONTINUOUS
 62
    2
 10
1315.7863
 20
1198.0980999999999
 40
1.6999999999999997
  0
LINE
  8
_0-0_LAYER001
  6
CONTINUOUS
 62
    2
 10
1315.7863
 20
1198.0980999999999
 11
1571.0693000000001
 21
1198.0980999999999
  0
CIRCLE
  8
_0-0_LAYER001
  6
CONTINUOUS
 62
    2
 10
1571.0693000000001
 20
1198.0980999999999
 40
1.6999999999999997
  0
LINE
  8
_0-0_LAYER001
  6
CONTINUOUS
 62
    2
 10
1571.0693000000001
 20
1200.5980999999999
 11
1571.0693000000001
 21
1148.0980999999999
  0
CIRCLE
  8
_0-0_LAYER001
  6
CONTINUOUS
 62
    2
 10
1571.0693000000001
 20
1198.0980999999999
 40
1.6999999999999997
  0
LINE
  8
_0-0_LAYER001
  6
CONTINUOUS
 62
    2
 10
1571.0693000000001
 20
1198.0980999999999
 11
1826.0693000000001
 21
1198.0980999999999
  0
CIRCLE
  8
_0-0_LAYER001
  6
CONTINUOUS
 62
    2
 10
1826.0693000000001
 20
1198.0980999999999
 40
1.6999999999999997
  0
LINE
  8
_0-0_LAYER001
  6
CONTINUOUS
 62
    2
 10
1826.0693000000001
 20
1200.5980999999999
 11
1826.0693000000001
 21
1148.0980999999999
  0
CIRCLE
  8
_0-0_LAYER001
  6
CONTINUOUS
 62
    2
 10
1826.0693000000001
 20
1198.0980999999999
 40
1.6999999999999997
  0
LINE
  8
_0-0_LAYER001
  6
CONTINUOUS
 62
    2
 10
1826.0693000000001
 20
1198.0980999999999
 11
2081.0693000000001
 21
1198.0980999999999
  0
CIRCLE
  8
_0-0_LAYER001
  6
CONTINUOUS
 62
    2
 10
2081.0693000000001
 20
1198.0980999999999
 40
1.6999999999999997
  0
LINE
  8
_0-0_LAYER001
  6
CONTINUOUS
 62
    2
 10
2081.0693000000001
 20
1200.5980999999999
 11
2081.0693000000001
 21
1148.0980999999999
  0
ARC
  8
_0-0_LAYER001
  6
CONTINUOUS
 62
    4
 10
1243.9670000000001
 20
1224.1588999999999
 40
214.38050999999999
 50
231.7756
 51
268.38173
  0
ARC
  8
_0-0_LAYER001
  6
CONTINUOUS
 62
    4
 10
1298.4362000000001
 20
1040.6564000000001
 40
52.178303999999997
 50
215.53766999999999
 51
234.46232000000001
  0
ARC
  8
_0-0_LAYER001
  6
CONTINUOUS
 62
    4
 10
1272.1074000000001
 20
1002.9526000000001
 40
6.2695089999999993
 50
234.10575000000003
 51
303.29033000000004
  0
ARC
  8
_0-0_LAYER001
  6
CONTINUOUS
 62
    4
 10
1240.6467
 20
1046.9586999999999
 40
58.841383
 50
213.2508
 51
234.31144
  0
ARC
  8
_0-0_LAYER001
  6
CONTINUOUS
 62
    4
 10
1210.771
 20
1005.8013000000001
 40
7.947610000000001
 50
234.52014000000003
 51
301.23766000000001
  0
ARC
  8
_0-0_LAYER001
  6
CONTINUOUS
 62
    4
 10
1194.2695000000001
 20
1038.2706000000001
 40
44.132803000000003
 50
297.62160999999998
 51
318.23129999999998
  0
ARC
  8
_0-0_LAYER001
  6
CONTINUOUS
 62
    4
 10
1243.9670000000001
 20
1224.1588999999999
 40
199.38050999999999
 50
231.7756
 51
268.38173
  0
ARC
  8
_0-0_LAYER001
  6
CONTINUOUS
 62
    4
 10
1243.9670000000001
 20
1224.1588999999999
 40
199.38050999999999
 50
231.7756
 51
268.38173
  0
ARC
  8
_0-0_LAYER001
  6
CONTINUOUS
 62
    4
 10
1243.9670000000001
 20
1224.1588999999999
 40
197.38050999999999
 50
231.7756
 51
268.38173
  0
ARC
  8
_0-0_LAYER001
  6
CONTINUOUS
 62
    4
 10
1243.9670000000001
 20
1224.1588999999999
 40
182.38050999999999
 50
231.7756
 51
268.38173
  0
ARC
  8
_0-0_LAYER001
  6
CONTINUOUS
 62
    4
 10
1243.9670000000001
 20
1224.1588999999999
 40
214.38050999999999
 50
231.7756
 51
268.38173
  0
ARC
  8
_0-0_LAYER001
  6
CONTINUOUS
 62
    4
 10
1220.5784000000001
 20
1040.7737
 40
69.674484000000007
 50
321.65733
 51
337.34946000000002
  0
ARC
  8
_0-0_LAYER001
  6
CONTINUOUS
 62
    4
 10
1234.4233999999999
 20
1317.0461
 40
307.27562
 50
270.90795000000003
 51
293.21983
  0
ARC
  8
_0-0_LAYER001
  6
CONTINUOUS
 62
    4
 10
1234.4233999999999
 20
1317.0461
 40
275.27562
 50
270.90795000000003
 51
287.11988000000002
  0
ARC
  8
_0-0_LAYER001
  6
CONTINUOUS
 62
    4
 10
1234.4233999999999
 20
1317.0461
 40
292.27562
 50
270.90795000000003
 51
292.69346000000002
  0
LINE
  8
_0-0_LAYER001
  6
CONTINUOUS
 62
    4
 10
1347.1836000000003
 20
1049.8226999999999
 11
1347.1836000000003
 21
1047.3979999999999
  0
LINE
  8
_0-0_LAYER001
  6
CONTINUOUS
 62
    4
 10
1355.5699
 20
1034.6603
 11
1355.5699
 21
1052.9675
  0
LINE
  8
_0-0_LAYER001
  6
CONTINUOUS
 62
    4
 10
1347.1836000000003
 20
1049.8226999999999
 11
1355.5699
 21
1052.9675
  0
ARC
  8
_0-0_LAYER001
  6
CONTINUOUS
 62
    4
 10
1234.4233999999999
 20
1317.0461
 40
290.27562
 50
270.90795000000003
 51
286.23334
  0
LINE
  8
_0-0_LAYER001
  6
CONTINUOUS
 62
    4
 10
1315.5699
 20
1038.3434999999999
 11
1315.5699
 21
1054.0027
  0
ARC
  8
_0-0_LAYER001
  6
CONTINUOUS
 62
    4
 10
1498.7217999999998
 20
1222.5206000000001
 40
214.38050999999999
 50
231.7756
 51
268.38173
  0
LINE
  8
_0-0_LAYER001
  6
CONTINUOUS
 62
    4
 10
1319.3300999999999
 20
1038.1153999999999
 11
1355.5201
 21
1054.2716
  0
ARC
  8
_0-0_LAYER001
  6
CONTINUOUS
 62
    4
 10
1553.1909999999998
 20
1039.0181
 40
52.178303999999997
 50
215.53766999999999
 51
234.46232000000001
  0
ARC
  8
_0-0_LAYER001
  6
CONTINUOUS
 62
    4
 10
1526.8622
 20
1001.3143
 40
6.2695089999999993
 50
234.10575000000003
 51
303.29033000000004
  0
ARC
  8
_0-0_LAYER001
  6
CONTINUOUS
 62
    4
 10
1495.4014999999999
 20
1045.3204000000001
 40
58.841383
 50
213.2508
 51
234.31144
  0
ARC
  8
_0-0_LAYER001
  6
CONTINUOUS
 62
    4
 10
1465.5257999999999
 20
1004.163
 40
7.947610000000001
 50
234.52014000000003
 51
301.23766000000001
  0
ARC
  8
_0-0_LAYER001
  6
CONTINUOUS
 62
    4
 10
1449.0243
 20
1036.6323
 40
44.132803000000003
 50
297.62160999999998
 51
318.23129999999998
  0
LINE
  8
_0-0_LAYER001
  6
CONTINUOUS
 62
    4
 10
1319.3300999999999
 20
1036.6955
 11
1315.3246999999999
 21
1034.8135
  0
LINE
  8
_0-0_LAYER001
  6
CONTINUOUS
 62
    4
 10
1319.3300999999999
 20
1038.1153999999999
 11
1319.3300999999999
 21
1036.6955
  0
LINE
  8
_0-0_LAYER001
  6
CONTINUOUS
 62
    4
 10
1318.8045999999999
 20
1054.8593000000001
 11
1315.4416000000001
 21
1053.5331000000001
  0
LINE
  8
_0-0_LAYER001
  6
CONTINUOUS
 62
    4
 10
1318.8045999999999
 20
1056.348
 11
1318.8045999999999
 21
1054.8593000000001
  0
ARC
  8
_0-0_LAYER001
  6
CONTINUOUS
 62
    4
 10
1498.7217999999998
 20
1222.5206000000001
 40
199.38050999999999
 50
231.7756
 51
268.38173
  0
ARC
  8
_0-0_LAYER001
  6
CONTINUOUS
 62
    4
 10
1498.7217999999998
 20
1222.5206000000001
 40
199.38050999999999
 50
231.7756
 51
268.38173
  0
ARC
  8
_0-0_LAYER001
  6
CONTINUOUS
 62
    4
 10
1498.7217999999998
 20
1222.5206000000001
 40
197.38050999999999
 50
231.7756
 51
268.38173
  0
LINE
  8
_0-0_LAYER001
  6
CONTINUOUS
 62
    4
 10
1319.0596
 20
1056.5724
 11
1349.3395
 21
1070.6197999999999
  0
LINE
  8
_0-0_LAYER001
  6
CONTINUOUS
 62
    4
 10
1350.5881999999999
 20
1069.059
 11
1315.9378999999999
 21
1053.4508000000001
  0
ARC
  8
_0-0_LAYER001
  6
CONTINUOUS
 62
    4
 10
1498.7217999999998
 20
1222.5206000000001
 40
182.38050999999999
 50
231.7756
 51
268.38173
  0
LINE
  8
_0-0_LAYER001
  6
CONTINUOUS
 62
    4
 10
1315.3246999999999
 20
1034.8135
 11
1315.3246999999999
 21
1071.3752999999999
  0
LINE
  8
_0-0_LAYER001
  6
CONTINUOUS
 62
    4
 10
1315.3246999999999
 20
1071.3752999999999
 11
1343.027
 21
1084.2268999999999
  0
ARC
  8
_0-0_LAYER001
  6
CONTINUOUS
 62
    4
 10
1498.7217999999998
 20
1222.5206000000001
 40
214.38050999999999
 50
231.7756
 51
268.38173
  0
ARC
  8
_0-0_LAYER001
  6
CONTINUOUS
 62
    4
 10
1360.1358
 20
1045.1276
 40
27.732966999999999
 50
54.176177000000003
 51
112.93031000000001
  0
ARC
  8
_0-0_LAYER001
  6
CONTINUOUS
 62
    4
 10
1360.4837
 20
1047.4010000000001
 40
40.679594999999999
 50
51.535313000000002
 51
115.27963000000001
  0
ARC
  8
_0-0_LAYER001
  6
CONTINUOUS
 62
    4
 10
1360.1223
 20
1044.6297
 40
26.213477999999995
 50
54.56426900000001
 51
111.2666
  0
ARC
  8
_0-0_LAYER001
  6
CONTINUOUS
 62
    4
 10
1360.6331
 20
1042.1683
 40
13.076713
 50
65.553432000000001
 51
112.83269999999999
  0
ARC
  8
_0-0_LAYER001
  6
CONTINUOUS
 62
    4
 10
1475.3332
 20
1039.1353999999999
 40
69.674484000000007
 50
321.65733
 51
337.34946000000002
  0
ARC
  8
_0-0_LAYER001
  6
CONTINUOUS
 62
    4
 10
1489.1781999999998
 20
1315.4078
 40
307.27562
 50
270.90795000000003
 51
293.21983
  0
ARC
  8
_0-0_LAYER001
  6
CONTINUOUS
 62
    4
 10
1489.1781999999998
 20
1315.4078
 40
275.27562
 50
270.90795000000003
 51
287.11988000000002
  0
ARC
  8
_0-0_LAYER001
  6
CONTINUOUS
 62
    4
 10
1489.1781999999998
 20
1315.4078
 40
292.27562
 50
270.90795000000003
 51
292.69346000000002
  0
LINE
  8
_0-0_LAYER001
  6
CONTINUOUS
 62
    4
 10
1601.9384
 20
1048.1844000000001
 11
1601.9384
 21
1045.7597000000001
  0
LINE
  8
_0-0_LAYER001
  6
CONTINUOUS
 62
    4
 10
1610.3247000000001
 20
1033.0219999999999
 11
1610.3247000000001
 21
1051.3293000000001
  0
LINE
  8
_0-0_LAYER001
  6
CONTINUOUS
 62
    4
 10
1601.9384
 20
1048.1844000000001
 11
1610.3247000000001
 21
1051.3293000000001
  0
ARC
  8
_0-0_LAYER001
  6
CONTINUOUS
 62
    4
 10
1489.1781999999998
 20
1315.4078
 40
290.27562
 50
270.90795000000003
 51
286.23334
  0
ARC
  8
_0-0_LAYER001
  6
CONTINUOUS
 62
    4
 10
1754.2957000000001
 20
1222.5206000000001
 40
214.38050999999999
 50
231.7756
 51
268.38173
  0
LINE
  8
_0-0_LAYER001
  6
CONTINUOUS
 62
    4
 10
1574.9041000000002
 20
1038.1153999999999
 11
1611.0940999999998
 21
1054.2716
  0
ARC
  8
_0-0_LAYER001
  6
CONTINUOUS
 62
    4
 10
1808.7649000000001
 20
1039.0181
 40
52.178303999999997
 50
215.53766999999999
 51
234.46232000000001
  0
ARC
  8
_0-0_LAYER001
  6
CONTINUOUS
 62
    4
 10
1782.4362000000001
 20
1001.3143
 40
6.2695089999999993
 50
234.10575000000003
 51
303.29033000000004
  0
ARC
  8
_0-0_LAYER001
  6
CONTINUOUS
 62
    4
 10
1750.9753999999998
 20
1045.3204000000001
 40
58.841383
 50
213.2508
 51
234.31144
  0
ARC
  8
_0-0_LAYER001
  6
CONTINUOUS
 62
    4
 10
1721.0998
 20
1004.163
 40
7.947610000000001
 50
234.52014000000003
 51
301.23766000000001
  0
ARC
  8
_0-0_LAYER001
  6
CONTINUOUS
 62
    4
 10
1704.5983000000001
 20
1036.6323
 40
44.132803000000003
 50
297.62160999999998
 51
318.23129999999998
  0
LINE
  8
_0-0_LAYER001
  6
CONTINUOUS
 62
    4
 10
1574.9041000000002
 20
1036.6955
 11
1570.8986
 21
1034.8135
  0
LINE
  8
_0-0_LAYER001
  6
CONTINUOUS
 62
    4
 10
1574.9041000000002
 20
1038.1153999999999
 11
1574.9041000000002
 21
1036.6955
  0
LINE
  8
_0-0_LAYER001
  6
CONTINUOUS
 62
    4
 10
1574.3784999999998
 20
1054.8593000000001
 11
1571.0156000000002
 21
1053.5331000000001
  0
LINE
  8
_0-0_LAYER001
  6
CONTINUOUS
 62
    4
 10
1574.3784999999998
 20
1056.348
 11
1574.3784999999998
 21
1054.8593000000001
  0
ARC
  8
_0-0_LAYER001
  6
CONTINUOUS
 62
    4
 10
1754.2957000000001
 20
1222.5206000000001
 40
199.38050999999999
 50
231.7756
 51
268.38173
  0
ARC
  8
_0-0_LAYER001
  6
CONTINUOUS
 62
    4
 10
1754.2957000000001
 20
1222.5206000000001
 40
199.38050999999999
 50
231.7756
 51
268.38173
  0
ARC
  8
_0-0_LAYER001
  6
CONTINUOUS
 62
    4
 10
1754.2957000000001
 20
1222.5206000000001
 40
197.38050999999999
 50
231.7756
 51
268.38173
  0
LINE
  8
_0-0_LAYER001
  6
CONTINUOUS
 62
    4
 10
1574.6334999999999
 20
1056.5724
 11
1604.9135000000001
 21
1070.6197999999999
  0
LINE
  8
_0-0_LAYER001
  6
CONTINUOUS
 62
    4
 10
1606.1621
 20
1069.059
 11
1571.5119
 21
1053.4508000000001
  0
ARC
  8
_0-0_LAYER001
  6
CONTINUOUS
 62
    4
 10
1754.2957000000001
 20
1222.5206000000001
 40
182.38050999999999
 50
231.7756
 51
268.38173
  0
LINE
  8
_0-0_LAYER001
  6
CONTINUOUS
 62
    4
 10
1570.8986
 20
1034.8135
 11
1570.8986
 21
1071.3752999999999
  0
LINE
  8
_0-0_LAYER001
  6
CONTINUOUS
 62
    4
 10
1570.8986
 20
1071.3752999999999
 11
1598.6008999999999
 21
1084.2268999999999
  0
ARC
  8
_0-0_LAYER001
  6
CONTINUOUS
 62
    4
 10
1754.2957000000001
 20
1222.5206000000001
 40
214.38050999999999
 50
231.7756
 51
268.38173
  0
ARC
  8
_0-0_LAYER001
  6
CONTINUOUS
 62
    4
 10
1615.7098000000001
 20
1045.1276
 40
27.732966999999999
 50
54.176177000000003
 51
112.93031000000001
  0
ARC
  8
_0-0_LAYER001
  6
CONTINUOUS
 62
    4
 10
1616.0576999999998
 20
1047.4010000000001
 40
40.679594999999999
 50
51.535313000000002
 51
115.27963000000001
  0
ARC
  8
_0-0_LAYER001
  6
CONTINUOUS
 62
    4
 10
1615.6961999999999
 20
1044.6297
 40
26.213477999999995
 50
54.56426900000001
 51
111.2666
  0
ARC
  8
_0-0_LAYER001
  6
CONTINUOUS
 62
    4
 10
1616.2069999999999
 20
1042.1683
 40
13.076713
 50
65.553432000000001
 51
112.83269999999999
  0
ARC
  8
_0-0_LAYER001
  6
CONTINUOUS
 62
    4
 10
1730.9072000000001
 20
1039.1353999999999
 40
69.674484000000007
 50
321.65733
 51
337.34946000000002
  0
ARC
  8
_0-0_LAYER001
  6
CONTINUOUS
 62
    4
 10
1744.7521000000002
 20
1315.4078
 40
307.27562
 50
270.90795000000003
 51
293.21983
  0
ARC
  8
_0-0_LAYER001
  6
CONTINUOUS
 62
    4
 10
1744.7521000000002
 20
1315.4078
 40
275.27562
 50
270.90795000000003
 51
287.11988000000002
  0
ARC
  8
_0-0_LAYER001
  6
CONTINUOUS
 62
    4
 10
1744.7521000000002
 20
1315.4078
 40
292.27562
 50
270.90795000000003
 51
292.69346000000002
  0
LINE
  8
_0-0_LAYER001
  6
CONTINUOUS
 62
    4
 10
1857.5122999999999
 20
1048.1844000000001
 11
1857.5122999999999
 21
1045.7597000000001
  0
LINE
  8
_0-0_LAYER001
  6
CONTINUOUS
 62
    4
 10
1865.8986
 20
1033.0219999999999
 11
1865.8986
 21
1051.3293000000001
  0
LINE
  8
_0-0_LAYER001
  6
CONTINUOUS
 62
    4
 10
1857.5122999999999
 20
1048.1844000000001
 11
1865.8986
 21
1051.3293000000001
  0
ARC
  8
_0-0_LAYER001
  6
CONTINUOUS
 62
    4
 10
1744.7521000000002
 20
1315.4078
 40
290.27562
 50
270.90795000000003
 51
286.23334
  0
LINE
  8
_0-0_LAYER001
  6
CONTINUOUS
 62
    4
 10
1825.8986
 20
1036.7052000000001
 11
1825.8986
 21
1052.3643999999999
  0
ARC
  8
_0-0_LAYER001
  6
CONTINUOUS
 62
    4
 10
2009.1826000000001
 20
1222.1242
 40
214.38050999999999
 50
231.7756
 51
268.38173
  0
LINE
  8
_0-0_LAYER001
  6
CONTINUOUS
 62
    4
 10
1829.7910000000002
 20
1037.7190000000001
 11
1865.9810000000002
 21
1053.8752999999999
  0
ARC
  8
_0-0_LAYER001
  6
CONTINUOUS
 62
    4
 10
2063.6518000000001
 20
1038.6217999999999
 40
52.178303999999997
 50
215.53766999999999
 51
234.46232000000001
  0
ARC
  8
_0-0_LAYER001
  6
CONTINUOUS
 62
    4
 10
2037.3231000000001
 20
1000.9179999999999
 40
6.2695089999999993
 50
234.10575000000003
 51
303.29033000000004
  0
ARC
  8
_0-0_LAYER001
  6
CONTINUOUS
 62
    4
 10
2005.8624
 20
1044.924
 40
58.841383
 50
213.2508
 51
234.31144
  0
ARC
  8
_0-0_LAYER001
  6
CONTINUOUS
 62
    4
 10
1975.9866999999999
 20
1003.7666999999999
 40
7.947610000000001
 50
234.52014000000003
 51
301.23766000000001
  0
ARC
  8
_0-0_LAYER001
  6
CONTINUOUS
 62
    4
 10
1959.4852000000001
 20
1036.2360000000001
 40
44.132803000000003
 50
297.62160999999998
 51
318.23129999999998
  0
LINE
  8
_0-0_LAYER001
  6
CONTINUOUS
 62
    4
 10
1829.7910000000002
 20
1036.2991999999999
 11
1825.7856000000002
 21
1034.4170999999999
  0
LINE
  8
_0-0_LAYER001
  6
CONTINUOUS
 62
    4
 10
1829.7910000000002
 20
1037.7190000000001
 11
1829.7910000000002
 21
1036.2991999999999
  0
LINE
  8
_0-0_LAYER001
  6
CONTINUOUS
 62
    4
 10
1829.2654000000002
 20
1054.4629
 11
1825.9025000000001
 21
1053.1367
  0
LINE
  8
_0-0_LAYER001
  6
CONTINUOUS
 62
    4
 10
1829.2654000000002
 20
1055.9516000000001
 11
1829.2654000000002
 21
1054.4629
  0
ARC
  8
_0-0_LAYER001
  6
CONTINUOUS
 62
    4
 10
2009.1826000000001
 20
1222.1242
 40
199.38050999999999
 50
231.7756
 51
268.38173
  0
ARC
  8
_0-0_LAYER001
  6
CONTINUOUS
 62
    4
 10
2009.1826000000001
 20
1222.1242
 40
199.38050999999999
 50
231.7756
 51
268.38173
  0
ARC
  8
_0-0_LAYER001
  6
CONTINUOUS
 62
    4
 10
2009.1826000000001
 20
1222.1242
 40
197.38050999999999
 50
231.7756
 51
268.38173
  0
LINE
  8
_0-0_LAYER001
  6
CONTINUOUS
 62
    4
 10
1829.5203999999999
 20
1056.1760999999999
 11
1859.8004000000001
 21
1070.2235000000001
  0
LINE
  8
_0-0_LAYER001
  6
CONTINUOUS
 62
    4
 10
1861.049
 20
1068.6626000000001
 11
1826.3987999999999
 21
1053.0544
  0
ARC
  8
_0-0_LAYER001
  6
CONTINUOUS
 62
    4
 10
2009.1826000000001
 20
1222.1242
 40
182.38050999999999
 50
231.7756
 51
268.38173
  0
LINE
  8
_0-0_LAYER001
  6
CONTINUOUS
 62
    4
 10
1825.7856000000002
 20
1034.4170999999999
 11
1825.7856000000002
 21
1070.9789000000001
  0
LINE
  8
_0-0_LAYER001
  6
CONTINUOUS
 62
    4
 10
1825.7856000000002
 20
1070.9789000000001
 11
1853.4877999999999
 21
1083.8305
  0
ARC
  8
_0-0_LAYER001
  6
CONTINUOUS
 62
    4
 10
2009.1826000000001
 20
1222.1242
 40
214.38050999999999
 50
231.7756
 51
268.38173
  0
ARC
  8
_0-0_LAYER001
  6
CONTINUOUS
 62
    4
 10
1870.5967000000001
 20
1044.7312999999999
 40
27.732966999999999
 50
54.176177000000003
 51
112.93031000000001
  0
ARC
  8
_0-0_LAYER001
  6
CONTINUOUS
 62
    4
 10
1870.9445999999998
 20
1047.0047
 40
40.679594999999999
 50
51.535313000000002
 51
115.27963000000001
  0
ARC
  8
_0-0_LAYER001
  6
CONTINUOUS
 62
    4
 10
1870.5832
 20
1044.2334000000001
 40
26.213477999999995
 50
54.56426900000001
 51
111.2666
  0
ARC
  8
_0-0_LAYER001
  6
CONTINUOUS
 62
    4
 10
1871.0940000000001
 20
1041.7719999999999
 40
13.076713
 50
65.553432000000001
 51
112.83269999999999
  0
ARC
  8
_0-0_LAYER001
  6
CONTINUOUS
 62
    4
 10
1985.7941000000001
 20
1038.739
 40
69.674484000000007
 50
321.65733
 51
337.34946000000002
  0
ARC
  8
_0-0_LAYER001
  6
CONTINUOUS
 62
    4
 10
1999.6390000000001
 20
1315.0115000000001
 40
307.27562
 50
270.90795000000003
 51
293.21983
  0
ARC
  8
_0-0_LAYER001
  6
CONTINUOUS
 62
    4
 10
1999.6390000000001
 20
1315.0115000000001
 40
275.27562
 50
270.90795000000003
 51
287.11988000000002
  0
ARC
  8
_0-0_LAYER001
  6
CONTINUOUS
 62
    4
 10
1999.6390000000001
 20
1315.0115000000001
 40
292.27562
 50
270.90795000000003
 51
292.69346000000002
  0
ARC
  8
_0-0_LAYER001
  6
CONTINUOUS
 62
    4
 10
1999.6390000000001
 20
1315.0115000000001
 40
290.27562
 50
270.90795000000003
 51
286.23334
  0
ARC
  8
_0-0_LAYER001
  6
CONTINUOUS
 62
    4
 10
2263.8184999999999
 20
1224.5605
 40
214.38050999999999
 50
231.7756
 51
250.42124000000001
  0
LINE
  8
_0-0_LAYER001
  6
CONTINUOUS
 62
    4
 10
2084.4268000000002
 20
1040.1552999999999
 11
2120.6167999999998
 21
1056.3115
  0
LINE
  8
_0-0_LAYER001
  6
CONTINUOUS
 62
    4
 10
2084.4268000000002
 20
1038.7354
 11
2080.4214000000002
 21
1036.8534
  0
LINE
  8
_0-0_LAYER001
  6
CONTINUOUS
 62
    4
 10
2084.4268000000002
 20
1040.1552999999999
 11
2084.4268000000002
 21
1038.7354
  0
LINE
  8
_0-0_LAYER001
  6
CONTINUOUS
 62
    4
 10
2083.9013
 20
1056.8992000000001
 11
2080.5383000000002
 21
1055.5730000000001
  0
LINE
  8
_0-0_LAYER001
  6
CONTINUOUS
 62
    4
 10
2083.9013
 20
1058.3878999999999
 11
2083.9013
 21
1056.8992000000001
  0
ARC
  8
_0-0_LAYER001
  6
CONTINUOUS
 62
    4
 10
2263.8184999999999
 20
1224.5605
 40
199.38050999999999
 50
231.7756
 51
248.88057000000001
  0
ARC
  8
_0-0_LAYER001
  6
CONTINUOUS
 62
    4
 10
2263.8184999999999
 20
1224.5605
 40
199.38050999999999
 50
231.7756
 51
248.88057000000001
  0
ARC
  8
_0-0_LAYER001
  6
CONTINUOUS
 62
    4
 10
2263.8184999999999
 20
1224.5605
 40
197.38050999999999
 50
231.7756
 51
248.65616
  0
LINE
  8
_0-0_LAYER001
  6
CONTINUOUS
 62
    4
 10
2084.1563000000001
 20
1058.6124
 11
2114.4362000000001
 21
1072.6596999999999
  0
LINE
  8
_0-0_LAYER001
  6
CONTINUOUS
 62
    4
 10
2115.6849000000002
 20
1071.0989
 11
2081.0346
 21
1055.4907000000001
  0
ARC
  8
_0-0_LAYER001
  6
CONTINUOUS
 62
    4
 10
2263.8184999999999
 20
1224.5605
 40
182.38050999999999
 50
231.7756
 51
246.80270999999999
  0
LINE
  8
_0-0_LAYER001
  6
CONTINUOUS
 62
    4
 10
2080.4214000000002
 20
1036.8534
 11
2080.4214000000002
 21
1073.4151999999999
  0
LINE
  8
_0-0_LAYER001
  6
CONTINUOUS
 62
    4
 10
2080.4214000000002
 20
1073.4151999999999
 11
2108.1237000000001
 21
1086.2668000000001
  0
ARC
  8
_0-0_LAYER001
  6
CONTINUOUS
 62
    4
 10
2263.8184999999999
 20
1224.5605
 40
214.38050999999999
 50
231.7756
 51
250.42124000000001
  0
ARC
  8
_0-0_LAYER001
  6
CONTINUOUS
 62
    4
 10
2125.2325000000001
 20
1047.1676
 40
27.732966999999999
 50
54.176177000000003
 51
112.93031000000001
  0
ARC
  8
_0-0_LAYER001
  6
CONTINUOUS
 62
    4
 10
2125.5803999999998
 20
1049.4409000000001
 40
40.679594999999999
 50
51.535313000000002
 51
115.27963000000001
  0
ARC
  8
_0-0_LAYER001
  6
CONTINUOUS
 62
    4
 10
2125.2190000000001
 20
1046.6696999999999
 40
26.213477999999995
 50
54.56426900000001
 51
111.2666
  0
ARC
  8
_0-0_LAYER001
  6
CONTINUOUS
 62
    4
 10
2125.7298000000001
 20
1044.2083
 40
13.076713
 50
65.553432000000001
 51
112.83269999999999
  0
LINE
  8
_0-0_LAYER001
  6
CONTINUOUS
 62
    4
 10
2112.5362
 20
1047.8486
 11
2112.5362
 21
1045.6635000000001
  0
LINE
  8
_0-0_LAYER001
  6
CONTINUOUS
 62
    4
 10
2112.5362
 20
1048.473
 11
2112.5362
 21
1045.6635000000001
  0
LINE
  8
_0-0_LAYER001
  6
CONTINUOUS
 62
    4
 10
2112.5362
 20
1048.7851000000001
 11
2120.6525000000001
 21
1051.9068
  0
LINE
  8
_0-0_LAYER001
  6
CONTINUOUS
 62
    4
 10
2120.6525000000001
 20
1033.1768999999999
 11
2120.6525000000001
 21
1051.9068
  0
ARC
  8
_0-0_LAYER001
  6
CONTINUOUS
 62
    4
 10
1105.8783000000001
 20
1043.8065999999999
 40
13.076713
 50
65.553432000000001
 51
117.42375
  0
ARC
  8
_0-0_LAYER001
  6
CONTINUOUS
 62
    4
 10
1105.7289000000001
 20
1049.0392999999999
 40
40.679594999999999
 50
51.535313000000002
 51
98.827657000000002
  0
ARC
  8
_0-0_LAYER001
  6
CONTINUOUS
 62
    4
 10
1105.3810000000001
 20
1046.7659000000001
 40
27.732966999999999
 50
54.176177000000003
 51
102.20569
  0
ARC
  8
_0-0_LAYER001
  6
CONTINUOUS
 62
    4
 10
1105.3675000000001
 20
1046.268
 40
26.213477999999995
 50
54.56426900000001
 51
102.77263000000001
  0
LINE
  8
_0-0_LAYER001
  6
CONTINUOUS
 62
    4
 10
1099.8556000000001
 20
1089.0251000000001
 11
1099.8556000000001
 21
1059.7342000000001
  0
LINE
  8
_0-0_LAYER001
  6
CONTINUOUS
 62
    4
 10
1099.8556000000001
 20
1059.7342000000001
 11
1099.8556000000001
 21
1055.4138
  0
LINE
  8
_0-0_LAYER001
  6
CONTINUOUS
 62
    4
 10
1099.4051999999999
 20
1055.3027
 11
1100.7653
 21
1055.9099000000001
  0
LINE
  8
_0-1_LAYER003
  6
CONTINUOUS
 62
    7
 10
1145.4384
 20
1372.2147
 11
1317.9384
 21
1372.2147
  0
LINE
  8
_0-1_LAYER003
  6
CONTINUOUS
 62
    7
 10
1219.7435
 20
1312.8366000000001
 11
1366.7435
 21
1312.8366000000001
  0
LINE
  8
_0-1_LAYER003
  6
CONTINUOUS
 62
    7
 10
1223.0024000000001
 20
1262.8414
 11
1457.0023999999999
 21
1262.8414
  0
LINE
  8
_0-1_LAYER003
  6
CONTINUOUS
 62
    7
 10
1315.7863
 20
1200.5980999999999
 11
1315.7863
 21
1148.0980999999999
  0
LINE
  8
_0-1_LAYER003
  6
CONTINUOUS
 62
    7
 10
1315.7863
 20
1198.0980999999999
 11
2081.0693000000001
 21
1198.0980999999999
  0
LINE
  8
_0-1_LAYER003
  6
CONTINUOUS
 62
    7
 10
2081.0693000000001
 20
1148.0980999999999
 11
2081.0693000000001
 21
1199.7981
  0
LINE
  8
_0-1_LAYER003
  6
CONTINUOUS
 62
    7
 10
1826.0693000000001
 20
1148.0980999999999
 11
1826.0693000000001
 21
1198.0980999999999
  0
LINE
  8
_0-1_LAYER003
  6
CONTINUOUS
 62
    7
 10
1826.0693000000001
 20
1196.3980999999999
 11
1826.0693000000001
 21
1200.5980999999999
  0
LINE
  8
_0-1_LAYER003
  6
CONTINUOUS
 62
    7
 10
1571.0693000000001
 20
1148.0980999999999
 11
1571.0693000000001
 21
1200.5980999999999
  0
LINE
  8
_0-1_LAYER003
  6
CONTINUOUS
 62
    7
 10
1687.0054
 20
1107.0581
 11
1727.5054
 21
1107.0581
  0
LINE
  8
_0-1_LAYER003
  6
CONTINUOUS
 62
    7
 10
2191.9791
 20
1008.5645
 11
1198.9376
 21
1008.5645
  0
LINE
  8
_0-1_LAYER003
  6
CONTINUOUS
 62
    7
 10
1198.9376
 20
1005.453768599711
 11
1198.9376
 21
993.56449999999995
  0
LINE
  8
_0-1_LAYER003
  6
CONTINUOUS
 62
    7
 10
1198.9376
 20
993.56449999999995
 11
2191.9791
 21
993.56449999999995
  0
LINE
  8
_0-1_LAYER003
  6
CONTINUOUS
 62
    7
 10
2191.9791
 20
991.18139999999994
 11
1070.4184
 21
991.18139999999994
  0
LINE
  8
_0-1_LAYER003
  6
CONTINUOUS
 62
    7
 10
1070.4184
 20
991.18139999999994
 11
1070.4184
 21
1084.0340000000001
  0
LINE
  8
_0-1_LAYER003
  6
CONTINUOUS
 62
    7
 10
1090.4323999999999
 20
1084.0340000000001
 11
1090.4323999999999
 21
993.55639999999994
  0
LINE
  8
_0-1_LAYER003
  6
CONTINUOUS
 62
    7
 10
1090.4323999999999
 20
993.55639999999994
 11
1193.6626000000001
 21
993.55639999999994
  0
LINE
  8
_0-1_LAYER003
  6
CONTINUOUS
 62
    7
 10
1193.6626000000001
 20
993.55639999999994
 11
1193.6626000000001
 21
1008.5645
  0
LINE
  8
_0-1_LAYER003
  6
CONTINUOUS
 62
    7
 10
1193.6626000000001
 20
1008.5645
 11
1173.1186
 21
1008.5645
  0
LINE
  8
_0-1_LAYER003
  6
CONTINUOUS
 62
    7
 10
1087.9014
 20
992.93039999999996
 11
1087.9014
 21
1084.0340000000001
  0
LINE
  8
_0-1_LAYER003
  6
CONTINUOUS
 62
    7
 10
1087.9014
 20
1084.0340000000001
 11
1072.9014
 21
1084.0340000000001
  0
LINE
  8
_0-1_LAYER003
  6
CONTINUOUS
 62
    7
 10
1072.9014
 20
1084.0340000000001
 11
1072.9014
 21
992.93039999999996
  0
LINE
  8
_0-1_LAYER003
  6
CONTINUOUS
 62
    7
 10
1072.9014
 20
992.93039999999996
 11
1087.9014
 21
992.93039999999996
  0
LINE
  8
_0-1_LAYER003
  6
CONTINUOUS
 62
    7
 10
1068.0953999999999
 20
988.6844000000001
 11
2191.9791
 21
988.6844000000001
  0
LINE
  8
_0-1_LAYER003
  6
CONTINUOUS
 62
    7
 10
2191.9791
 20
976.6844000000001
 11
1068.0953999999999
 21
976.6844000000001
  0
LINE
  8
_0-1_LAYER003
  6
CONTINUOUS
 62
    7
 10
1128.0953999999999
 20
976.6844000000001
 11
1128.0953999999999
 21
916.6844000000001
  0
LINE
  8
_0-1_LAYER003
  6
CONTINUOUS
 62
    7
 10
1128.0953999999999
 20
916.6844000000001
 11
1068.0953999999999
 21
916.6844000000001
  0
LINE
  8
_0-1_LAYER003
  6
CONTINUOUS
 62
    7
 10
1020.8262
 20
925.46329999999989
 11
832.60860000000002
 21
925.46329999999989
  0
LINE
  8
_0-1_LAYER003
  6
CONTINUOUS
 62
    7
 10
812.87519999999995
 20
988.6844000000001
 11
865.37519999999995
 21
988.6844000000001
  0
LINE
  8
_0-1_LAYER003
  6
CONTINUOUS
 62
    7
 10
891.60509999999999
 20
988.6844000000001
 11
943.30510000000004
 21
988.6844000000001
  0
LINE
  8
_0-1_LAYER003
  6
CONTINUOUS
 62
    7
 10
967.02309999999989
 20
988.6844000000001
 11
1018.7230999999999
 21
988.6844000000001
  0
LINE
  8
_0-1_LAYER003
  6
CONTINUOUS
 62
    7
 10
968.72309999999993
 20
988.6844000000001
 11
968.72309999999993
 21
1084.0340000000001
  0
LINE
  8
_0-1_LAYER003
  6
CONTINUOUS
 62
    7
 10
967.02309999999989
 20
1084.0340000000001
 11
1018.7230999999999
 21
1084.0340000000001
  0
LINE
  8
_0-1_LAYER003
  6
CONTINUOUS
 62
    7
 10
946.88439999999991
 20
1174.9172000000001
 11
1027.8843999999999
 21
1174.9172000000001
  0
LINE
  8
_0-1_LAYER003
  6
CONTINUOUS
 62
    7
 10
893.30510000000004
 20
988.6844000000001
 11
893.30510000000004
 21
1288.6844000000001
  0
LINE
  8
_0-1_LAYER003
  6
CONTINUOUS
 62
    7
 10
891.60509999999999
 20
1288.6844000000001
 11
943.30510000000004
 21
1288.6844000000001
  0
LINE
  8
_0-1_LAYER003
  6
CONTINUOUS
 62
    7
 10
991.39020000000005
 20
1242.1818000000001
 11
1031.8902
 21
1242.1818000000001
  0
LINE
  8
_0-1_LAYER003
  6
CONTINUOUS
 62
    7
 10
812.87519999999995
 20
1283.6844000000001
 11
865.37519999999995
 21
1283.6844000000001
  0
LINE
  8
_0-1_LAYER003
  6
CONTINUOUS
 62
    7
 10
815.37519999999995
 20
1283.6844000000001
 11
815.37519999999995
 21
988.6844000000001
  0
LINE
  8
_0-1_LAYER003
  6
CONTINUOUS
 62
    7
 10
812.87519999999995
 20
1133.6844000000001
 11
865.37519999999995
 21
1133.6844000000001
  0
LINE
  8
_0-1_LAYER003
  6
CONTINUOUS
 62
    7
 10
1091.0953999999999
 20
1405.5124000000001
 11
1091.0953999999999
 21
1133.1614
  0
LINE
  8
_0-1_LAYER003
  6
CONTINUOUS
 62
    7
 10
1091.0953999999999
 20
1133.1614
 11
1103.0953999999999
 21
1133.1614
  0
LINE
  8
_0-1_LAYER003
  6
CONTINUOUS
 62
    7
 10
1103.0953999999999
 20
1133.1614
 11
1103.0953999999999
 21
1405.5124000000001
  0
LINE
  8
_0-1_LAYER003
  6
CONTINUOUS
 62
    7
 10
1071.6813999999999
 20
1283.6844000000001
 11
1071.6813999999999
 21
1133.6844000000001
  0
LINE
  8
_0-1_LAYER003
  6
CONTINUOUS
 62
    7
 10
1070.4184
 20
1288.6844000000001
 11
1070.4184
 21
1084.0340000000001
  0
LINE
  8
_0-1_LAYER003
  6
CONTINUOUS
 62
    7
 10
1090.4323999999999
 20
1084.0340000000001
 11
1070.4184
 21
1084.0340000000001
  0
LINE
  8
_0-1_LAYER003
  6
CONTINUOUS
 62
    7
 10
1070.4184
 20
1084.0340000000001
 11
1098.0953999999999
 21
1084.0340000000001
  0
LINE
  8
_0-1_LAYER003
  6
CONTINUOUS
 62
    7
 10
1098.0953999999999
 20
1084.0340000000001
 11
1098.0953999999999
 21
1111.53
  0
LINE
  8
_0-1_LAYER003
  6
CONTINUOUS
 62
    7
 10
1070.4184
 20
1114.0340000000001
 11
1084.4250999999999
 21
1114.0340000000001
  0
LINE
  8
_0-1_LAYER003
  6
CONTINUOUS
 62
    7
 10
1103.0953999999999
 20
1209.9145000000001
 11
1178.0953999999999
 21
1209.9145000000001
  0
LINE
  8
_0-1_LAYER003
  6
CONTINUOUS
 62
    7
 10
1178.0953999999999
 20
1154.8670999999999
 11
1178.0953999999999
 21
1211.6145000000001
  0
LINE
  8
_0-1_LAYER003
  6
CONTINUOUS
 62
    7
 10
1091.0953999999999
 20
1180.9703999999999
 11
1073.0953999999999
 21
1180.9703999999999
  0
LINE
  8
_0-1_LAYER003
  6
CONTINUOUS
 62
    7
 10
1073.0953999999999
 20
1180.9703999999999
 11
1073.0953999999999
 21
1140.9703999999999
  0
LINE
  8
_0-1_LAYER003
  6
CONTINUOUS
 62
    7
 10
1073.0953999999999
 20
1140.9703999999999
 11
1091.0953999999999
 21
1140.9703999999999
  0
LINE
  8
_0-1_LAYER003
  6
CONTINUOUS
 62
    7
 10
1336.7354
 20
976.6844000000001
 11
1336.7354
 21
916.6844000000001
  0
LINE
  8
_0-1_LAYER003
  6
CONTINUOUS
 62
    7
 10
1336.7354
 20
916.6844000000001
 11
1396.7354
 21
916.6844000000001
  0
LINE
  8
_0-1_LAYER003
  6
CONTINUOUS
 62
    7
 10
1396.7354
 20
916.6844000000001
 11
1396.7354
 21
976.6844000000001
  0
LINE
  8
_0-1_LAYER003
  6
CONTINUOUS
 62
    7
 10
1254.2279000000001
 20
812.0177000000001
 11
1455.2278999999999
 21
812.0177000000001
  0
LINE
  8
_0-1_LAYER003
  6
CONTINUOUS
 62
    7
 10
1639.7354
 20
976.6844000000001
 11
1639.7354
 21
916.6844000000001
  0
LINE
  8
_0-1_LAYER003
  6
CONTINUOUS
 62
    7
 10
1639.7354
 20
916.6844000000001
 11
1699.7354
 21
916.6844000000001
  0
LINE
  8
_0-1_LAYER003
  6
CONTINUOUS
 62
    7
 10
1699.7354
 20
916.6844000000001
 11
1699.7354
 21
976.6844000000001
  0
LINE
  8
_0-1_LAYER003
  6
CONTINUOUS
 62
    7
 10
1942.7354
 20
976.6844000000001
 11
1942.7354
 21
916.6844000000001
  0
LINE
  8
_0-1_LAYER003
  6
CONTINUOUS
 62
    7
 10
1942.7354
 20
916.6844000000001
 11
2002.7354
 21
916.6844000000001
  0
LINE
  8
_0-1_LAYER003
  6
CONTINUOUS
 62
    7
 10
2002.7354
 20
916.6844000000001
 11
2002.7354
 21
976.6844000000001
  0
LINE
  8
_0-1_LAYER003
  6
CONTINUOUS
 62
    7
 10
1818.5515999999998
 20
784.43029999999999
 11
2007.7179999999998
 21
784.43029999999999
  0
LINE
  8
_0-1_LAYER003
  6
CONTINUOUS
 62
    7
 10
1835.8611000000001
 20
754.44939999999997
 11
2065.3611000000001
 21
754.44939999999997
  0
LINE
  8
_0-1_LAYER003
  6
CONTINUOUS
 62
    7
 10
1853.2366662751199
 20
724.35400000000004
 11
2024.9079999999999
 21
724.35400000000004
  0
LINE
  8
_0-1_LAYER003
  6
CONTINUOUS
 62
    7
 10
1870.4801000000002
 20
694.48749999999995
 11
1935.3083000000001
 21
694.48749999999995
  0
LINE
  8
_0-1_LAYER003
  6
CONTINUOUS
 62
    7
 10
1145.4384
 20
1372.2147
 11
1096.8749
 21
1288.1002000000001
  0
LINE
  8
_0-1_LAYER003
  6
CONTINUOUS
 62
    7
 10
1096.8749
 20
1288.1002000000001
 11
1102.1782000000001
 21
1293.4034999999999
  0
LINE
  8
_0-1_LAYER003
  6
CONTINUOUS
 62
    7
 10
1096.8749
 20
1288.1002000000001
 11
1098.816
 21
1295.3445999999999
  0
LINE
  8
_0-1_LAYER003
  6
CONTINUOUS
 62
    7
 10
1031.8902
 20
1242.1818000000001
 11
1076.201
 21
1165.4331999999999
  0
LINE
  8
_0-1_LAYER003
  6
CONTINUOUS
 62
    7
 10
1074.2598
 20
1172.6777
 11
1076.201
 21
1165.4331999999999
  0
LINE
  8
_0-1_LAYER003
  6
CONTINUOUS
 62
    7
 10
1076.201
 20
1165.4331999999999
 11
1071.6813999999999
 21
1169.9528
  0
LINE
  8
_0-1_LAYER003
  6
CONTINUOUS
 62
    7
 10
1073.0953999999999
 20
1180.9703999999999
 11
1091.0953999999999
 21
1140.9703999999999
  0
LINE
  8
_0-1_LAYER003
  6
CONTINUOUS
 62
    7
 10
1071.6813999999999
 20
1133.6844000000001
 11
1178.0953999999999
 21
1114.1928
  0
LINE
  8
_0-1_LAYER003
  6
CONTINUOUS
 62
    7
 10
1178.0953999999999
 20
1114.1928
 11
1178.8855000000001
 21
1088.1251
  0
LINE
  8
_0-1_LAYER003
  6
CONTINUOUS
 62
    7
 10
1178.8855000000001
 20
1088.1251
 11
1174.6479999999999
 21
1094.7639999999999
  0
LINE
  8
_0-1_LAYER003
  6
CONTINUOUS
 62
    7
 10
1168.8194000000001
 20
1113.9494
 11
1166.1164000000001
 21
1099.1954000000001
  0
LINE
  8
_0-1_LAYER003
  6
CONTINUOUS
 62
    7
 10
1166.1164000000001
 20
1099.1954000000001
 11
1077.5894000000001
 21
1115.4104
  0
LINE
  8
_0-1_LAYER003
  6
CONTINUOUS
 62
    7
 10
1077.5894000000001
 20
1115.4104
 11
1080.2924
 21
1130.1654000000001
  0
LINE
  8
_0-1_LAYER003
  6
CONTINUOUS
 62
    7
 10
1080.2924
 20
1130.1654000000001
 11
1168.8194000000001
 21
1113.9494
  0
LINE
  8
_0-1_LAYER003
  6
CONTINUOUS
 62
    7
 10
1168.8194000000001
 20
1113.9494
 11
1077.5894000000001
 21
1115.4104
  0
LINE
  8
_0-1_LAYER003
  6
CONTINUOUS
 62
    7
 10
1110.2080622430353
 20
1126.6275626498737
 11
1108.4521999999999
 21
1120.0744
  0
LINE
  8
_0-1_LAYER003
  6
CONTINUOUS
 62
    7
 10
1108.4521999999999
 20
1120.0744
 11
1113.7555
 21
1125.3777
  0
LINE
  8
_0-1_LAYER003
  6
CONTINUOUS
 62
    7
 10
1108.4521999999999
 20
1120.0744
 11
1219.7435
 21
1312.8366000000001
  0
LINE
  8
_0-1_LAYER003
  6
CONTINUOUS
 62
    7
 10
1223.0024000000001
 20
1262.8414
 11
1141.7512999999999
 21
1122.1104
  0
LINE
  8
_0-1_LAYER003
  6
CONTINUOUS
 62
    7
 10
1141.7512999999999
 20
1122.1104
 11
1147.0545999999999
 21
1127.4137000000001
  0
LINE
  8
_0-1_LAYER003
  6
CONTINUOUS
 62
    7
 10
1141.7512999999999
 20
1122.1104
 11
1143.6925000000001
 21
1129.3548000000001
  0
LINE
  8
_0-1_LAYER003
  6
CONTINUOUS
 62
    7
 10
1098.0953999999999
 20
1084.0340000000001
 11
1068.0953999999999
 21
1114.0340000000001
  0
LINE
  8
_0-1_LAYER003
  6
CONTINUOUS
 62
    7
 10
1068.0953999999999
 20
1114.0340000000001
 11
1070.4184
 21
1114.0340000000001
  0
LINE
  8
_0-1_LAYER003
  6
CONTINUOUS
 62
    7
 10
1071.7339999999999
 20
1098.9675
 11
1069.7927999999999
 21
1106.212
  0
LINE
  8
_0-1_LAYER003
  6
CONTINUOUS
 62
    7
 10
1071.7339999999999
 20
1098.9675
 11
1066.4306999999999
 21
1104.2708
  0
LINE
  8
_0-1_LAYER003
  6
CONTINUOUS
 62
    7
 10
1071.7339999999999
 20
1098.9675
 11
1027.8843999999999
 21
1174.9172000000001
  0
LINE
  8
_0-1_LAYER003
  6
CONTINUOUS
 62
    7
 10
1090.4323999999999
 20
1084.0340000000001
 11
1098.7707
 21
1073.5432000000001
  0
LINE
  8
_0-1_LAYER003
  6
CONTINUOUS
 62
    7
 10
1072.9014
 20
1084.0340000000001
 11
1087.9014
 21
992.93039999999996
  0
LINE
  8
_0-1_LAYER003
  6
CONTINUOUS
 62
    7
 10
1074.3681999999999
 20
1022.0831000000001
 11
1079.6715999999999
 21
1027.3864000000001
  0
LINE
  8
_0-1_LAYER003
  6
CONTINUOUS
 62
    7
 10
1079.6715999999999
 20
1027.3864000000001
 11
1077.7303999999999
 21
1020.1420000000001
  0
LINE
  8
_0-1_LAYER003
  6
CONTINUOUS
 62
    7
 10
1079.6715999999999
 20
1027.3864000000001
 11
1020.8262
 21
925.46329999999989
  0
LINE
  8
_0-1_LAYER003
  6
CONTINUOUS
 62
    7
 10
1068.0953999999999
 20
916.6844000000001
 11
1128.0953999999999
 21
976.6844000000001
  0
LINE
  8
_0-1_LAYER003
  6
CONTINUOUS
 62
    7
 10
1149.5763999999999
 20
993.2793999999999
 11
1151.5174999999999
 21
986.03500000000008
  0
LINE
  8
_0-1_LAYER003
  6
CONTINUOUS
 62
    7
 10
1149.5763999999999
 20
993.2793999999999
 11
1154.8797
 21
987.97610000000009
  0
LINE
  8
_0-1_LAYER003
  6
CONTINUOUS
 62
    7
 10
1149.5763999999999
 20
993.2793999999999
 11
1254.2279000000001
 21
812.0177000000001
  0
LINE
  8
_0-1_LAYER003
  6
CONTINUOUS
 62
    7
 10
1336.7354
 20
916.6844000000001
 11
1396.7354
 21
976.6844000000001
  0
LINE
  8
_0-1_LAYER003
  6
CONTINUOUS
 62
    7
 10
1687.0054
 20
1107.0581
 11
1649.1853000000001
 21
1041.5517
  0
LINE
  8
_0-1_LAYER003
  6
CONTINUOUS
 62
    7
 10
1649.1853000000001
 20
1041.5517
 11
1654.4886000000001
 21
1046.855
  0
LINE
  8
_0-1_LAYER003
  6
CONTINUOUS
 62
    7
 10
1649.1853000000001
 20
1041.5517
 11
1651.1264000000001
 21
1048.7962
  0
LINE
  8
_0-1_LAYER003
  6
CONTINUOUS
 62
    7
 10
1639.7354
 20
916.6844000000001
 11
1699.7354
 21
976.6844000000001
  0
LINE
  8
_0-1_LAYER003
  6
CONTINUOUS
 62
    7
 10
1689.2399
 20
1008.4047
 11
1691.181
 21
1001.1603
  0
LINE
  8
_0-1_LAYER003
  6
CONTINUOUS
 62
    7
 10
1689.2399
 20
1008.4047
 11
1694.5432000000001
 21
1003.1014
  0
LINE
  8
_0-1_LAYER003
  6
CONTINUOUS
 62
    7
 10
1689.2399
 20
1008.4047
 11
1870.4801000000002
 21
694.48749999999995
  0
LINE
  8
_0-1_LAYER003
  6
CONTINUOUS
 62
    7
 10
1942.7354
 20
916.6844000000001
 11
2002.7354
 21
976.6844000000001
  0
TEXT
  8
_0-0_LAYER001
 62
    7
 10
889.51702192997141
 20
1126.7780538565512
 40
20
 41
1
 50
90
  1
立
  0
TEXT
  8
_0-2_LAYER004
 62
    7
 10
793.02079999999944
 20
1147.3244
 40
20
 41
1
 50
90
  1
水切り立上がり寸法
  0
TEXT
  8
_0-0_LAYER001
 62
    7
 10
991.3901999999996
 20
1244.6817999999998
 40
20
 41
1
 50
0
  1
胴　縁
  0
TEXT
  8
_0-0_LAYER001
 62
    7
 10
1145.4383999999995
 20
1374.7146999999998
 40
20
 41
1
 50
0
  1
外壁　防火サイディング
  0
TEXT
  8
_0-0_LAYER001
 62
    7
 10
1853.2365999999997
 20
726.8539999999997
 40
20
 41
1
 50
0
  1
　野地板：杉ｔ＝１２
  0
TEXT
  8
_0-0_LAYER001
 62
    7
 10
1870.4800999999995
 20
696.98749999999973
 40
20
 41
1
 50
0
  1
　垂木
  0
TEXT
  8
_0-0_LAYER001
 62
    7
 10
1219.7434999999996
 20
1315.3365999999996
 40
20
 41
1
 50
0
  1
笠木：１５ｘ９０
  0
TEXT
  8
_0-0_LAYER001
 62
    7
 10
1818.5515999999996
 20
786.93029999999965
 40
20
 41
1
 50
0
  1
　瓦桟：１５ｘ３０以上
  0
TEXT
  8
_0-1_LAYER003
 62
    7
 10
889.74899318550138
 20
1072.5345841627302
 40
20
 41
1
 50
90
  1
下葺き材上がり寸法
  0
TEXT
  8
_0-0_LAYER001
 62
    7
 10
1681.1265929219867
 20
1114.7202148606748
 40
20
 41
1
 50
0
  1
桟　瓦
  0
TEXT
  8
_0-0_LAYER001
 62
    7
 10
845.67082201181051
 20
1201.5412906723689
 40
20
 41
1
 50
90
  1
150
  0
TEXT
  8
_0-0_LAYER001
 62
    7
 10
842.91593631345552
 20
1051.4000201119838
 40
20
 41
1
 50
90
  1
145
  0
TEXT
  8
_0-4_LAYER006
 62
    7
 10
919.36401444282546
 20
1128.5368196659433
 40
20
 41
1
 50
90
  1
300
  0
TEXT
  8
_0-4_LAYER006
 62
    7
 10
946.88439999999957
 20
1177.4172000000001
 40
20
 41
1
 50
0
  1
30x30
  0
TEXT
  8
_0-0_LAYER001
 62
    7
 10
997.18953542137353
 20
1032.8045416480832
 40
20
 41
1
 50
90
  1
95
  0
TEXT
  8
_0-0_LAYER001
 62
    7
 10
818.15098896987888
 20
927.51268881661485
 40
20
 41
1
 50
0
  1
下地材：１５ｘ１２５　
  0
TEXT
  8
_0-0_LAYER001
 62
    7
 10
1254.2278999999996
 20
814.51769999999988
 40
20
 41
1
 50
0
  1
捨谷カラー鋼板0.35ｍｍ以上
  0
TEXT
  8
_0-0_LAYER001
 62
    7
 10
1835.8610999999996
 20
756.94939999999974
 40
20
 41
1
 50
0
  1
　下葺材：ルーフィング
  0
TEXT
  8
_0-0_LAYER001
 62
    7
 10
1434.0155794966117
 20
1217.148895892793
 40
20
 41
1
 50
0
  1
255
  0
TEXT
  8
_0-0_LAYER001
 62
    7
 10
1690.8369823928574
 20
1219.2713868258197
 40
20
 41
1
 50
0
  1
255
  0
TEXT
  8
_0-0_LAYER001
 62
    7
 10
1939.1684215569967
 20
1215.0264049597663
 40
20
 41
1
 50
0
  1
255
  0
TEXT
  8
_0-0_LAYER001
 62
    7
 10
1136.8668488728556
 20
1223.5163686918738
 40
20
 41
1
 50
0
  1
75
  0
TEXT
  8
_0-0_LAYER001
 62
    7
 10
1223.0023999999994
 20
1265.3413999999998
 40
20
 41
1
 50
0
  1
雨押水切カラー鋼板0.35ｍｍ以上
  0
ENDSEC
  0
EOF
