  0
SECTION
  2
HEADER
  9
$ACADVER
  1
AC1009
  9
$INSBASE
 10
0
 20
0
 30
0
  9
$EXTMIN
 10
0
 20
0
  9
$EXTMAX
 10
2970
 20
2100
  9
$LIMMIN
 10
0
 20
0
  9
$LIMMAX
 10
2970
 20
2100
  9
$LTSCALE
 40
10
  0
ENDSEC
  0
SECTION
  2
TABLES
  0
TABLE
  2
LTYPE
 70
     9
  0
LTYPE
  2
CONTINUOUS
 70
    64
  3
実線
 72
    65
 73
     0
 40
0.0
  0
LTYPE
  2
DASHED1
 70
    64
  3
--  --  --  --  --  --  --  --  
 72
    65
 73
     2
 40
2.5
 49
1.25
 49
-1.25
  0
LTYPE
  2
DASHED2
 70
    64
  3
----    ----    ----    ----    
 72
    65
 73
     2
 40
5.0
 49
2.5
 49
-2.5
  0
LTYPE
  2
DASHED3
 70
    64
  3
------  ------  ------  ------  
 72
    65
 73
     2
 40
5.0
 49
3.75
 49
-1.25
  0
LTYPE
  2
CENTER1
 70
    64
  3
----- - ----- - ----- - ----- - 
 72
    65
 73
     4
 40
10.0
 49
6.25
 49
-1.25
 49
1.25
 49
-1.25
  0
LTYPE
  2
CENTER2
 70
    64
  3
----------  --  ----------  --  
 72
    65
 73
     4
 40
20.0
 49
12.5
 49
-2.5
 49
2.5
 49
-2.5
  0
LTYPE
  2
PHANTOM1
 70
    64
  3
--- - - --- - - --- - - --- - - 
 72
    65
 73
     6
 40
10.0
 49
3.25
 49
-1.25
 49
1.25
 49
-1.25
 49
1.25
 49
-1.25
  0
LTYPE
  2
PHANTOM2
 70
    64
  3
--------  -  -  --------  -  -  
 72
    65
 73
     6
 40
20.0
 49
10.0
 49
-2.5
 49
1.25
 49
-2.5
 49
1.25
 49
-2.5
  0
LTYPE
  2
DOT
 70
    64
  3
-   -   -   -   -   -   -   -   
 72
    65
 73
     2
 40
2.5
 49
0.625
 49
-1.875
  0
LTYPE
  2
DUMMY
 70
    64
  3
ダミー
 72
    65
 73
     0
 40
0.0
  0
LTYPE
  2
RAND1
 70
    64
  3
ランダム線1
 72
    65
 73
     4
 40
10.0
 49
1.0
 49
-2.0
 49
3.0
 49
-4.0
  0
LTYPE
  2
RAND2
 70
    64
  3
ランダム線2
 72
    65
 73
     4
 40
14.0
 49
2.0
 49
-3.0
 49
4.0
 49
-5.0
  0
LTYPE
  2
RAND3
 70
    64
  3
ランダム線3
 72
    65
 73
     4
 40
18.0
 49
3.0
 49
-4.0
 49
5.0
 49
-6.0
  0
LTYPE
  2
RAND4
 70
    64
  3
ランダム線4
 72
    65
 73
     4
 40
22.0
 49
4.0
 49
-5.0
 49
6.0
 49
-7.0
  0
LTYPE
  2
RAND5
 70
    64
  3
ランダム線5
 72
    65
 73
     4
 40
26.0
 49
5.0
 49
-6.0
 49
7.0
 49
-8.0
  0
LTYPE
  2
LONG1
 70
    64
  3
----------  --  ----------  --  
 72
    65
 73
     4
 40
40.0
 49
32.5
 49
-2.5
 49
2.5
 49
-2.5
  0
LTYPE
  2
LONG2
 70
    64
  3
--------  -  -  --------  -  -  
 72
    65
 73
     6
 40
40.0
 49
30.0
 49
-2.5
 49
1.25
 49
-2.5
 49
1.25
 49
-2.5
  0
LTYPE
  2
LONG3
 70
    64
  3
+++++++++++++++..+++++++++++++++
 72
    65
 73
     2
 40
40.0
 49
37.5
 49
-2.5
  0
LTYPE
  2
LONG4
 70
    64
  3
+++++++++++++++..+++++++++++++++
 72
    65
 73
     2
 40
80.0
 49
75.0
 49
-5.0
  0
LTYPE
  2
LONG5
 70
    64
  3
----------  --  ----------  --  
 72
    65
 73
     4
 40
60.0
 49
37.5
 49
-7.5
 49
7.5
 49
-7.5
  0
LTYPE
  2
dashed
 70
   64
  3
-------   -------------   ------
 72
   65
 73
    2
 40
7.5
 49
6
 49
-1.5
  0
LTYPE
  2
dashed_spaced
 70
   64
  3
----        --------        ----
 72
   65
 73
    2
 40
12
 49
6
 49
-6
  0
LTYPE
  2
long_dashed_dotted
 70
   64
  3
------------- --- --------------
 72
   65
 73
    4
 40
15.25
 49
12
 49
-1.5
 49
0.25
 49
-1.5
  0
LTYPE
  2
long_dashed_double-dotted
 70
   64
  3
----------- --- --- ------------
 72
   65
 73
    6
 40
17
 49
12
 49
-1.5
 49
0.25
 49
-1.5
 49
0.25
 49
-1.5
  0
LTYPE
  2
long_dashed_triplicate-dotted
 70
   64
  3
--------- --- --- --- ----------
 72
   65
 73
    8
 40
18.75
 49
12
 49
-1.5
 49
0.25
 49
-1.5
 49
0.25
 49
-1.5
 49
0.25
 49
-1.5
  0
LTYPE
  2
dotted
 70
   64
  3
   -       -       -       -    
 72
   65
 73
    2
 40
1.75
 49
0.25
 49
-1.5
  0
LTYPE
  2
chain
 70
   64
  3
-------------- -- --------------
 72
   65
 73
    4
 40
18.5
 49
12
 49
-1.5
 49
3.5
 49
-1.5
  0
LTYPE
  2
chain_double_dash
 70
   64
  3
------------ -- -- -------------
 72
   65
 73
    6
 40
23.5
 49
12
 49
-1.5
 49
3.5
 49
-1.5
 49
3.5
 49
-1.5
  0
LTYPE
  2
dashed_dotted
 70
   64
  3
-----------     -     ----------
 72
   65
 73
    4
 40
9.25
 49
6
 49
-1.5
 49
0.25
 49
-1.5
  0
LTYPE
  2
double-dashed_dotted
 70
   64
  3
------   -----------   -   -----
 72
   65
 73
    6
 40
16.75
 49
6
 49
-1.5
 49
6
 49
-1.5
 49
0.25
 49
-1.5
  0
LTYPE
  2
dashed_double-dotted
 70
   64
  3
---------    -    -    ---------
 72
   65
 73
    6
 40
11
 49
6
 49
-1.5
 49
0.25
 49
-1.5
 49
0.25
 49
-1.5
  0
LTYPE
  2
double-dashed_double-dotted
 70
   64
  3
-----   ---------   -   -   ----
 72
   65
 73
    8
 40
18.5
 49
6
 49
-1.5
 49
6
 49
-1.5
 49
0.25
 49
-1.5
 49
0.25
 49
-1.5
  0
LTYPE
  2
dashed_triplicate-dotted
 70
   64
  3
-------    -    -    -    ------
 72
   65
 73
    8
 40
12.75
 49
6
 49
-1.5
 49
0.25
 49
-1.5
 49
0.25
 49
-1.5
 49
0.25
 49
-1.5
  0
LTYPE
  2
double-dashed_triplicate-dotted
 70
   64
  3
-----  ---------  -  -  -  -----
 72
   65
 73
   10
 40
20.25
 49
6
 49
-1.5
 49
6
 49
-1.5
 49
0.25
 49
-1.5
 49
0.25
 49
-1.5
 49
0.25
 49
-1.5
  0
LTYPE
  2
undefined
 70
   64
  3
--------------------------------
 72
   65
 73
    0
 40
0
  0
ENDTAB
  0
TABLE
  2
STYLE
  5
3
100
AcDbSymbolTable
 70
     1
  0
STYLE
  5
10
100
AcDbSymbolTableRecord
100
AcDbTextStyleTableRecord
  2
STANDARD
 70
     0
 40
0.0
 41
1.0
 50
0.0
 71
     0
 42
0.2
  3
txt
  4
bigfont.shx
  0
STYLE
  5
26
100
AcDbSymbolTableRecord
100
AcDbTextStyleTableRecord
  2
TATEGAKI
 70
    68
 40
0.0
 41
1.0
 50
0.0
 71
     0
 42
1.0
  3
txt
  4
bigfont.shx
  0
ENDTAB
  0
TABLE
  2
LAYER
 70
    7
  0
LAYER
  2
_0-0_LAYER001
 70
   64
 62
    7
  6
CONTINUOUS
  0
LAYER
  2
_0-1_LAYER003
 70
   64
 62
    7
  6
CONTINUOUS
  0
LAYER
  2
_0-2_LAYER004
 70
   64
 62
    7
  6
CONTINUOUS
  0
LAYER
  2
_0-3_LAYER005
 70
   64
 62
    7
  6
CONTINUOUS
  0
LAYER
  2
_0-4_LAYER006
 70
   64
 62
    7
  6
CONTINUOUS
  0
LAYER
  2
_0-5_LAYER007
 70
   64
 62
    7
  6
CONTINUOUS
  0
LAYER
  2
ADD_LINE
 70
   64
 62
    7
  6
CONTINUOUS
  0
ENDTAB
  0
ENDSEC
  0
SECTION
  2
BLOCKS
  0
ENDSEC
  0
SECTION
  2
ENTITIES
  0
LINE
  8
_0-0_LAYER001
  6
CONTINUOUS
 62
    2
 10
1139.2416000000001
 20
979.36349999999993
 11
1137.3005000000001
 21
986.60789999999997
  0
LINE
  8
_0-0_LAYER001
  6
CONTINUOUS
 62
    2
 10
1137.3005000000001
 20
986.60789999999997
 11
1142.6038000000001
 21
981.30459999999994
  0
LINE
  8
_0-0_LAYER001
  6
CONTINUOUS
 62
    2
 10
1137.3005000000001
 20
986.60789999999997
 11
1244.4005999999999
 21
801.10500000000002
  0
LINE
  8
_0-0_LAYER001
  6
CONTINUOUS
 62
    2
 10
1244.4005999999999
 20
801.10500000000002
 11
1445.4005999999999
 21
801.10500000000002
  0
CIRCLE
  8
_0-0_LAYER001
  6
CONTINUOUS
 62
    2
 10
893.98080000000004
 20
979.32220000000007
 40
1.6999999999999997
  0
LINE
  8
_0-0_LAYER001
  6
CONTINUOUS
 62
    2
 10
891.48080000000004
 20
979.32220000000007
 11
968.98080000000004
 21
979.32220000000007
  0
LINE
  8
_0-4_LAYER006
  6
CONTINUOUS
 62
    2
 10
1059.4743000000001
 20
1133.4911
 11
1061.4155000000001
 21
1126.2466999999999
  0
LINE
  8
_0-4_LAYER006
  6
CONTINUOUS
 62
    2
 10
1061.4155000000001
 20
1126.2466999999999
 11
1056.1122
 21
1131.55
  0
LINE
  8
_0-4_LAYER006
  6
CONTINUOUS
 62
    2
 10
1061.4155000000001
 20
1126.2466999999999
 11
1026.4575
 21
1186.7955999999999
  0
LINE
  8
_0-4_LAYER006
  6
CONTINUOUS
 62
    2
 10
1026.4575
 20
1186.7955999999999
 11
945.45749999999998
 21
1186.7955999999999
  0
LINE
  8
_0-1_LAYER003
  6
CONTINUOUS
 62
    2
 10
1164.4045000000001
 20
1110.5791999999999
 11
1159.7336
 21
1116.7398000000001
  0
LINE
  8
_0-0_LAYER001
  6
CONTINUOUS
 62
    4
 10
1084.5179000000001
 20
1110.6664000000001
 11
1084.5179000000001
 21
1110.2005999999999
  0
LINE
  8
_0-0_LAYER001
  6
CONTINUOUS
 62
    4
 10
1084.5179000000001
 20
1123.3094000000001
 11
1084.5179000000001
 21
1122.0452
  0
LINE
  8
_0-0_LAYER001
  6
CONTINUOUS
 62
    4
 10
1084.5179000000001
 20
1122.0452
 11
1084.5179000000001
 21
1120.182
  0
LINE
  8
_0-0_LAYER001
  6
CONTINUOUS
 62
    4
 10
1084.5179000000001
 20
1120.182
 11
1084.5179000000001
 21
1117.9196999999999
  0
LINE
  8
_0-0_LAYER001
  6
CONTINUOUS
 62
    4
 10
1084.5179000000001
 20
1117.9196999999999
 11
1084.5179000000001
 21
1115.4576999999999
  0
LINE
  8
_0-0_LAYER001
  6
CONTINUOUS
 62
    4
 10
1084.5179000000001
 20
1115.4576999999999
 11
1084.5179000000001
 21
1112.9956999999999
  0
LINE
  8
_0-0_LAYER001
  6
CONTINUOUS
 62
    4
 10
1084.5179000000001
 20
1112.9956999999999
 11
1084.5179000000001
 21
1110.7334000000001
  0
LINE
  8
_0-0_LAYER001
  6
CONTINUOUS
 62
    4
 10
1084.5179000000001
 20
1110.7334000000001
 11
1084.5179000000001
 21
1108.8702000000001
  0
LINE
  8
_0-0_LAYER001
  6
CONTINUOUS
 62
    4
 10
1084.5179000000001
 20
1108.8702000000001
 11
1084.5179000000001
 21
1107.606
  0
LINE
  8
_0-0_LAYER001
  6
CONTINUOUS
 62
    4
 10
1084.5179000000001
 20
1107.606
 11
1084.5179000000001
 21
1107.1402
  0
LINE
  8
_0-0_LAYER001
  6
CONTINUOUS
 62
    4
 10
1084.5179000000001
 20
1107.1402
 11
1085.6654000000001
 21
1107.1601000000001
  0
LINE
  8
_0-0_LAYER001
  6
CONTINUOUS
 62
    4
 10
1085.6654000000001
 20
1107.1601000000001
 11
1089.04
 21
1107.0645
  0
LINE
  8
_0-0_LAYER001
  6
CONTINUOUS
 62
    4
 10
1089.04
 20
1107.0645
 11
1094.54
 21
1106.6206
  0
LINE
  8
_0-0_LAYER001
  6
CONTINUOUS
 62
    4
 10
1094.54
 20
1106.6206
 11
1102.0635
 21
1105.5954999999999
  0
LINE
  8
_0-0_LAYER001
  6
CONTINUOUS
 62
    4
 10
1102.0635
 20
1105.5954999999999
 11
1111.5089
 21
1103.7562
  0
LINE
  8
_0-0_LAYER001
  6
CONTINUOUS
 62
    4
 10
1111.5089
 20
1103.7562
 11
1122.7743
 21
1100.8698999999999
  0
LINE
  8
_0-0_LAYER001
  6
CONTINUOUS
 62
    4
 10
1122.7743
 20
1100.8698999999999
 11
1135.758
 21
1096.7036000000001
  0
LINE
  8
_0-0_LAYER001
  6
CONTINUOUS
 62
    4
 10
1135.758
 20
1096.7036000000001
 11
1150.3583000000001
 21
1091.0246
  0
LINE
  8
_0-0_LAYER001
  6
CONTINUOUS
 62
    4
 10
1150.3583000000001
 20
1091.0246
 11
1166.4733000000001
 21
1083.5998
  0
LINE
  8
_0-0_LAYER001
  6
CONTINUOUS
 62
    4
 10
1166.4733000000001
 20
1083.5998
 11
1184.0012999999999
 21
1074.1965
  0
LINE
  8
_0-0_LAYER001
  6
CONTINUOUS
 62
    4
 10
1184.0012999999999
 20
1074.1965
 11
1184.0012999999999
 21
1074.9545000000001
  0
LINE
  8
_0-0_LAYER001
  6
CONTINUOUS
 62
    4
 10
1184.0012999999999
 20
1074.9545000000001
 11
1184.0012999999999
 21
1077.0120999999999
  0
LINE
  8
_0-0_LAYER001
  6
CONTINUOUS
 62
    4
 10
1184.0012999999999
 20
1077.0120999999999
 11
1184.0012999999999
 21
1080.0442
  0
LINE
  8
_0-0_LAYER001
  6
CONTINUOUS
 62
    4
 10
1184.0012999999999
 20
1080.0442
 11
1184.0012999999999
 21
1083.7262000000001
  0
LINE
  8
_0-0_LAYER001
  6
CONTINUOUS
 62
    4
 10
1184.0012999999999
 20
1083.7262000000001
 11
1184.0012999999999
 21
1087.7329999999999
  0
LINE
  8
_0-0_LAYER001
  6
CONTINUOUS
 62
    4
 10
1184.0012999999999
 20
1087.7329999999999
 11
1184.0012999999999
 21
1091.7397000000001
  0
LINE
  8
_0-0_LAYER001
  6
CONTINUOUS
 62
    4
 10
1184.0012999999999
 20
1091.7397000000001
 11
1184.0012999999999
 21
1095.4217000000001
  0
LINE
  8
_0-0_LAYER001
  6
CONTINUOUS
 62
    4
 10
1184.0012999999999
 20
1095.4217000000001
 11
1184.0012999999999
 21
1098.4538
  0
LINE
  8
_0-0_LAYER001
  6
CONTINUOUS
 62
    4
 10
1184.0012999999999
 20
1098.4538
 11
1184.0012999999999
 21
1100.5114000000001
  0
LINE
  8
_0-0_LAYER001
  6
CONTINUOUS
 62
    4
 10
1184.0012999999999
 20
1100.5114000000001
 11
1184.0012999999999
 21
1101.2693999999999
  0
LINE
  8
_0-0_LAYER001
  6
CONTINUOUS
 62
    4
 10
1184.0012999999999
 20
1101.2693999999999
 11
1182.3342
 21
1101.8556000000001
  0
LINE
  8
_0-0_LAYER001
  6
CONTINUOUS
 62
    4
 10
1182.3342
 20
1101.8556000000001
 11
1177.6316999999999
 21
1103.4535000000001
  0
LINE
  8
_0-0_LAYER001
  6
CONTINUOUS
 62
    4
 10
1177.6316999999999
 20
1103.4535000000001
 11
1170.3420000000001
 21
1105.8225
  0
LINE
  8
_0-0_LAYER001
  6
CONTINUOUS
 62
    4
 10
1170.3420000000001
 20
1105.8225
 11
1160.9132999999999
 21
1108.7218
  0
LINE
  8
_0-0_LAYER001
  6
CONTINUOUS
 62
    4
 10
1160.9132999999999
 20
1108.7218
 11
1149.7936
 21
1111.9108000000001
  0
LINE
  8
_0-0_LAYER001
  6
CONTINUOUS
 62
    4
 10
1149.7936
 20
1111.9108000000001
 11
1137.4313
 21
1115.1487
  0
LINE
  8
_0-0_LAYER001
  6
CONTINUOUS
 62
    4
 10
1137.4313
 20
1115.1487
 11
1124.2744
 21
1118.1948
  0
LINE
  8
_0-0_LAYER001
  6
CONTINUOUS
 62
    4
 10
1124.2744
 20
1118.1948
 11
1110.7710999999999
 21
1120.8083999999999
  0
LINE
  8
_0-0_LAYER001
  6
CONTINUOUS
 62
    4
 10
1110.7710999999999
 20
1120.8083999999999
 11
1097.3695
 21
1122.7488000000001
  0
LINE
  8
_0-0_LAYER001
  6
CONTINUOUS
 62
    4
 10
1084.5179000000001
 20
1123.7752
 11
1097.4819
 21
1122.7325000000001
  0
LINE
  8
_0-4_LAYER006
  6
CONTINUOUS
 62
    2
 10
1053.8565000000001
 20
1128.2197000000001
 11
1070.1862000000001
 21
1128.2197000000001
  0
LINE
  8
_0-4_LAYER006
  6
CONTINUOUS
 62
    2
 10
1083.8565000000001
 20
1125.7156
 11
1083.8565000000001
 21
1098.2197000000001
  0
LINE
  8
_0-4_LAYER006
  6
CONTINUOUS
 62
    2
 10
1083.8565000000001
 20
1098.2197000000001
 11
1053.8565000000001
 21
1098.2197000000001
  0
LINE
  8
_0-4_LAYER006
  6
CONTINUOUS
 62
    2
 10
1053.8565000000001
 20
1098.2197000000001
 11
1053.8565000000001
 21
1128.2197000000001
  0
LINE
  8
_0-4_LAYER006
  6
CONTINUOUS
 62
    2
 10
1053.8565000000001
 20
1128.2197000000001
 11
1083.8565000000001
 21
1098.2197000000001
  0
LINE
  8
_0-0_LAYER001
  6
CONTINUOUS
 62
    2
 10
1076.1935000000001
 20
1098.2197000000001
 11
1081.5463
 21
1091.2978000000001
  0
LINE
  8
_0-0_LAYER001
  6
CONTINUOUS
 62
    2
 10
1058.6624999999999
 20
1098.2197000000001
 11
1073.6624999999999
 21
983.56819999999993
  0
LINE
  8
_0-0_LAYER001
  6
CONTINUOUS
 62
    2
 10
1147.5866000000001
 20
1091.9315999999999
 11
1148.9684
 21
1082.3594000000001
  0
CIRCLE
  8
_0-3_LAYER005
  6
CONTINUOUS
 62
    2
 10
1143.7011
 20
1057.4621999999999
 40
1.1619999999999999
  0
CIRCLE
  8
_0-3_LAYER005
  6
CONTINUOUS
 62
    2
 10
1140.4141
 20
1061.5712000000001
 40
1.1619999999999999
  0
CIRCLE
  8
_0-3_LAYER005
  6
CONTINUOUS
 62
    2
 10
1131.6406999999999
 20
1062.0121999999999
 40
1.1619999999999999
  0
LINE
  8
_0-0_LAYER001
  6
CONTINUOUS
 62
    2
 10
965.11149999999998
 20
979.32220000000007
 11
992.61149999999998
 21
979.32220000000007
  0
CIRCLE
  8
_0-0_LAYER001
  6
CONTINUOUS
 62
    2
 10
967.61149999999998
 20
979.32220000000007
 40
1.6999999999999997
  0
LINE
  8
_0-0_LAYER001
  6
CONTINUOUS
 62
    2
 10
967.61149999999998
 20
979.32220000000007
 11
967.61149999999998
 21
1094.3222000000001
  0
CIRCLE
  8
_0-0_LAYER001
  6
CONTINUOUS
 62
    2
 10
967.61149999999998
 20
1094.3222000000001
 40
1.6999999999999997
  0
LINE
  8
_0-0_LAYER001
  6
CONTINUOUS
 62
    2
 10
965.11149999999998
 20
1094.3222000000001
 11
992.61149999999998
 21
1094.3222000000001
  0
LINE
  8
_0-0_LAYER001
  6
CONTINUOUS
 62
    2
 10
838.36819999999989
 20
979.32220000000007
 11
890.86819999999989
 21
979.32220000000007
  0
CIRCLE
  8
_0-0_LAYER001
  6
CONTINUOUS
 62
    2
 10
840.86819999999989
 20
979.32220000000007
 40
1.6999999999999997
  0
LINE
  8
_0-0_LAYER001
  6
CONTINUOUS
 62
    2
 10
840.86819999999989
 20
979.32220000000007
 11
840.86819999999989
 21
1144.3222000000001
  0
CIRCLE
  8
_0-0_LAYER001
  6
CONTINUOUS
 62
    2
 10
840.86819999999989
 20
1144.3222000000001
 40
1.6999999999999997
  0
LINE
  8
_0-0_LAYER001
  6
CONTINUOUS
 62
    2
 10
838.36819999999989
 20
1144.3222000000001
 11
890.86819999999989
 21
1144.3222000000001
  0
CIRCLE
  8
_0-0_LAYER001
  6
CONTINUOUS
 62
    2
 10
840.86819999999989
 20
1144.3222000000001
 40
1.6999999999999997
  0
LINE
  8
_0-0_LAYER001
  6
CONTINUOUS
 62
    2
 10
840.86819999999989
 20
1144.3222000000001
 11
840.86819999999989
 21
1294.3222000000001
  0
CIRCLE
  8
_0-0_LAYER001
  6
CONTINUOUS
 62
    2
 10
840.86819999999989
 20
1294.3222000000001
 40
1.6999999999999997
  0
LINE
  8
_0-0_LAYER001
  6
CONTINUOUS
 62
    2
 10
838.36819999999989
 20
1294.3222000000001
 11
890.86819999999989
 21
1294.3222000000001
  0
LINE
  8
_0-0_LAYER001
  6
CONTINUOUS
 62
    2
 10
1090.4448
 20
1264.6190999999999
 11
1085.1415
 21
1259.3158000000001
  0
LINE
  8
_0-0_LAYER001
  6
CONTINUOUS
 62
    2
 10
1085.1415
 20
1259.3158000000001
 11
1087.0826999999999
 21
1266.5603000000001
  0
LINE
  8
_0-0_LAYER001
  6
CONTINUOUS
 62
    2
 10
1085.1415
 20
1259.3158000000001
 11
1167.4173000000001
 21
1401.8217
  0
LINE
  8
_0-0_LAYER001
  6
CONTINUOUS
 62
    2
 10
1167.4173000000001
 20
1401.8217
 11
1339.9173000000001
 21
1401.8217
  0
LINE
  8
_0-0_LAYER001
  6
CONTINUOUS
 62
    2
 10
1064.71
 20
1193.511
 11
1066.6512
 21
1186.2665999999999
  0
LINE
  8
_0-0_LAYER001
  6
CONTINUOUS
 62
    2
 10
1066.6512
 20
1186.2665999999999
 11
1061.3479
 21
1191.5699
  0
LINE
  8
_0-0_LAYER001
  6
CONTINUOUS
 62
    2
 10
1066.6512
 20
1186.2665999999999
 11
1006.9541999999999
 21
1289.6648
  0
LINE
  8
_0-0_LAYER001
  6
CONTINUOUS
 62
    2
 10
1006.9541999999999
 20
1289.6648
 11
966.4541999999999
 21
1289.6648
  0
LINE
  8
_0-0_LAYER001
  6
CONTINUOUS
 62
    2
 10
1144.4105
 20
1108.5102999999999
 11
1139.1071999999999
 21
1103.2070000000001
  0
LINE
  8
_0-0_LAYER001
  6
CONTINUOUS
 62
    2
 10
1139.1071999999999
 20
1103.2070000000001
 11
1141.0482999999999
 21
1110.4514999999999
  0
LINE
  8
_0-0_LAYER001
  6
CONTINUOUS
 62
    2
 10
1139.1071999999999
 20
1103.2070000000001
 11
1224.4025999999999
 21
1250.943
  0
LINE
  8
_0-0_LAYER001
  6
CONTINUOUS
 62
    2
 10
1224.4025999999999
 20
1250.943
 11
1338.4025999999999
 21
1250.943
  0
LINE
  8
_0-0_LAYER001
  6
CONTINUOUS
 62
    2
 10
1136.713
 20
1139.3163999999999
 11
1131.4096999999999
 21
1134.0130999999999
  0
LINE
  8
_0-0_LAYER001
  6
CONTINUOUS
 62
    2
 10
1131.4096999999999
 20
1134.0130999999999
 11
1133.3508999999999
 21
1141.2575999999999
  0
LINE
  8
_0-0_LAYER001
  6
CONTINUOUS
 62
    2
 10
1131.4096999999999
 20
1134.0130999999999
 11
1226.8481999999999
 21
1299.3173999999999
  0
LINE
  8
_0-0_LAYER001
  6
CONTINUOUS
 62
    2
 10
1226.8481999999999
 20
1299.3173999999999
 11
1460.8481999999999
 21
1299.3173999999999
  0
LINE
  8
_0-0_LAYER001
  6
CONTINUOUS
 62
    2
 10
1063.6273000000001
 20
1002.4475
 11
1068.9305999999999
 21
1007.7508
  0
LINE
  8
_0-0_LAYER001
  6
CONTINUOUS
 62
    2
 10
1068.9305999999999
 20
1007.7508
 11
1066.9893999999999
 21
1000.5063
  0
LINE
  8
_0-0_LAYER001
  6
CONTINUOUS
 62
    2
 10
1068.9305999999999
 20
1007.7508
 11
994.39149999999995
 21
878.64529999999991
  0
LINE
  8
_0-0_LAYER001
  6
CONTINUOUS
 62
    2
 10
994.39149999999995
 20
878.64529999999991
 11
830.89149999999995
 21
878.64529999999991
  0
LINE
  8
_0-0_LAYER001
  6
CONTINUOUS
 62
    2
 10
1646.6543000000001
 20
1030.0573999999999
 11
1641.3510000000001
 21
1024.7541000000001
  0
LINE
  8
_0-0_LAYER001
  6
CONTINUOUS
 62
    2
 10
1641.3510000000001
 20
1024.7541000000001
 11
1643.2921000000001
 21
1031.9985999999999
  0
LINE
  8
_0-0_LAYER001
  6
CONTINUOUS
 62
    2
 10
1641.3510000000001
 20
1024.7541000000001
 11
1688.2420999999999
 21
1105.9718
  0
LINE
  8
_0-0_LAYER001
  6
CONTINUOUS
 62
    2
 10
1688.2420999999999
 20
1105.9718
 11
1728.7420999999999
 21
1105.9718
  0
LINE
  8
_0-0_LAYER001
  6
CONTINUOUS
 62
    2
 10
1088.8565000000001
 20
1230.5762
 11
1088.8565000000001
 21
1213.0762
  0
CIRCLE
  8
_0-0_LAYER001
  6
CONTINUOUS
 62
    2
 10
1088.8565000000001
 20
1228.0762
 40
1.6999999999999997
  0
LINE
  8
_0-0_LAYER001
  6
CONTINUOUS
 62
    2
 10
1088.8565000000001
 20
1228.0762
 11
1163.8565000000001
 21
1228.0762
  0
CIRCLE
  8
_0-0_LAYER001
  6
CONTINUOUS
 62
    2
 10
1163.8565000000001
 20
1228.0762
 40
1.6999999999999997
  0
LINE
  8
_0-0_LAYER001
  6
CONTINUOUS
 62
    2
 10
1163.8565000000001
 20
1230.5762
 11
1163.8565000000001
 21
1173.5577000000001
  0
LINE
  8
_0-0_LAYER001
  6
CONTINUOUS
 62
    2
 10
1090.9115999999999
 20
1123.5374999999999
 11
1090.9115999999999
 21
1106.1744000000001
  0
LINE
  8
_0-0_LAYER001
  6
CONTINUOUS
 62
    2
 10
1090.9115999999999
 20
1106.1744000000001
 11
1079.0568000000001
 21
1107.0126
  0
LINE
  8
_0-0_LAYER001
  6
CONTINUOUS
 62
    2
 10
1079.0568000000001
 20
1107.0126
 11
1079.0568000000001
 21
1124.6152
  0
LINE
  8
_0-0_LAYER001
  6
CONTINUOUS
 62
    2
 10
1079.0568000000001
 20
1124.6152
 11
1090.9115999999999
 21
1123.5374999999999
  0
LINE
  8
_0-0_LAYER001
  6
CONTINUOUS
 62
    2
 10
1082.0504000000001
 20
1103.1207999999999
 11
1077.979
 21
1099.289
  0
LINE
  8
_0-0_LAYER001
  6
CONTINUOUS
 62
    2
 10
1807.0509000000002
 20
710.5447999999999
 11
1978.7222999999999
 21
710.5447999999999
  0
LINE
  8
_0-0_LAYER001
  6
CONTINUOUS
 62
    2
 10
1789.6754000000001
 20
740.64010000000007
 11
2028.7667999999999
 21
740.64010000000007
  0
LINE
  8
_0-0_LAYER001
  6
CONTINUOUS
 62
    2
 10
1824.2944000000002
 20
680.67820000000006
 11
1892.1855
 21
680.67820000000006
  0
LINE
  8
_0-0_LAYER001
  6
CONTINUOUS
 62
    2
 10
1104.5451
 20
1139.7001
 11
1099.2418
 21
1134.3968
  0
LINE
  8
_0-0_LAYER001
  6
CONTINUOUS
 62
    2
 10
1099.2418
 20
1134.3968
 11
1101.1829
 21
1141.6413
  0
LINE
  8
_0-0_LAYER001
  6
CONTINUOUS
 62
    2
 10
1099.2418
 20
1134.3968
 11
1219.2265
 21
1342.2165
  0
LINE
  8
_0-0_LAYER001
  6
CONTINUOUS
 62
    2
 10
1219.2265
 20
1342.2165
 11
1366.2265
 21
1342.2165
  0
LINE
  8
_0-0_LAYER001
  6
CONTINUOUS
 62
    2
 10
1149.4736
 20
1073.3326999999999
 11
1144.1703
 21
1068.0293999999999
  0
LINE
  8
_0-0_LAYER001
  6
CONTINUOUS
 62
    2
 10
1144.1703
 20
1068.0293999999999
 11
1146.1114
 21
1075.2737999999999
  0
LINE
  8
_0-0_LAYER001
  6
CONTINUOUS
 62
    2
 10
1144.1703
 20
1068.0293999999999
 11
1228.1523
 21
1213.4905000000001
  0
LINE
  8
_0-0_LAYER001
  6
CONTINUOUS
 62
    2
 10
1228.1523
 20
1213.4905000000001
 11
1289.5438999999999
 21
1213.4905000000001
  0
LINE
  8
_0-0_LAYER001
  6
CONTINUOUS
 62
    2
 10
1644.9953999999998
 20
987.35100000000011
 11
1643.0542
 21
994.59539999999993
  0
LINE
  8
_0-0_LAYER001
  6
CONTINUOUS
 62
    2
 10
1643.0542
 20
994.59539999999993
 11
1648.3575000000001
 21
989.29209999999989
  0
LINE
  8
_0-0_LAYER001
  6
CONTINUOUS
 62
    2
 10
1643.0542
 20
994.59539999999993
 11
1824.2944000000002
 21
680.67820000000006
  0
LINE
  8
_0-0_LAYER001
  6
CONTINUOUS
 62
    2
 10
1772.3658999999998
 20
770.62100000000009
 11
1961.3645999999999
 21
770.62100000000009
  0
LINE
  8
_0-0_LAYER001
  6
CONTINUOUS
 62
    2
 10
1296.4242999999999
 20
1182.0054
 11
1296.4242999999999
 21
1129.5054
  0
CIRCLE
  8
_0-0_LAYER001
  6
CONTINUOUS
 62
    2
 10
1296.4242999999999
 20
1179.5054
 40
1.6999999999999997
  0
LINE
  8
_0-0_LAYER001
  6
CONTINUOUS
 62
    2
 10
1296.4242999999999
 20
1179.5054
 11
1551.7073999999998
 21
1179.5054
  0
CIRCLE
  8
_0-0_LAYER001
  6
CONTINUOUS
 62
    2
 10
1551.7073999999998
 20
1179.5054
 40
1.6999999999999997
  0
LINE
  8
_0-0_LAYER001
  6
CONTINUOUS
 62
    2
 10
1551.7073999999998
 20
1182.0054
 11
1551.7073999999998
 21
1129.5054
  0
CIRCLE
  8
_0-0_LAYER001
  6
CONTINUOUS
 62
    2
 10
1551.7073999999998
 20
1179.5054
 40
1.6999999999999997
  0
LINE
  8
_0-0_LAYER001
  6
CONTINUOUS
 62
    2
 10
1551.7073999999998
 20
1179.5054
 11
1806.7073999999998
 21
1179.5054
  0
CIRCLE
  8
_0-0_LAYER001
  6
CONTINUOUS
 62
    2
 10
1806.7073999999998
 20
1179.5054
 40
1.6999999999999997
  0
LINE
  8
_0-0_LAYER001
  6
CONTINUOUS
 62
    2
 10
1806.7073999999998
 20
1182.0054
 11
1806.7073999999998
 21
1129.5054
  0
CIRCLE
  8
_0-0_LAYER001
  6
CONTINUOUS
 62
    2
 10
1806.7073999999998
 20
1179.5054
 40
1.6999999999999997
  0
LINE
  8
_0-0_LAYER001
  6
CONTINUOUS
 62
    2
 10
1806.7073999999998
 20
1179.5054
 11
2061.7073999999998
 21
1179.5054
  0
CIRCLE
  8
_0-0_LAYER001
  6
CONTINUOUS
 62
    2
 10
2061.7073999999998
 20
1179.5054
 40
1.6999999999999997
  0
LINE
  8
_0-0_LAYER001
  6
CONTINUOUS
 62
    2
 10
2061.7073999999998
 20
1182.0054
 11
2061.7073999999998
 21
1129.5054
  0
ARC
  8
_0-0_LAYER001
  6
CONTINUOUS
 62
    4
 10
1224.605
 20
1213.6119000000001
 40
214.38050999999999
 50
231.7756
 51
268.38173
  0
ARC
  8
_0-0_LAYER001
  6
CONTINUOUS
 62
    4
 10
1279.0743
 20
1030.1094000000001
 40
52.178303999999997
 50
215.53766999999999
 51
234.46232000000001
  0
ARC
  8
_0-0_LAYER001
  6
CONTINUOUS
 62
    4
 10
1252.7455
 20
992.40560000000005
 40
6.2695089999999993
 50
234.10575000000003
 51
303.29033000000004
  0
ARC
  8
_0-0_LAYER001
  6
CONTINUOUS
 62
    4
 10
1221.2847999999999
 20
1036.4115999999999
 40
58.841383
 50
213.2508
 51
234.31144
  0
ARC
  8
_0-0_LAYER001
  6
CONTINUOUS
 62
    4
 10
1191.4091000000001
 20
995.25430000000006
 40
7.947610000000001
 50
234.52014000000003
 51
301.23766000000001
  0
ARC
  8
_0-0_LAYER001
  6
CONTINUOUS
 62
    4
 10
1174.9076
 20
1027.7236
 40
44.132803000000003
 50
297.62160999999998
 51
318.23129999999998
  0
ARC
  8
_0-0_LAYER001
  6
CONTINUOUS
 62
    4
 10
1224.605
 20
1213.6119000000001
 40
199.38050999999999
 50
231.7756
 51
268.38173
  0
ARC
  8
_0-0_LAYER001
  6
CONTINUOUS
 62
    4
 10
1224.605
 20
1213.6119000000001
 40
199.38050999999999
 50
231.7756
 51
268.38173
  0
ARC
  8
_0-0_LAYER001
  6
CONTINUOUS
 62
    4
 10
1224.605
 20
1213.6119000000001
 40
197.38050999999999
 50
231.7756
 51
268.38173
  0
ARC
  8
_0-0_LAYER001
  6
CONTINUOUS
 62
    4
 10
1224.605
 20
1213.6119000000001
 40
182.38050999999999
 50
231.7756
 51
268.38173
  0
ARC
  8
_0-0_LAYER001
  6
CONTINUOUS
 62
    4
 10
1224.605
 20
1213.6119000000001
 40
214.38050999999999
 50
231.7756
 51
268.38173
  0
ARC
  8
_0-0_LAYER001
  6
CONTINUOUS
 62
    4
 10
1201.2165
 20
1030.2266999999999
 40
69.674484000000007
 50
321.65733
 51
337.34946000000002
  0
ARC
  8
_0-0_LAYER001
  6
CONTINUOUS
 62
    4
 10
1215.0614
 20
1306.4991
 40
307.27562
 50
270.90795000000003
 51
293.21983
  0
ARC
  8
_0-0_LAYER001
  6
CONTINUOUS
 62
    4
 10
1215.0614
 20
1306.4991
 40
275.27562
 50
270.90795000000003
 51
287.11988000000002
  0
ARC
  8
_0-0_LAYER001
  6
CONTINUOUS
 62
    4
 10
1215.0614
 20
1306.4991
 40
292.27562
 50
270.90795000000003
 51
292.69346000000002
  0
LINE
  8
_0-0_LAYER001
  6
CONTINUOUS
 62
    4
 10
1327.8216
 20
1039.2756999999999
 11
1327.8216
 21
1036.8508999999999
  0
LINE
  8
_0-0_LAYER001
  6
CONTINUOUS
 62
    4
 10
1336.2078999999999
 20
1024.1132
 11
1336.2078999999999
 21
1042.4204999999999
  0
LINE
  8
_0-0_LAYER001
  6
CONTINUOUS
 62
    4
 10
1327.8216
 20
1039.2756999999999
 11
1336.2078999999999
 21
1042.4204999999999
  0
ARC
  8
_0-0_LAYER001
  6
CONTINUOUS
 62
    4
 10
1215.0614
 20
1306.4991
 40
290.27562
 50
270.90795000000003
 51
286.23334
  0
LINE
  8
_0-0_LAYER001
  6
CONTINUOUS
 62
    4
 10
1296.2078999999999
 20
1027.7964999999999
 11
1296.2078999999999
 21
1043.4556
  0
ARC
  8
_0-0_LAYER001
  6
CONTINUOUS
 62
    4
 10
1479.3598000000002
 20
1211.9736
 40
214.38050999999999
 50
231.7756
 51
268.38173
  0
LINE
  8
_0-0_LAYER001
  6
CONTINUOUS
 62
    4
 10
1299.9681
 20
1027.5682999999999
 11
1336.1581000000001
 21
1043.7246
  0
ARC
  8
_0-0_LAYER001
  6
CONTINUOUS
 62
    4
 10
1533.8290000000002
 20
1028.4711
 40
52.178303999999997
 50
215.53766999999999
 51
234.46232000000001
  0
ARC
  8
_0-0_LAYER001
  6
CONTINUOUS
 62
    4
 10
1507.5001999999999
 20
990.76729999999998
 40
6.2695089999999993
 50
234.10575000000003
 51
303.29033000000004
  0
ARC
  8
_0-0_LAYER001
  6
CONTINUOUS
 62
    4
 10
1476.0394999999999
 20
1034.7733000000001
 40
58.841383
 50
213.2508
 51
234.31144
  0
ARC
  8
_0-0_LAYER001
  6
CONTINUOUS
 62
    4
 10
1446.1637999999998
 20
993.61599999999999
 40
7.947610000000001
 50
234.52014000000003
 51
301.23766000000001
  0
ARC
  8
_0-0_LAYER001
  6
CONTINUOUS
 62
    4
 10
1429.6623
 20
1026.0853
 40
44.132803000000003
 50
297.62160999999998
 51
318.23129999999998
  0
LINE
  8
_0-0_LAYER001
  6
CONTINUOUS
 62
    4
 10
1299.9681
 20
1026.1485
 11
1295.9627
 21
1024.2664
  0
LINE
  8
_0-0_LAYER001
  6
CONTINUOUS
 62
    4
 10
1299.9681
 20
1027.5682999999999
 11
1299.9681
 21
1026.1485
  0
LINE
  8
_0-0_LAYER001
  6
CONTINUOUS
 62
    4
 10
1299.4426000000001
 20
1044.3123000000001
 11
1296.0796
 21
1042.9861000000001
  0
LINE
  8
_0-0_LAYER001
  6
CONTINUOUS
 62
    4
 10
1299.4426000000001
 20
1045.8009999999999
 11
1299.4426000000001
 21
1044.3123000000001
  0
ARC
  8
_0-0_LAYER001
  6
CONTINUOUS
 62
    4
 10
1479.3598000000002
 20
1211.9736
 40
199.38050999999999
 50
231.7756
 51
268.38173
  0
ARC
  8
_0-0_LAYER001
  6
CONTINUOUS
 62
    4
 10
1479.3598000000002
 20
1211.9736
 40
199.38050999999999
 50
231.7756
 51
268.38173
  0
ARC
  8
_0-0_LAYER001
  6
CONTINUOUS
 62
    4
 10
1479.3598000000002
 20
1211.9736
 40
197.38050999999999
 50
231.7756
 51
268.38173
  0
LINE
  8
_0-0_LAYER001
  6
CONTINUOUS
 62
    4
 10
1299.6976
 20
1046.0254
 11
1329.9775
 21
1060.0727999999999
  0
LINE
  8
_0-0_LAYER001
  6
CONTINUOUS
 62
    4
 10
1331.2262000000001
 20
1058.5119999999999
 11
1296.5759
 21
1042.9038
  0
ARC
  8
_0-0_LAYER001
  6
CONTINUOUS
 62
    4
 10
1479.3598000000002
 20
1211.9736
 40
182.38050999999999
 50
231.7756
 51
268.38173
  0
LINE
  8
_0-0_LAYER001
  6
CONTINUOUS
 62
    4
 10
1295.9627
 20
1024.2664
 11
1295.9627
 21
1060.8282999999999
  0
LINE
  8
_0-0_LAYER001
  6
CONTINUOUS
 62
    4
 10
1295.9627
 20
1060.8282999999999
 11
1323.665
 21
1073.6799000000001
  0
ARC
  8
_0-0_LAYER001
  6
CONTINUOUS
 62
    4
 10
1479.3598000000002
 20
1211.9736
 40
214.38050999999999
 50
231.7756
 51
268.38173
  0
ARC
  8
_0-0_LAYER001
  6
CONTINUOUS
 62
    4
 10
1340.7737999999999
 20
1034.5806
 40
27.732966999999999
 50
54.176177000000003
 51
112.93031000000001
  0
ARC
  8
_0-0_LAYER001
  6
CONTINUOUS
 62
    4
 10
1341.1216999999999
 20
1036.854
 40
40.679594999999999
 50
51.535313000000002
 51
115.27963000000001
  0
ARC
  8
_0-0_LAYER001
  6
CONTINUOUS
 62
    4
 10
1340.7602999999999
 20
1034.0826999999999
 40
26.213477999999995
 50
54.56426900000001
 51
111.2666
  0
ARC
  8
_0-0_LAYER001
  6
CONTINUOUS
 62
    4
 10
1341.2710999999999
 20
1031.6213
 40
13.076713
 50
65.553432000000001
 51
112.83269999999999
  0
ARC
  8
_0-0_LAYER001
  6
CONTINUOUS
 62
    4
 10
1455.9712
 20
1028.5884000000001
 40
69.674484000000007
 50
321.65733
 51
337.34946000000002
  0
ARC
  8
_0-0_LAYER001
  6
CONTINUOUS
 62
    4
 10
1469.8162000000002
 20
1304.8607999999999
 40
307.27562
 50
270.90795000000003
 51
293.21983
  0
ARC
  8
_0-0_LAYER001
  6
CONTINUOUS
 62
    4
 10
1469.8162000000002
 20
1304.8607999999999
 40
275.27562
 50
270.90795000000003
 51
287.11988000000002
  0
ARC
  8
_0-0_LAYER001
  6
CONTINUOUS
 62
    4
 10
1469.8162000000002
 20
1304.8607999999999
 40
292.27562
 50
270.90795000000003
 51
292.69346000000002
  0
LINE
  8
_0-0_LAYER001
  6
CONTINUOUS
 62
    4
 10
1582.5763999999999
 20
1037.6374000000001
 11
1582.5763999999999
 21
1035.2127
  0
LINE
  8
_0-0_LAYER001
  6
CONTINUOUS
 62
    4
 10
1590.9627
 20
1022.4749999999999
 11
1590.9627
 21
1040.7822000000001
  0
LINE
  8
_0-0_LAYER001
  6
CONTINUOUS
 62
    4
 10
1582.5763999999999
 20
1037.6374000000001
 11
1590.9627
 21
1040.7822000000001
  0
ARC
  8
_0-0_LAYER001
  6
CONTINUOUS
 62
    4
 10
1469.8162000000002
 20
1304.8607999999999
 40
290.27562
 50
270.90795000000003
 51
286.23334
  0
ARC
  8
_0-0_LAYER001
  6
CONTINUOUS
 62
    4
 10
1734.9337
 20
1211.9736
 40
214.38050999999999
 50
231.7756
 51
268.38173
  0
LINE
  8
_0-0_LAYER001
  6
CONTINUOUS
 62
    4
 10
1555.5421000000001
 20
1027.5682999999999
 11
1591.7321000000002
 21
1043.7246
  0
ARC
  8
_0-0_LAYER001
  6
CONTINUOUS
 62
    4
 10
1789.4029
 20
1028.4711
 40
52.178303999999997
 50
215.53766999999999
 51
234.46232000000001
  0
ARC
  8
_0-0_LAYER001
  6
CONTINUOUS
 62
    4
 10
1763.0742
 20
990.76729999999998
 40
6.2695089999999993
 50
234.10575000000003
 51
303.29033000000004
  0
ARC
  8
_0-0_LAYER001
  6
CONTINUOUS
 62
    4
 10
1731.6134000000002
 20
1034.7733000000001
 40
58.841383
 50
213.2508
 51
234.31144
  0
ARC
  8
_0-0_LAYER001
  6
CONTINUOUS
 62
    4
 10
1701.7377999999999
 20
993.61599999999999
 40
7.947610000000001
 50
234.52014000000003
 51
301.23766000000001
  0
ARC
  8
_0-0_LAYER001
  6
CONTINUOUS
 62
    4
 10
1685.2363
 20
1026.0853
 40
44.132803000000003
 50
297.62160999999998
 51
318.23129999999998
  0
LINE
  8
_0-0_LAYER001
  6
CONTINUOUS
 62
    4
 10
1555.5421000000001
 20
1026.1485
 11
1551.5365999999999
 21
1024.2664
  0
LINE
  8
_0-0_LAYER001
  6
CONTINUOUS
 62
    4
 10
1555.5421000000001
 20
1027.5682999999999
 11
1555.5421000000001
 21
1026.1485
  0
LINE
  8
_0-0_LAYER001
  6
CONTINUOUS
 62
    4
 10
1555.0165000000002
 20
1044.3123000000001
 11
1551.6536000000001
 21
1042.9861000000001
  0
LINE
  8
_0-0_LAYER001
  6
CONTINUOUS
 62
    4
 10
1555.0165000000002
 20
1045.8009999999999
 11
1555.0165000000002
 21
1044.3123000000001
  0
ARC
  8
_0-0_LAYER001
  6
CONTINUOUS
 62
    4
 10
1734.9337
 20
1211.9736
 40
199.38050999999999
 50
231.7756
 51
268.38173
  0
ARC
  8
_0-0_LAYER001
  6
CONTINUOUS
 62
    4
 10
1734.9337
 20
1211.9736
 40
199.38050999999999
 50
231.7756
 51
268.38173
  0
ARC
  8
_0-0_LAYER001
  6
CONTINUOUS
 62
    4
 10
1734.9337
 20
1211.9736
 40
197.38050999999999
 50
231.7756
 51
268.38173
  0
LINE
  8
_0-0_LAYER001
  6
CONTINUOUS
 62
    4
 10
1555.2714999999998
 20
1046.0254
 11
1585.5515
 21
1060.0727999999999
  0
LINE
  8
_0-0_LAYER001
  6
CONTINUOUS
 62
    4
 10
1586.8000999999999
 20
1058.5119999999999
 11
1552.1498999999999
 21
1042.9038
  0
ARC
  8
_0-0_LAYER001
  6
CONTINUOUS
 62
    4
 10
1734.9337
 20
1211.9736
 40
182.38050999999999
 50
231.7756
 51
268.38173
  0
LINE
  8
_0-0_LAYER001
  6
CONTINUOUS
 62
    4
 10
1551.5365999999999
 20
1024.2664
 11
1551.5365999999999
 21
1060.8282999999999
  0
LINE
  8
_0-0_LAYER001
  6
CONTINUOUS
 62
    4
 10
1551.5365999999999
 20
1060.8282999999999
 11
1579.2388999999998
 21
1073.6799000000001
  0
ARC
  8
_0-0_LAYER001
  6
CONTINUOUS
 62
    4
 10
1734.9337
 20
1211.9736
 40
214.38050999999999
 50
231.7756
 51
268.38173
  0
ARC
  8
_0-0_LAYER001
  6
CONTINUOUS
 62
    4
 10
1596.3478
 20
1034.5806
 40
27.732966999999999
 50
54.176177000000003
 51
112.93031000000001
  0
ARC
  8
_0-0_LAYER001
  6
CONTINUOUS
 62
    4
 10
1596.6957000000002
 20
1036.854
 40
40.679594999999999
 50
51.535313000000002
 51
115.27963000000001
  0
ARC
  8
_0-0_LAYER001
  6
CONTINUOUS
 62
    4
 10
1596.3341999999998
 20
1034.0826999999999
 40
26.213477999999995
 50
54.56426900000001
 51
111.2666
  0
ARC
  8
_0-0_LAYER001
  6
CONTINUOUS
 62
    4
 10
1596.8449999999998
 20
1031.6213
 40
13.076713
 50
65.553432000000001
 51
112.83269999999999
  0
ARC
  8
_0-0_LAYER001
  6
CONTINUOUS
 62
    4
 10
1711.5452
 20
1028.5884000000001
 40
69.674484000000007
 50
321.65733
 51
337.34946000000002
  0
ARC
  8
_0-0_LAYER001
  6
CONTINUOUS
 62
    4
 10
1725.3901000000001
 20
1304.8607999999999
 40
307.27562
 50
270.90795000000003
 51
293.21983
  0
ARC
  8
_0-0_LAYER001
  6
CONTINUOUS
 62
    4
 10
1725.3901000000001
 20
1304.8607999999999
 40
275.27562
 50
270.90795000000003
 51
287.11988000000002
  0
ARC
  8
_0-0_LAYER001
  6
CONTINUOUS
 62
    4
 10
1725.3901000000001
 20
1304.8607999999999
 40
292.27562
 50
270.90795000000003
 51
292.69346000000002
  0
LINE
  8
_0-0_LAYER001
  6
CONTINUOUS
 62
    4
 10
1838.1502999999998
 20
1037.6374000000001
 11
1838.1502999999998
 21
1035.2127
  0
LINE
  8
_0-0_LAYER001
  6
CONTINUOUS
 62
    4
 10
1846.5365999999999
 20
1022.4749999999999
 11
1846.5365999999999
 21
1040.7822000000001
  0
LINE
  8
_0-0_LAYER001
  6
CONTINUOUS
 62
    4
 10
1838.1502999999998
 20
1037.6374000000001
 11
1846.5365999999999
 21
1040.7822000000001
  0
ARC
  8
_0-0_LAYER001
  6
CONTINUOUS
 62
    4
 10
1725.3901000000001
 20
1304.8607999999999
 40
290.27562
 50
270.90795000000003
 51
286.23334
  0
LINE
  8
_0-0_LAYER001
  6
CONTINUOUS
 62
    4
 10
1806.5365999999999
 20
1026.1582000000001
 11
1806.5365999999999
 21
1041.8173999999999
  0
ARC
  8
_0-0_LAYER001
  6
CONTINUOUS
 62
    4
 10
1989.8206
 20
1211.5771999999999
 40
214.38050999999999
 50
231.7756
 51
268.38173
  0
LINE
  8
_0-0_LAYER001
  6
CONTINUOUS
 62
    4
 10
1810.4290000000001
 20
1027.172
 11
1846.6190000000001
 21
1043.3281999999999
  0
ARC
  8
_0-0_LAYER001
  6
CONTINUOUS
 62
    4
 10
2044.2898
 20
1028.0746999999999
 40
52.178303999999997
 50
215.53766999999999
 51
234.46232000000001
  0
ARC
  8
_0-0_LAYER001
  6
CONTINUOUS
 62
    4
 10
2017.9611
 20
990.37089999999989
 40
6.2695089999999993
 50
234.10575000000003
 51
303.29033000000004
  0
ARC
  8
_0-0_LAYER001
  6
CONTINUOUS
 62
    4
 10
1986.5003999999999
 20
1034.377
 40
58.841383
 50
213.2508
 51
234.31144
  0
ARC
  8
_0-0_LAYER001
  6
CONTINUOUS
 62
    4
 10
1956.6246999999998
 20
993.2197000000001
 40
7.947610000000001
 50
234.52014000000003
 51
301.23766000000001
  0
ARC
  8
_0-0_LAYER001
  6
CONTINUOUS
 62
    4
 10
1940.1232
 20
1025.6889000000001
 40
44.132803000000003
 50
297.62160999999998
 51
318.23129999999998
  0
LINE
  8
_0-0_LAYER001
  6
CONTINUOUS
 62
    4
 10
1810.4290000000001
 20
1025.7520999999999
 11
1806.4236000000001
 21
1023.8701000000001
  0
LINE
  8
_0-0_LAYER001
  6
CONTINUOUS
 62
    4
 10
1810.4290000000001
 20
1027.172
 11
1810.4290000000001
 21
1025.7520999999999
  0
LINE
  8
_0-0_LAYER001
  6
CONTINUOUS
 62
    4
 10
1809.9034000000001
 20
1043.9159
 11
1806.5405000000001
 21
1042.5897
  0
LINE
  8
_0-0_LAYER001
  6
CONTINUOUS
 62
    4
 10
1809.9034000000001
 20
1045.4046000000001
 11
1809.9034000000001
 21
1043.9159
  0
ARC
  8
_0-0_LAYER001
  6
CONTINUOUS
 62
    4
 10
1989.8206
 20
1211.5771999999999
 40
199.38050999999999
 50
231.7756
 51
268.38173
  0
ARC
  8
_0-0_LAYER001
  6
CONTINUOUS
 62
    4
 10
1989.8206
 20
1211.5771999999999
 40
199.38050999999999
 50
231.7756
 51
268.38173
  0
ARC
  8
_0-0_LAYER001
  6
CONTINUOUS
 62
    4
 10
1989.8206
 20
1211.5771999999999
 40
197.38050999999999
 50
231.7756
 51
268.38173
  0
LINE
  8
_0-0_LAYER001
  6
CONTINUOUS
 62
    4
 10
1810.1583999999998
 20
1045.6291000000001
 11
1840.4384
 21
1059.6764000000001
  0
LINE
  8
_0-0_LAYER001
  6
CONTINUOUS
 62
    4
 10
1841.6869999999999
 20
1058.1156000000001
 11
1807.0367999999999
 21
1042.5074
  0
ARC
  8
_0-0_LAYER001
  6
CONTINUOUS
 62
    4
 10
1989.8206
 20
1211.5771999999999
 40
182.38050999999999
 50
231.7756
 51
268.38173
  0
LINE
  8
_0-0_LAYER001
  6
CONTINUOUS
 62
    4
 10
1806.4236000000001
 20
1023.8701000000001
 11
1806.4236000000001
 21
1060.4319
  0
LINE
  8
_0-0_LAYER001
  6
CONTINUOUS
 62
    4
 10
1806.4236000000001
 20
1060.4319
 11
1834.1257999999998
 21
1073.2835
  0
ARC
  8
_0-0_LAYER001
  6
CONTINUOUS
 62
    4
 10
1989.8206
 20
1211.5771999999999
 40
214.38050999999999
 50
231.7756
 51
268.38173
  0
ARC
  8
_0-0_LAYER001
  6
CONTINUOUS
 62
    4
 10
1851.2347
 20
1034.1842999999999
 40
27.732966999999999
 50
54.176177000000003
 51
112.93031000000001
  0
ARC
  8
_0-0_LAYER001
  6
CONTINUOUS
 62
    4
 10
1851.5826000000002
 20
1036.4576
 40
40.679594999999999
 50
51.535313000000002
 51
115.27963000000001
  0
ARC
  8
_0-0_LAYER001
  6
CONTINUOUS
 62
    4
 10
1851.2212
 20
1033.6864
 40
26.213477999999995
 50
54.56426900000001
 51
111.2666
  0
ARC
  8
_0-0_LAYER001
  6
CONTINUOUS
 62
    4
 10
1851.732
 20
1031.2249999999999
 40
13.076713
 50
65.553432000000001
 51
112.83269999999999
  0
ARC
  8
_0-0_LAYER001
  6
CONTINUOUS
 62
    4
 10
1966.4321
 20
1028.192
 40
69.674484000000007
 50
321.65733
 51
337.34946000000002
  0
ARC
  8
_0-0_LAYER001
  6
CONTINUOUS
 62
    4
 10
1980.277
 20
1304.4645
 40
307.27562
 50
270.90795000000003
 51
293.21983
  0
ARC
  8
_0-0_LAYER001
  6
CONTINUOUS
 62
    4
 10
1980.277
 20
1304.4645
 40
275.27562
 50
270.90795000000003
 51
287.11988000000002
  0
ARC
  8
_0-0_LAYER001
  6
CONTINUOUS
 62
    4
 10
1980.277
 20
1304.4645
 40
292.27562
 50
270.90795000000003
 51
292.69346000000002
  0
ARC
  8
_0-0_LAYER001
  6
CONTINUOUS
 62
    4
 10
1980.277
 20
1304.4645
 40
290.27562
 50
270.90795000000003
 51
286.23334
  0
ARC
  8
_0-0_LAYER001
  6
CONTINUOUS
 62
    4
 10
2244.4564999999998
 20
1214.0135
 40
214.38050999999999
 50
231.7756
 51
248.64562000000001
  0
LINE
  8
_0-0_LAYER001
  6
CONTINUOUS
 62
    4
 10
2065.0648000000001
 20
1029.6083000000001
 11
2101.2548000000002
 21
1045.7645
  0
LINE
  8
_0-0_LAYER001
  6
CONTINUOUS
 62
    4
 10
2065.0648000000001
 20
1028.1884
 11
2061.0594000000001
 21
1026.3063999999999
  0
LINE
  8
_0-0_LAYER001
  6
CONTINUOUS
 62
    4
 10
2065.0648000000001
 20
1029.6083000000001
 11
2065.0648000000001
 21
1028.1884
  0
LINE
  8
_0-0_LAYER001
  6
CONTINUOUS
 62
    4
 10
2064.5392999999999
 20
1046.3522
 11
2061.1763000000001
 21
1045.0260000000001
  0
LINE
  8
_0-0_LAYER001
  6
CONTINUOUS
 62
    4
 10
2064.5392999999999
 20
1047.8408999999999
 11
2064.5392999999999
 21
1046.3522
  0
ARC
  8
_0-0_LAYER001
  6
CONTINUOUS
 62
    4
 10
2244.4564999999998
 20
1214.0135
 40
199.38050999999999
 50
231.7756
 51
246.95024000000001
  0
ARC
  8
_0-0_LAYER001
  6
CONTINUOUS
 62
    4
 10
2244.4564999999998
 20
1214.0135
 40
199.38050999999999
 50
231.7756
 51
246.95024000000001
  0
ARC
  8
_0-0_LAYER001
  6
CONTINUOUS
 62
    4
 10
2244.4564999999998
 20
1214.0135
 40
197.38050999999999
 50
231.7756
 51
246.70299
  0
LINE
  8
_0-0_LAYER001
  6
CONTINUOUS
 62
    4
 10
2064.7943
 20
1048.0653
 11
2095.0742
 21
1062.1126999999999
  0
LINE
  8
_0-0_LAYER001
  6
CONTINUOUS
 62
    4
 10
2096.3229000000001
 20
1060.5518999999999
 11
2061.6725999999999
 21
1044.9437
  0
ARC
  8
_0-0_LAYER001
  6
CONTINUOUS
 62
    4
 10
2244.4564999999998
 20
1214.0135
 40
182.38050999999999
 50
231.7756
 51
244.65767999999997
  0
LINE
  8
_0-0_LAYER001
  6
CONTINUOUS
 62
    4
 10
2061.0594000000001
 20
1026.3063999999999
 11
2061.0594000000001
 21
1062.8681999999999
  0
LINE
  8
_0-0_LAYER001
  6
CONTINUOUS
 62
    4
 10
2061.0594000000001
 20
1062.8681999999999
 11
2088.7617
 21
1075.7198000000001
  0
ARC
  8
_0-0_LAYER001
  6
CONTINUOUS
 62
    4
 10
2244.4564999999998
 20
1214.0135
 40
214.38050999999999
 50
231.7756
 51
248.64562000000001
  0
ARC
  8
_0-0_LAYER001
  6
CONTINUOUS
 62
    4
 10
2105.8705
 20
1036.6205
 40
27.732966999999999
 50
54.176177000000003
 51
112.93031000000001
  0
ARC
  8
_0-0_LAYER001
  6
CONTINUOUS
 62
    4
 10
2106.2184000000002
 20
1038.8939
 40
40.679594999999999
 50
51.535313000000002
 51
115.27963000000001
  0
ARC
  8
_0-0_LAYER001
  6
CONTINUOUS
 62
    4
 10
2105.857
 20
1036.1226999999999
 40
26.213477999999995
 50
54.56426900000001
 51
111.2666
  0
ARC
  8
_0-0_LAYER001
  6
CONTINUOUS
 62
    4
 10
2106.3678
 20
1033.6613
 40
13.076713
 50
65.553432000000001
 51
112.83269999999999
  0
LINE
  8
_0-0_LAYER001
  6
CONTINUOUS
 62
    4
 10
2093.1741999999999
 20
1037.3016
 11
2093.1741999999999
 21
1035.1165000000001
  0
LINE
  8
_0-0_LAYER001
  6
CONTINUOUS
 62
    4
 10
2093.1741999999999
 20
1037.9259999999999
 11
2093.1741999999999
 21
1035.1165000000001
  0
LINE
  8
_0-0_LAYER001
  6
CONTINUOUS
 62
    4
 10
2093.1741999999999
 20
1038.2381
 11
2101.2905000000001
 21
1041.3598
  0
LINE
  8
_0-0_LAYER001
  6
CONTINUOUS
 62
    4
 10
2101.2905000000001
 20
1022.6298999999999
 11
2101.2905000000001
 21
1041.3598
  0
ARC
  8
_0-0_LAYER001
  6
CONTINUOUS
 62
    4
 10
1086.5164
 20
1033.2596000000001
 40
13.076713
 50
65.553432000000001
 51
117.42375
  0
ARC
  8
_0-0_LAYER001
  6
CONTINUOUS
 62
    4
 10
1086.367
 20
1038.4922999999999
 40
40.679594999999999
 50
51.535313000000002
 51
98.827657000000002
  0
ARC
  8
_0-0_LAYER001
  6
CONTINUOUS
 62
    4
 10
1086.0191
 20
1036.2189000000001
 40
27.732966999999999
 50
54.176177000000003
 51
102.20569
  0
ARC
  8
_0-0_LAYER001
  6
CONTINUOUS
 62
    4
 10
1086.0056
 20
1035.721
 40
26.213477999999995
 50
54.56426900000001
 51
102.77263000000001
  0
LINE
  8
_0-0_LAYER001
  6
CONTINUOUS
 62
    4
 10
1080.4937
 20
1078.4781
 11
1080.4937
 21
1049.1872000000001
  0
LINE
  8
_0-0_LAYER001
  6
CONTINUOUS
 62
    4
 10
1080.4937
 20
1049.1872000000001
 11
1080.4937
 21
1044.8668
  0
LINE
  8
_0-0_LAYER001
  6
CONTINUOUS
 62
    4
 10
1080.0432000000001
 20
1044.7556999999999
 11
1081.4033999999999
 21
1045.3629000000001
  0
LINE
  8
_0-0_LAYER001
  6
CONTINUOUS
 62
    4
 10
1096.1575
 20
1094.4985999999999
 11
1096.1424
 21
1094.0331000000001
  0
LINE
  8
_0-0_LAYER001
  6
CONTINUOUS
 62
    4
 10
1096.1424
 20
1094.0331000000001
 11
1096.1016999999999
 21
1092.7695000000001
  0
LINE
  8
_0-0_LAYER001
  6
CONTINUOUS
 62
    4
 10
1096.1016999999999
 20
1092.7695000000001
 11
1096.0416
 21
1090.9073000000001
  0
LINE
  8
_0-0_LAYER001
  6
CONTINUOUS
 62
    4
 10
1096.0416
 20
1090.9073000000001
 11
1095.9685999999999
 21
1088.6460999999999
  0
LINE
  8
_0-0_LAYER001
  6
CONTINUOUS
 62
    4
 10
1095.9685999999999
 20
1088.6460999999999
 11
1095.8892000000001
 21
1086.1855
  0
LINE
  8
_0-0_LAYER001
  6
CONTINUOUS
 62
    4
 10
1095.8892000000001
 20
1086.1855
 11
1095.8097
 21
1083.7248
  0
LINE
  8
_0-0_LAYER001
  6
CONTINUOUS
 62
    4
 10
1095.8097
 20
1083.7248
 11
1095.7367999999999
 21
1081.4636
  0
LINE
  8
_0-0_LAYER001
  6
CONTINUOUS
 62
    4
 10
1095.7367999999999
 20
1081.4636
 11
1095.6767
 21
1079.6014
  0
LINE
  8
_0-0_LAYER001
  6
CONTINUOUS
 62
    4
 10
1095.6767
 20
1079.6014
 11
1095.6359
 21
1078.3378
  0
LINE
  8
_0-0_LAYER001
  6
CONTINUOUS
 62
    4
 10
1095.6359
 20
1078.3378
 11
1095.6208999999999
 21
1077.8723
  0
LINE
  8
_0-0_LAYER001
  6
CONTINUOUS
 62
    4
 10
1095.6208999999999
 20
1077.8723
 11
1096.7683999999999
 21
1077.8552
  0
LINE
  8
_0-0_LAYER001
  6
CONTINUOUS
 62
    4
 10
1096.7683999999999
 20
1077.8552
 11
1100.1382000000001
 21
1077.6507999999999
  0
LINE
  8
_0-0_LAYER001
  6
CONTINUOUS
 62
    4
 10
1100.1382000000001
 20
1077.6507999999999
 11
1105.6208999999999
 21
1077.0297
  0
LINE
  8
_0-0_LAYER001
  6
CONTINUOUS
 62
    4
 10
1105.6208999999999
 20
1077.0297
 11
1113.1075000000001
 21
1075.7624000000001
  0
LINE
  8
_0-0_LAYER001
  6
CONTINUOUS
 62
    4
 10
1113.1075000000001
 20
1075.7624000000001
 11
1122.4885999999999
 21
1073.6194
  0
LINE
  8
_0-0_LAYER001
  6
CONTINUOUS
 62
    4
 10
1122.4885999999999
 20
1073.6194
 11
1133.6550999999999
 21
1070.3712
  0
LINE
  8
_0-0_LAYER001
  6
CONTINUOUS
 62
    4
 10
1133.6550999999999
 20
1070.3712
 11
1146.4976999999999
 21
1065.7882999999999
  0
LINE
  8
_0-0_LAYER001
  6
CONTINUOUS
 62
    4
 10
1146.4976999999999
 20
1065.7882999999999
 11
1160.9070999999999
 21
1059.6413
  0
LINE
  8
_0-0_LAYER001
  6
CONTINUOUS
 62
    4
 10
1160.9070999999999
 20
1059.6413
 11
1176.7742000000001
 21
1051.7005999999999
  0
LINE
  8
_0-0_LAYER001
  6
CONTINUOUS
 62
    4
 10
1176.7742000000001
 20
1051.7005999999999
 11
1193.9898000000001
 21
1041.7366999999999
  0
LINE
  8
_0-0_LAYER001
  6
CONTINUOUS
 62
    4
 10
1193.9898000000001
 20
1041.7366999999999
 11
1194.0142000000001
 21
1042.4944
  0
LINE
  8
_0-0_LAYER001
  6
CONTINUOUS
 62
    4
 10
1194.0142000000001
 20
1042.4944
 11
1194.0806
 21
1044.5508
  0
LINE
  8
_0-0_LAYER001
  6
CONTINUOUS
 62
    4
 10
1194.0806
 20
1044.5508
 11
1194.1784
 21
1047.5814
  0
LINE
  8
_0-0_LAYER001
  6
CONTINUOUS
 62
    4
 10
1194.1784
 20
1047.5814
 11
1194.2972
 21
1051.2614000000001
  0
LINE
  8
_0-0_LAYER001
  6
CONTINUOUS
 62
    4
 10
1194.2972
 20
1051.2614000000001
 11
1194.4264000000001
 21
1055.2662
  0
LINE
  8
_0-0_LAYER001
  6
CONTINUOUS
 62
    4
 10
1194.4264000000001
 20
1055.2662
 11
1194.5556999999999
 21
1059.2709
  0
LINE
  8
_0-0_LAYER001
  6
CONTINUOUS
 62
    4
 10
1194.5556999999999
 20
1059.2709
 11
1194.6744000000001
 21
1062.9509
  0
LINE
  8
_0-0_LAYER001
  6
CONTINUOUS
 62
    4
 10
1194.6744000000001
 20
1062.9509
 11
1194.7722000000001
 21
1065.9815000000001
  0
LINE
  8
_0-0_LAYER001
  6
CONTINUOUS
 62
    4
 10
1194.7722000000001
 20
1065.9815000000001
 11
1194.8386
 21
1068.0379
  0
LINE
  8
_0-0_LAYER001
  6
CONTINUOUS
 62
    4
 10
1194.8386
 20
1068.0379
 11
1194.8631
 21
1068.7955999999999
  0
LINE
  8
_0-0_LAYER001
  6
CONTINUOUS
 62
    4
 10
1194.8631
 20
1068.7955999999999
 11
1193.2157999999999
 21
1069.4351999999999
  0
LINE
  8
_0-0_LAYER001
  6
CONTINUOUS
 62
    4
 10
1193.2157999999999
 20
1069.4351999999999
 11
1188.5672999999999
 21
1071.184
  0
LINE
  8
_0-0_LAYER001
  6
CONTINUOUS
 62
    4
 10
1188.5672999999999
 20
1071.184
 11
1181.3578
 21
1073.7869000000001
  0
LINE
  8
_0-0_LAYER001
  6
CONTINUOUS
 62
    4
 10
1181.3578
 20
1073.7869000000001
 11
1172.0274999999999
 21
1076.9888000000001
  0
LINE
  8
_0-0_LAYER001
  6
CONTINUOUS
 62
    4
 10
1172.0274999999999
 20
1076.9888000000001
 11
1161.0165
 21
1080.5347999999999
  0
LINE
  8
_0-0_LAYER001
  6
CONTINUOUS
 62
    4
 10
1161.0165
 20
1080.5347999999999
 11
1148.7650000000001
 21
1084.1697999999999
  0
LINE
  8
_0-0_LAYER001
  6
CONTINUOUS
 62
    4
 10
1148.7650000000001
 20
1084.1697999999999
 11
1135.7131999999999
 21
1087.6387999999999
  0
LINE
  8
_0-0_LAYER001
  6
CONTINUOUS
 62
    4
 10
1135.7131999999999
 20
1087.6387999999999
 11
1122.3012000000001
 21
1090.6866
  0
LINE
  8
_0-0_LAYER001
  6
CONTINUOUS
 62
    4
 10
1122.3012000000001
 20
1090.6866
 11
1108.9693
 21
1093.0581999999999
  0
LINE
  8
_0-0_LAYER001
  6
CONTINUOUS
 62
    4
 10
1096.1575
 20
1094.4985999999999
 11
1109.0809999999999
 21
1093.0382999999999
  0
LINE
  8
_0-0_LAYER001
  6
CONTINUOUS
 62
    2
 10
1101.0899999999999
 20
1094.6029000000001
 11
1101.0899999999999
 21
1076.5213000000001
  0
LINE
  8
_0-0_LAYER001
  6
CONTINUOUS
 62
    2
 10
1101.0899999999999
 20
1094.6029000000001
 11
1082.0504000000001
 21
1103.1207999999999
  0
LINE
  8
_0-0_LAYER001
  6
CONTINUOUS
 62
    2
 10
1077.979
 20
1099.289
 11
1095.6208999999999
 21
1077.8723
  0
LINE
  8
_0-0_LAYER001
  6
CONTINUOUS
 62
    2
 10
1095.3839
 20
1078.1600000000001
 11
1101.0899999999999
 21
1076.5213000000001
  0
ARC
  8
_0-0_LAYER001
  6
CONTINUOUS
 62
    2
 10
1236.9389000000001
 20
1063.4881
 40
87.717128000000002
 50
179.25861000000003
 51
205.46218999999999
  0
LINE
  8
_0-2_LAYER004
  6
CONTINUOUS
 62
    2
 10
1928.4965000000002
 20
907.32220000000007
 11
1928.4965000000002
 21
967.32220000000007
  0
LINE
  8
_0-2_LAYER004
  6
CONTINUOUS
 62
    2
 10
1928.4965000000002
 20
967.32220000000007
 11
1988.4965000000002
 21
967.32220000000007
  0
LINE
  8
_0-2_LAYER004
  6
CONTINUOUS
 62
    2
 10
1988.4965000000002
 20
907.32220000000007
 11
1928.4965000000002
 21
907.32220000000007
  0
LINE
  8
_0-2_LAYER004
  6
CONTINUOUS
 62
    2
 10
1988.4965000000002
 20
967.32220000000007
 11
1928.4965000000002
 21
907.32220000000007
  0
LINE
  8
_0-2_LAYER004
  6
CONTINUOUS
 62
    2
 10
1625.4965000000002
 20
907.32220000000007
 11
1625.4965000000002
 21
967.32220000000007
  0
LINE
  8
_0-2_LAYER004
  6
CONTINUOUS
 62
    2
 10
1625.4965000000002
 20
967.32220000000007
 11
1685.4965000000002
 21
967.32220000000007
  0
LINE
  8
_0-2_LAYER004
  6
CONTINUOUS
 62
    2
 10
1685.4965000000002
 20
967.32220000000007
 11
1685.4965000000002
 21
907.32220000000007
  0
LINE
  8
_0-2_LAYER004
  6
CONTINUOUS
 62
    2
 10
1685.4965000000002
 20
907.32220000000007
 11
1625.4965000000002
 21
907.32220000000007
  0
LINE
  8
_0-2_LAYER004
  6
CONTINUOUS
 62
    2
 10
1685.4965000000002
 20
967.32220000000007
 11
1625.4965000000002
 21
907.32220000000007
  0
LINE
  8
_0-2_LAYER004
  6
CONTINUOUS
 62
    2
 10
1322.4965
 20
907.32220000000007
 11
1322.4965
 21
967.32220000000007
  0
LINE
  8
_0-2_LAYER004
  6
CONTINUOUS
 62
    2
 10
1322.4965
 20
967.32220000000007
 11
1382.4965
 21
967.32220000000007
  0
LINE
  8
_0-2_LAYER004
  6
CONTINUOUS
 62
    2
 10
1382.4965
 20
967.32220000000007
 11
1382.4965
 21
907.32220000000007
  0
LINE
  8
_0-2_LAYER004
  6
CONTINUOUS
 62
    2
 10
1382.4965
 20
907.32220000000007
 11
1322.4965
 21
907.32220000000007
  0
LINE
  8
_0-2_LAYER004
  6
CONTINUOUS
 62
    2
 10
1382.4965
 20
967.32220000000007
 11
1322.4965
 21
907.32220000000007
  0
LINE
  8
_0-2_LAYER004
  6
CONTINUOUS
 62
    2
 10
1053.8565000000001
 20
1318.2782
 11
1053.8565000000001
 21
901.55619999999999
  0
LINE
  8
_0-2_LAYER004
  6
CONTINUOUS
 62
    2
 10
1073.6624999999999
 20
983.56819999999993
 11
1073.6624999999999
 21
1098.2197000000001
  0
LINE
  8
_0-2_LAYER004
  6
CONTINUOUS
 62
    2
 10
1058.6624999999999
 20
1098.2197000000001
 11
1058.6624999999999
 21
983.56819999999993
  0
LINE
  8
_0-2_LAYER004
  6
CONTINUOUS
 62
    2
 10
1177.8896
 20
998.99189999999999
 11
1177.8896
 21
983.99189999999999
  0
LINE
  8
_0-2_LAYER004
  6
CONTINUOUS
 62
    2
 10
1172.1818000000001
 20
984.19419999999991
 11
1172.1818000000001
 21
998.99189999999999
  0
LINE
  8
_0-2_LAYER004
  6
CONTINUOUS
 62
    2
 10
1172.1818000000001
 20
998.99189999999999
 11
1151.6378
 21
998.99189999999999
  0
LINE
  8
_0-2_LAYER004
  6
CONTINUOUS
 62
    2
 10
1076.1935000000001
 20
984.19419999999991
 11
1076.1935000000001
 21
1098.2197000000001
  0
LINE
  8
_0-2_LAYER004
  6
CONTINUOUS
 62
    2
 10
1172.1818000000001
 20
984.19419999999991
 11
1076.1935000000001
 21
984.19419999999991
  0
LINE
  8
_0-2_LAYER004
  6
DASHED3
 62
    2
 10
1056.1795
 20
981.81919999999991
 11
1056.1795
 21
1279.3222000000001
  0
LINE
  8
_0-2_LAYER004
  6
CONTINUOUS
 62
    2
 10
1058.6624999999999
 20
983.56819999999993
 11
1073.6624999999999
 21
983.56819999999993
  0
LINE
  8
_0-2_LAYER004
  6
CONTINUOUS
 62
    3
 10
1053.8565000000001
 20
901.55619999999999
 11
1053.8565000000001
 21
747.46620000000007
  0
LINE
  8
_0-2_LAYER004
  6
CONTINUOUS
 62
    2
 10
1113.8565000000001
 20
907.32220000000007
 11
1113.8565000000001
 21
967.32220000000007
  0
LINE
  8
_0-2_LAYER004
  6
CONTINUOUS
 62
    2
 10
1113.8565000000001
 20
967.32220000000007
 11
1053.8565000000001
 21
967.32220000000007
  0
LINE
  8
_0-2_LAYER004
  6
CONTINUOUS
 62
    2
 10
1053.8565000000001
 20
967.32220000000007
 11
1053.8565000000001
 21
907.32220000000007
  0
LINE
  8
_0-2_LAYER004
  6
CONTINUOUS
 62
    2
 10
1053.8565000000001
 20
907.32220000000007
 11
1113.8565000000001
 21
907.32220000000007
  0
LINE
  8
_0-2_LAYER004
  6
CONTINUOUS
 62
    2
 10
1151.8775000000001
 20
1113.6609000000001
 11
1154.5805
 21
1128.4149
  0
LINE
  8
_0-2_LAYER004
  6
CONTINUOUS
 62
    2
 10
1154.5805
 20
1128.4149
 11
1066.0535
 21
1144.6309000000001
  0
LINE
  8
_0-2_LAYER004
  6
CONTINUOUS
 62
    2
 10
1066.0535
 20
1144.6309000000001
 11
1063.3505
 21
1129.8759
  0
LINE
  8
_0-2_LAYER004
  6
CONTINUOUS
 62
    2
 10
1063.3505
 20
1129.8759
 11
1151.8775000000001
 21
1113.6609000000001
  0
LINE
  8
_0-2_LAYER004
  6
CONTINUOUS
 62
    2
 10
1154.5805
 20
1128.4149
 11
1063.3505
 21
1129.8759
  0
LINE
  8
_0-2_LAYER004
  6
CONTINUOUS
 62
    2
 10
1163.8565000000001
 20
1128.6582000000001
 11
1164.4045000000001
 21
1110.5791999999999
  0
LINE
  8
_0-2_LAYER004
  6
CONTINUOUS
 62
    2
 10
1088.8565000000001
 20
1147.6269
 11
1076.8565000000001
 21
1147.6269
  0
LINE
  8
_0-2_LAYER004
  6
CONTINUOUS
 62
    2
 10
1076.8565000000001
 20
1155.4358999999999
 11
1076.8565000000001
 21
1195.4358999999999
  0
LINE
  8
_0-2_LAYER004
  6
CONTINUOUS
 62
    2
 10
1076.8565000000001
 20
1195.4358999999999
 11
1058.8565000000001
 21
1195.4358999999999
  0
LINE
  8
_0-2_LAYER004
  6
CONTINUOUS
 62
    2
 10
1058.8565000000001
 20
1195.4358999999999
 11
1058.8565000000001
 21
1155.4358999999999
  0
LINE
  8
_0-2_LAYER004
  6
CONTINUOUS
 62
    2
 10
1058.8565000000001
 20
1155.4358999999999
 11
1076.8565000000001
 21
1155.4358999999999
  0
LINE
  8
_0-2_LAYER004
  6
CONTINUOUS
 62
    2
 10
1058.8565000000001
 20
1195.4358999999999
 11
1076.8565000000001
 21
1155.4358999999999
  0
LINE
  8
_0-2_LAYER004
  6
CONTINUOUS
 62
    2
 10
1163.8565000000001
 20
1128.6582000000001
 11
1057.4425000000001
 21
1148.1498999999999
  0
LINE
  8
_0-2_LAYER004
  6
CONTINUOUS
 62
    2
 10
1057.4425000000001
 20
1148.1498999999999
 11
1057.4425000000001
 21
1311.2587000000003
  0
LINE
  8
_0-5_LAYER007
  6
CONTINUOUS
 62
    3
 10
1053.8565000000001
 20
1396.1502
 11
1053.8565000000001
 21
884.82320000000004
  0
LINE
  8
_0-2_LAYER004
  6
CONTINUOUS
 62
    3
 10
1053.8565000000001
 20
1318.2782
 11
1053.8565000000001
 21
1396.1502
  0
LINE
  8
_0-2_LAYER004
  6
CONTINUOUS
 62
    2
 10
1076.8565000000001
 20
1147.6269
 11
1076.8565000000001
 21
1396.1502
  0
LINE
  8
_0-2_LAYER004
  6
CONTINUOUS
 62
    2
 10
1088.8565000000001
 20
1147.6269
 11
1088.8565000000001
 21
1396.1502
  0
LINE
  8
_0-2_LAYER004
  6
CONTINUOUS
 62
    2
 10
2143.2401
 20
998.99189999999999
 11
1177.8896
 21
998.99189999999999
  0
LINE
  8
_0-2_LAYER004
  6
CONTINUOUS
 62
    2
 10
1079.4965
 20
907.32220000000007
 11
1053.8565000000001
 21
907.32220000000007
  0
LINE
  8
_0-2_LAYER004
  6
CONTINUOUS
 62
    2
 10
1113.8565000000001
 20
967.32220000000007
 11
1053.8565000000001
 21
907.32220000000007
  0
LINE
  8
_0-2_LAYER004
  6
CONTINUOUS
 62
    2
 10
1053.8565000000001
 20
967.32220000000007
 11
1079.4965
 21
967.32220000000007
  0
LINE
  8
_0-2_LAYER004
  6
CONTINUOUS
 62
    2
 10
1177.8896
 20
983.99189999999999
 11
2166.393
 21
983.99189999999999
  0
LINE
  8
_0-2_LAYER004
  6
DASHED3
 62
    2
 10
2166.393
 20
981.81919999999991
 11
1056.1795
 21
981.81919999999991
  0
LINE
  8
_0-2_LAYER004
  6
CONTINUOUS
 62
    2
 10
2166.393
 20
979.32220000000007
 11
1053.8565000000001
 21
979.32220000000007
  0
LINE
  8
_0-2_LAYER004
  6
CONTINUOUS
 62
    2
 10
2166.393
 20
967.32220000000007
 11
1053.8565000000001
 21
967.32220000000007
  0
LINE
  8
_0-2_LAYER004
  6
CONTINUOUS
 62
    2
 10
1988.4965000000002
 20
967.32220000000007
 11
1988.4965000000002
 21
907.32220000000007
  0
CIRCLE
  8
_0-3_LAYER005
  6
CONTINUOUS
 62
    2
 10
1130.5664999999999
 20
1055.7956999999999
 40
1.1619999999999999
  0
CIRCLE
  8
_0-3_LAYER005
  6
CONTINUOUS
 62
    2
 10
1122.3485000000001
 20
1055.7956999999999
 40
1.1619999999999999
  0
CIRCLE
  8
_0-3_LAYER005
  6
CONTINUOUS
 62
    2
 10
1136.0488
 20
1035.7873
 40
1.1619999999999999
  0
CIRCLE
  8
_0-3_LAYER005
  6
CONTINUOUS
 62
    2
 10
1127.4812999999999
 20
1039.3927000000001
 40
1.1619999999999999
  0
CIRCLE
  8
_0-3_LAYER005
  6
CONTINUOUS
 62
    2
 10
1092.6475
 20
1069.1382000000001
 40
1.1619999999999999
  0
CIRCLE
  8
_0-3_LAYER005
  6
CONTINUOUS
 62
    2
 10
1100.4894999999999
 20
1053.4541999999999
 40
1.1619999999999999
  0
CIRCLE
  8
_0-3_LAYER005
  6
CONTINUOUS
 62
    2
 10
1116.5965000000001
 20
1070.5877
 40
1.1619999999999999
  0
CIRCLE
  8
_0-3_LAYER005
  6
CONTINUOUS
 62
    2
 10
1111.6655000000001
 20
1052.0211999999999
 40
1.1619999999999999
  0
CIRCLE
  8
_0-3_LAYER005
  6
CONTINUOUS
 62
    2
 10
1108.3785
 20
1059.4172000000001
 40
1.1619999999999999
  0
CIRCLE
  8
_0-3_LAYER005
  6
CONTINUOUS
 62
    2
 10
1099.3395
 20
1064.3481999999999
 40
1.1619999999999999
  0
CIRCLE
  8
_0-3_LAYER005
  6
CONTINUOUS
 62
    2
 10
1110.8444999999999
 20
1046.7566999999999
 40
1.1619999999999999
  0
CIRCLE
  8
_0-3_LAYER005
  6
CONTINUOUS
 62
    2
 10
1107.5574999999999
 20
1054.9747
 40
1.1619999999999999
  0
CIRCLE
  8
_0-3_LAYER005
  6
CONTINUOUS
 62
    2
 10
1096.0525
 20
1063.1917000000001
 40
1.1619999999999999
  0
CIRCLE
  8
_0-3_LAYER005
  6
CONTINUOUS
 62
    2
 10
1097.6955
 20
1065.6577
 40
1.1619999999999999
  0
CIRCLE
  8
_0-3_LAYER005
  6
CONTINUOUS
 62
    2
 10
1090.2995000000001
 20
1069.7656999999999
 40
1.1619999999999999
  0
CIRCLE
  8
_0-3_LAYER005
  6
CONTINUOUS
 62
    2
 10
1087.8344999999999
 20
1077.9837
 40
1.1619999999999999
  0
CIRCLE
  8
_0-3_LAYER005
  6
CONTINUOUS
 62
    2
 10
1142.9976999999999
 20
1087.895
 40
1.1619999999999999
  0
CIRCLE
  8
_0-3_LAYER005
  6
CONTINUOUS
 62
    2
 10
1128.2550000000001
 20
1092.4875999999999
 40
1.1619999999999999
  0
CIRCLE
  8
_0-3_LAYER005
  6
CONTINUOUS
 62
    2
 10
1133.6026999999999
 20
1093.9680000000001
 40
1.1619999999999999
  0
CIRCLE
  8
_0-3_LAYER005
  6
CONTINUOUS
 62
    2
 10
1138.9647
 20
1089.8574000000001
 40
1.1619999999999999
  0
CIRCLE
  8
_0-3_LAYER005
  6
CONTINUOUS
 62
    2
 10
1129.4937
 20
1089.037
 40
1.1619999999999999
  0
CIRCLE
  8
_0-3_LAYER005
  6
CONTINUOUS
 62
    2
 10
1119.2149999999999
 20
1099.0616
 40
1.1619999999999999
  0
CIRCLE
  8
_0-3_LAYER005
  6
CONTINUOUS
 62
    2
 10
1114.434
 20
1092.8417999999999
 40
1.1619999999999999
  0
CIRCLE
  8
_0-3_LAYER005
  6
CONTINUOUS
 62
    2
 10
1109.2004999999999
 20
1101.8146999999999
 40
1.1619999999999999
  0
CIRCLE
  8
_0-3_LAYER005
  6
CONTINUOUS
 62
    2
 10
1100.9825000000001
 20
1102.6367
 40
1.1619999999999999
  0
CIRCLE
  8
_0-3_LAYER005
  6
CONTINUOUS
 62
    2
 10
1104.3458000000001
 20
1095.0387000000001
 40
1.1619999999999999
  0
CIRCLE
  8
_0-3_LAYER005
  6
CONTINUOUS
 62
    2
 10
1093.5864999999999
 20
1100.9937
 40
1.1619999999999999
  0
CIRCLE
  8
_0-3_LAYER005
  6
CONTINUOUS
 62
    2
 10
1095.2304999999999
 20
1094.4186999999999
 40
1.1619999999999999
  0
CIRCLE
  8
_0-3_LAYER005
  6
CONTINUOUS
 62
    2
 10
1113.3095000000001
 20
1062.3697
 40
1.1619999999999999
  0
CIRCLE
  8
_0-3_LAYER005
  6
CONTINUOUS
 62
    2
 10
1126.4575
 20
1062.3697
 40
1.1619999999999999
  0
CIRCLE
  8
_0-3_LAYER005
  6
CONTINUOUS
 62
    2
 10
1132.2104999999999
 20
1048.3996999999999
 40
1.1619999999999999
  0
CIRCLE
  8
_0-3_LAYER005
  6
CONTINUOUS
 62
    2
 10
1118.2405000000001
 20
1065.1702
 40
1.1619999999999999
  0
CIRCLE
  8
_0-3_LAYER005
  6
CONTINUOUS
 62
    2
 10
1142.0715
 20
1050.0436999999999
 40
1.1619999999999999
  0
CIRCLE
  8
_0-3_LAYER005
  6
CONTINUOUS
 62
    2
 10
1091.8264999999999
 20
1064.2072000000001
 40
1.1619999999999999
  0
CIRCLE
  8
_0-3_LAYER005
  6
CONTINUOUS
 62
    2
 10
1144.2639999999999
 20
1031.6955
 40
1.1619999999999999
  0
CIRCLE
  8
_0-3_LAYER005
  6
CONTINUOUS
 62
    2
 10
1134.4058
 20
1039.8952999999999
 40
1.1619999999999999
  0
CIRCLE
  8
_0-3_LAYER005
  6
CONTINUOUS
 62
    2
 10
1107.4324999999999
 20
1048.3671999999999
 40
1.1619999999999999
  0
CIRCLE
  8
_0-3_LAYER005
  6
CONTINUOUS
 62
    2
 10
1117.4185
 20
1059.4172000000001
 40
1.1619999999999999
  0
CIRCLE
  8
_0-3_LAYER005
  6
CONTINUOUS
 62
    2
 10
1109.2004999999999
 20
1063.5262
 40
1.1619999999999999
  0
CIRCLE
  8
_0-3_LAYER005
  6
CONTINUOUS
 62
    2
 10
1100.1614999999999
 20
1069.2791999999999
 40
1.1619999999999999
  0
CIRCLE
  8
_0-3_LAYER005
  6
CONTINUOUS
 62
    2
 10
1100.1614999999999
 20
1051.6876999999999
 40
1.1619999999999999
  0
CIRCLE
  8
_0-3_LAYER005
  6
CONTINUOUS
 62
    2
 10
1100.1614999999999
 20
1057.4396999999999
 40
1.1619999999999999
  0
CIRCLE
  8
_0-3_LAYER005
  6
CONTINUOUS
 62
    2
 10
1100.1614999999999
 20
1063.1917000000001
 40
1.1619999999999999
  0
CIRCLE
  8
_0-3_LAYER005
  6
CONTINUOUS
 62
    2
 10
1101.8045
 20
1068.9447
 40
1.1619999999999999
  0
CIRCLE
  8
_0-3_LAYER005
  6
CONTINUOUS
 62
    2
 10
1103.4485
 20
1070.5877
 40
1.1619999999999999
  0
CIRCLE
  8
_0-3_LAYER005
  6
CONTINUOUS
 62
    2
 10
1108.3785
 20
1070.5877
 40
1.1619999999999999
  0
CIRCLE
  8
_0-3_LAYER005
  6
CONTINUOUS
 62
    2
 10
1114.9525000000001
 20
1062.3697
 40
1.1619999999999999
  0
CIRCLE
  8
_0-3_LAYER005
  6
CONTINUOUS
 62
    2
 10
1123.1704999999999
 20
1066.4786999999999
 40
1.1619999999999999
  0
CIRCLE
  8
_0-3_LAYER005
  6
CONTINUOUS
 62
    2
 10
1117.4185
 20
1050.8657000000001
 40
1.1619999999999999
  0
CIRCLE
  8
_0-3_LAYER005
  6
CONTINUOUS
 62
    2
 10
1139.6054999999999
 20
1050.8657000000001
 40
1.1619999999999999
  0
CIRCLE
  8
_0-3_LAYER005
  6
CONTINUOUS
 62
    2
 10
1091.0045
 20
1058.1206999999999
 40
1.1619999999999999
  0
CIRCLE
  8
_0-3_LAYER005
  6
CONTINUOUS
 62
    2
 10
1138.5137999999999
 20
1039.8952999999999
 40
1.1619999999999999
  0
CIRCLE
  8
_0-3_LAYER005
  6
CONTINUOUS
 62
    2
 10
1138.0678
 20
1038.8097
 40
1.1619999999999999
  0
CIRCLE
  8
_0-3_LAYER005
  6
CONTINUOUS
 62
    2
 10
1095.9345000000001
 20
1063.3851999999999
 40
1.1619999999999999
  0
LINE
  8
_0-1_LAYER003
  6
CONTINUOUS
 62
    7
 10
842.56819999999993
 20
1294.3222000000001
 11
890.86819999999989
 21
1294.3222000000001
  0
LINE
  8
_0-1_LAYER003
  6
CONTINUOUS
 62
    7
 10
1167.4173000000001
 20
1401.8217
 11
1339.9173000000001
 21
1401.8217
  0
LINE
  8
_0-1_LAYER003
  6
CONTINUOUS
 62
    7
 10
1219.2265
 20
1342.2165
 11
1366.2265
 21
1342.2165
  0
LINE
  8
_0-1_LAYER003
  6
CONTINUOUS
 62
    7
 10
1226.8481999999999
 20
1299.3173999999999
 11
1460.8481999999999
 21
1299.3173999999999
  0
LINE
  8
_0-1_LAYER003
  6
CONTINUOUS
 62
    7
 10
1224.4025999999999
 20
1250.943
 11
1338.4025999999999
 21
1250.943
  0
LINE
  8
_0-1_LAYER003
  6
CONTINUOUS
 62
    7
 10
1228.1523
 20
1213.4905000000001
 11
1289.5438999999999
 21
1213.4905000000001
  0
LINE
  8
_0-1_LAYER003
  6
CONTINUOUS
 62
    7
 10
966.4541999999999
 20
1289.6648
 11
1006.9541999999999
 21
1289.6648
  0
LINE
  8
_0-1_LAYER003
  6
CONTINUOUS
 62
    7
 10
945.45749999999998
 20
1186.7955999999999
 11
1026.4575
 21
1186.7955999999999
  0
LINE
  8
_0-1_LAYER003
  6
CONTINUOUS
 62
    7
 10
842.56819999999993
 20
1294.3222000000001
 11
839.16819999999984
 21
1294.3222000000001
  0
LINE
  8
_0-1_LAYER003
  6
CONTINUOUS
 62
    7
 10
840.86819999999989
 20
1292.6222000000002
 11
840.86819999999989
 21
1294.3222000000001
  0
LINE
  8
_0-1_LAYER003
  6
CONTINUOUS
 62
    7
 10
840.86819999999989
 20
1292.6222000000002
 11
840.86819999999989
 21
979.32220000000007
  0
LINE
  8
_0-1_LAYER003
  6
CONTINUOUS
 62
    7
 10
839.16819999999984
 20
979.32220000000007
 11
992.61149999999998
 21
979.32220000000007
  0
LINE
  8
_0-1_LAYER003
  6
CONTINUOUS
 62
    7
 10
838.36819999999989
 20
1144.3222000000001
 11
890.86819999999989
 21
1144.3222000000001
  0
LINE
  8
_0-1_LAYER003
  6
CONTINUOUS
 62
    7
 10
965.91149999999993
 20
1094.3222000000001
 11
992.61149999999998
 21
1094.3222000000001
  0
LINE
  8
_0-1_LAYER003
  6
CONTINUOUS
 62
    7
 10
967.61149999999998
 20
1094.3222000000001
 11
967.61149999999998
 21
979.32220000000007
  0
LINE
  8
_0-1_LAYER003
  6
CONTINUOUS
 62
    7
 10
830.89149999999995
 20
878.64529999999991
 11
994.39149999999995
 21
878.64529999999991
  0
LINE
  8
_0-1_LAYER003
  6
CONTINUOUS
 62
    7
 10
1053.8565000000001
 20
907.32220000000007
 11
1113.8565000000001
 21
907.32220000000007
  0
LINE
  8
_0-1_LAYER003
  6
CONTINUOUS
 62
    7
 10
1113.8565000000001
 20
907.32220000000007
 11
1113.8565000000001
 21
967.32220000000007
  0
LINE
  8
_0-1_LAYER003
  6
CONTINUOUS
 62
    7
 10
1322.4965
 20
967.32220000000007
 11
1322.4965
 21
907.32220000000007
  0
LINE
  8
_0-1_LAYER003
  6
CONTINUOUS
 62
    7
 10
1322.4965
 20
907.32220000000007
 11
1382.4965
 21
907.32220000000007
  0
LINE
  8
_0-1_LAYER003
  6
CONTINUOUS
 62
    7
 10
1382.4965
 20
907.32220000000007
 11
1382.4965
 21
967.32220000000007
  0
LINE
  8
_0-1_LAYER003
  6
CONTINUOUS
 62
    7
 10
1244.4005999999999
 20
801.10500000000002
 11
1445.4005999999999
 21
801.10500000000002
  0
LINE
  8
_0-1_LAYER003
  6
CONTINUOUS
 62
    7
 10
1445.4005999999999
 20
801.10500000000002
 11
1244.4005999999999
 21
801.10500000000002
  0
LINE
  8
_0-1_LAYER003
  6
CONTINUOUS
 62
    7
 10
1053.8565000000001
 20
967.32220000000007
 11
2166.393
 21
967.32220000000007
  0
LINE
  8
_0-1_LAYER003
  6
CONTINUOUS
 62
    7
 10
1988.4965000000002
 20
967.32220000000007
 11
1988.4965000000002
 21
907.32220000000007
  0
LINE
  8
_0-1_LAYER003
  6
CONTINUOUS
 62
    7
 10
1988.4965000000002
 20
907.32220000000007
 11
1928.4965000000002
 21
907.32220000000007
  0
LINE
  8
_0-1_LAYER003
  6
CONTINUOUS
 62
    7
 10
1928.4965000000002
 20
907.32220000000007
 11
1928.4965000000002
 21
967.32220000000007
  0
LINE
  8
_0-1_LAYER003
  6
CONTINUOUS
 62
    7
 10
1772.3658999999998
 20
770.62100000000009
 11
1961.3645999999999
 21
770.62100000000009
  0
LINE
  8
_0-1_LAYER003
  6
CONTINUOUS
 62
    7
 10
1789.6754000000001
 20
740.64010000000007
 11
2028.7667999999999
 21
740.64010000000007
  0
LINE
  8
_0-1_LAYER003
  6
CONTINUOUS
 62
    7
 10
1807.0509000000002
 20
710.5447999999999
 11
1978.7222999999999
 21
710.5447999999999
  0
LINE
  8
_0-1_LAYER003
  6
CONTINUOUS
 62
    7
 10
1824.2944000000002
 20
680.67820000000006
 11
1892.1855
 21
680.67820000000006
  0
LINE
  8
_0-1_LAYER003
  6
CONTINUOUS
 62
    7
 10
2166.393
 20
979.32220000000007
 11
1053.8565000000001
 21
979.32220000000007
  0
LINE
  8
_0-1_LAYER003
  6
CONTINUOUS
 62
    7
 10
1056.1795
 20
981.81919999999991
 11
2166.393
 21
981.81919999999991
  0
LINE
  8
_0-1_LAYER003
  6
CONTINUOUS
 62
    7
 10
2166.393
 20
983.99189999999999
 11
1177.8896
 21
983.99189999999999
  0
LINE
  8
_0-1_LAYER003
  6
CONTINUOUS
 62
    7
 10
1177.8896
 20
983.99189999999999
 11
1177.8896
 21
998.99189999999999
  0
LINE
  8
_0-1_LAYER003
  6
CONTINUOUS
 62
    7
 10
1177.8896
 20
998.99189999999999
 11
2143.2401
 21
998.99189999999999
  0
LINE
  8
_0-1_LAYER003
  6
CONTINUOUS
 62
    7
 10
2061.7073999999998
 20
1129.5054
 11
2061.7073999999998
 21
1182.0054
  0
LINE
  8
_0-1_LAYER003
  6
CONTINUOUS
 62
    7
 10
2061.7073999999998
 20
1179.5054
 11
1298.1242999999999
 21
1179.5054
  0
LINE
  8
_0-1_LAYER003
  6
CONTINUOUS
 62
    7
 10
1296.4242999999999
 20
1181.2054000000001
 11
1296.4242999999999
 21
1129.5054
  0
LINE
  8
_0-1_LAYER003
  6
CONTINUOUS
 62
    7
 10
1296.4242999999999
 20
1179.5054
 11
1298.1242999999999
 21
1179.5054
  0
LINE
  8
_0-1_LAYER003
  6
CONTINUOUS
 62
    7
 10
1088.8565000000001
 20
1228.0762
 11
1163.8565000000001
 21
1228.0762
  0
LINE
  8
_0-1_LAYER003
  6
CONTINUOUS
 62
    7
 10
1163.8565000000001
 20
1230.5762
 11
1163.8565000000001
 21
1173.5577000000001
  0
LINE
  8
_0-1_LAYER003
  6
CONTINUOUS
 62
    7
 10
1088.8565000000001
 20
1147.6269
 11
1088.8565000000001
 21
1396.1502
  0
LINE
  8
_0-1_LAYER003
  6
CONTINUOUS
 62
    7
 10
1076.8565000000001
 20
1396.1502
 11
1076.8565000000001
 21
1147.6269
  0
LINE
  8
_0-1_LAYER003
  6
CONTINUOUS
 62
    7
 10
1076.8565000000001
 20
1147.6269
 11
1088.8565000000001
 21
1147.6269
  0
LINE
  8
_0-1_LAYER003
  6
CONTINUOUS
 62
    7
 10
1076.8565000000001
 20
1155.4358999999999
 11
1058.8565000000001
 21
1155.4358999999999
  0
LINE
  8
_0-1_LAYER003
  6
CONTINUOUS
 62
    7
 10
1058.8565000000001
 20
1155.4358999999999
 11
1058.8565000000001
 21
1195.4358999999999
  0
LINE
  8
_0-1_LAYER003
  6
CONTINUOUS
 62
    7
 10
1058.8565000000001
 20
1195.4358999999999
 11
1076.8565000000001
 21
1195.4358999999999
  0
LINE
  8
_0-1_LAYER003
  6
CONTINUOUS
 62
    7
 10
1057.4425000000001
 20
1148.1498999999999
 11
1057.4425000000001
 21
1311.2587000000003
  0
LINE
  8
_0-1_LAYER003
  6
CONTINUOUS
 62
    7
 10
1056.1795
 20
1279.3222000000001
 11
1056.1795
 21
981.81919999999991
  0
LINE
  8
_0-1_LAYER003
  6
CONTINUOUS
 62
    7
 10
1058.6624999999999
 20
983.56819999999993
 11
1073.6624999999999
 21
983.56819999999993
  0
LINE
  8
_0-1_LAYER003
  6
CONTINUOUS
 62
    7
 10
1073.6624999999999
 20
983.56819999999993
 11
1058.6624999999999
 21
983.56819999999993
  0
LINE
  8
_0-1_LAYER003
  6
CONTINUOUS
 62
    7
 10
1058.6624999999999
 20
983.56819999999993
 11
1058.6624999999999
 21
1098.2197000000001
  0
LINE
  8
_0-1_LAYER003
  6
CONTINUOUS
 62
    7
 10
1053.8565000000001
 20
1098.2197000000001
 11
1083.8565000000001
 21
1098.2197000000001
  0
LINE
  8
_0-1_LAYER003
  6
CONTINUOUS
 62
    7
 10
1083.8565000000001
 20
1098.2197000000001
 11
1083.8565000000001
 21
1125.7156
  0
LINE
  8
_0-1_LAYER003
  6
CONTINUOUS
 62
    7
 10
1053.8565000000001
 20
1128.2197000000001
 11
1070.1862000000001
 21
1128.2197000000001
  0
LINE
  8
_0-1_LAYER003
  6
CONTINUOUS
 62
    7
 10
1076.1935000000001
 20
1098.2197000000001
 11
1076.1935000000001
 21
984.19419999999991
  0
LINE
  8
_0-1_LAYER003
  6
CONTINUOUS
 62
    7
 10
1076.1935000000001
 20
984.19419999999991
 11
1172.1818000000001
 21
984.19419999999991
  0
LINE
  8
_0-1_LAYER003
  6
CONTINUOUS
 62
    7
 10
1172.1818000000001
 20
984.19419999999991
 11
1172.1818000000001
 21
998.99189999999999
  0
LINE
  8
_0-1_LAYER003
  6
CONTINUOUS
 62
    7
 10
1172.1818000000001
 20
998.99189999999999
 11
1157.7059014660542
 21
998.99189999999999
  0
LINE
  8
_0-1_LAYER003
  6
CONTINUOUS
 62
    7
 10
1073.6624999999999
 20
983.56819999999993
 11
1073.6624999999999
 21
1098.2197000000001
  0
LINE
  8
_0-1_LAYER003
  6
CONTINUOUS
 62
    7
 10
1090.9115999999999
 20
1123.2609520063252
 11
1090.9115999999999
 21
1106.1744000000001
  0
LINE
  8
_0-1_LAYER003
  6
CONTINUOUS
 62
    7
 10
1079.0568000000001
 20
1124.6152
 11
1079.0568000000001
 21
1107.0126
  0
LINE
  8
_0-1_LAYER003
  6
CONTINUOUS
 62
    7
 10
1101.0899999999999
 20
1094.6029000000001
 11
1101.0899999999999
 21
1077.5429766684297
  0
LINE
  8
_0-1_LAYER003
  6
CONTINUOUS
 62
    7
 10
1101.0899999999999
 20
1076.5213000000001
 11
1101.0899999999999
 21
1077.5429766684297
  0
LINE
  8
_0-1_LAYER003
  6
CONTINUOUS
 62
    7
 10
1076.8565000000001
 20
1155.4358999999999
 11
1058.8565000000001
 21
1195.4358999999999
  0
LINE
  8
_0-1_LAYER003
  6
CONTINUOUS
 62
    7
 10
1061.3479
 20
1191.5699
 11
1066.6512
 21
1186.2665999999999
  0
LINE
  8
_0-1_LAYER003
  6
CONTINUOUS
 62
    7
 10
1066.6512
 20
1186.2665999999999
 11
1064.71
 21
1193.511
  0
LINE
  8
_0-1_LAYER003
  6
CONTINUOUS
 62
    7
 10
1066.6512
 20
1186.2665999999999
 11
1006.9541999999999
 21
1289.6648
  0
LINE
  8
_0-1_LAYER003
  6
CONTINUOUS
 62
    7
 10
1026.4575
 20
1186.7955999999999
 11
1061.4155000000001
 21
1126.2466999999999
  0
LINE
  8
_0-1_LAYER003
  6
CONTINUOUS
 62
    7
 10
1061.4155000000001
 20
1126.2466999999999
 11
1059.4743000000001
 21
1133.4911
  0
LINE
  8
_0-1_LAYER003
  6
CONTINUOUS
 62
    7
 10
1061.4155000000001
 20
1126.2466999999999
 11
1056.1122
 21
1131.55
  0
LINE
  8
_0-1_LAYER003
  6
CONTINUOUS
 62
    7
 10
1053.8565000000001
 20
1128.2197000000001
 11
1083.8565000000001
 21
1098.2197000000001
  0
LINE
  8
_0-1_LAYER003
  6
CONTINUOUS
 62
    7
 10
1079.0568000000001
 20
1107.0126
 11
1090.9115999999999
 21
1106.1744000000001
  0
LINE
  8
_0-1_LAYER003
  6
CONTINUOUS
 62
    7
 10
1090.9115999999999
 20
1123.5374999999999
 11
1079.0568000000001
 21
1124.6152
  0
LINE
  8
_0-1_LAYER003
  6
CONTINUOUS
 62
    7
 10
1090.9115999999999
 20
1123.5374999999999
 11
1090.9115999999999
 21
1123.2609520063252
  0
LINE
  8
_0-1_LAYER003
  6
CONTINUOUS
 62
    7
 10
1082.0504000000001
 20
1103.1207999999999
 11
1077.979
 21
1099.289
  0
LINE
  8
_0-1_LAYER003
  6
CONTINUOUS
 62
    7
 10
1101.0899999999999
 20
1094.6029000000001
 11
1082.0504000000001
 21
1103.1207999999999
  0
LINE
  8
_0-1_LAYER003
  6
CONTINUOUS
 62
    7
 10
1077.979
 20
1099.289
 11
1095.383929174666
 21
1078.1599749712291
  0
LINE
  8
_0-1_LAYER003
  6
CONTINUOUS
 62
    7
 10
1095.383929174666
 20
1078.1599749712291
 11
1101.0899999999999
 21
1076.5213000000001
  0
LINE
  8
_0-1_LAYER003
  6
CONTINUOUS
 62
    7
 10
1081.5463
 20
1091.2978000000001
 11
1076.1935000000001
 21
1098.2197000000001
  0
LINE
  8
_0-1_LAYER003
  6
CONTINUOUS
 62
    7
 10
1058.6624999999999
 20
1098.2197000000001
 11
1073.6624999999999
 21
983.56819999999993
  0
LINE
  8
_0-1_LAYER003
  6
CONTINUOUS
 62
    7
 10
1068.9305999999999
 20
1007.7508
 11
1063.6273000000001
 21
1002.4475
  0
LINE
  8
_0-1_LAYER003
  6
CONTINUOUS
 62
    7
 10
1068.9305999999999
 20
1007.7508
 11
1066.9893999999999
 21
1000.5063
  0
LINE
  8
_0-1_LAYER003
  6
CONTINUOUS
 62
    7
 10
1068.9305999999999
 20
1007.7508
 11
994.39149999999995
 21
878.64529999999991
  0
LINE
  8
_0-1_LAYER003
  6
CONTINUOUS
 62
    7
 10
1053.8565000000001
 20
907.32220000000007
 11
1113.8565000000001
 21
967.32220000000007
  0
LINE
  8
_0-1_LAYER003
  6
CONTINUOUS
 62
    7
 10
1137.3005000000001
 20
986.60789999999997
 11
1139.2416000000001
 21
979.36349999999993
  0
LINE
  8
_0-1_LAYER003
  6
CONTINUOUS
 62
    7
 10
1142.6038000000001
 20
981.30459999999994
 11
1137.3005000000001
 21
986.60789999999997
  0
LINE
  8
_0-1_LAYER003
  6
CONTINUOUS
 62
    7
 10
1137.3005000000001
 20
986.60789999999997
 11
1244.4005999999999
 21
801.10500000000002
  0
LINE
  8
_0-1_LAYER003
  6
CONTINUOUS
 62
    7
 10
1322.4965
 20
907.32220000000007
 11
1382.4965
 21
967.32220000000007
  0
LINE
  8
_0-1_LAYER003
  6
CONTINUOUS
 62
    7
 10
1057.4425000000001
 20
1148.1498999999999
 11
1163.8565000000001
 21
1128.6582000000001
  0
LINE
  8
_0-1_LAYER003
  6
CONTINUOUS
 62
    7
 10
1163.8565000000001
 20
1128.6582000000001
 11
1164.4045000000001
 21
1110.5791999999999
  0
LINE
  8
_0-1_LAYER003
  6
CONTINUOUS
 62
    7
 10
1164.4045000000001
 20
1110.5791999999999
 11
1159.7336
 21
1116.7398000000001
  0
LINE
  8
_0-1_LAYER003
  6
CONTINUOUS
 62
    7
 10
1153.6694084579794
 20
1128.4294906471873
 11
1139.1071999999999
 21
1103.2070000000001
  0
LINE
  8
_0-1_LAYER003
  6
CONTINUOUS
 62
    7
 10
1139.1071999999999
 20
1103.2070000000001
 11
1141.0482999999999
 21
1110.4514999999999
  0
LINE
  8
_0-1_LAYER003
  6
CONTINUOUS
 62
    7
 10
1139.1071999999999
 20
1103.2070000000001
 11
1144.4105
 21
1108.5102999999999
  0
LINE
  8
_0-1_LAYER003
  6
CONTINUOUS
 62
    7
 10
1154.5805
 20
1128.4149
 11
1066.0535
 21
1144.6309000000001
  0
LINE
  8
_0-1_LAYER003
  6
CONTINUOUS
 62
    7
 10
1066.0535
 20
1144.6309000000001
 11
1063.3505
 21
1129.8759
  0
LINE
  8
_0-1_LAYER003
  6
CONTINUOUS
 62
    7
 10
1063.3505
 20
1129.8759
 11
1154.5805
 21
1128.4149
  0
LINE
  8
_0-1_LAYER003
  6
CONTINUOUS
 62
    7
 10
1154.5805
 20
1128.4149
 11
1151.8775000000001
 21
1113.6609000000001
  0
LINE
  8
_0-1_LAYER003
  6
CONTINUOUS
 62
    7
 10
1151.8775000000001
 20
1113.6609000000001
 11
1063.3505
 21
1129.8759
  0
LINE
  8
_0-1_LAYER003
  6
CONTINUOUS
 62
    7
 10
1101.1829
 20
1141.6413
 11
1099.2418
 21
1134.3968
  0
LINE
  8
_0-1_LAYER003
  6
CONTINUOUS
 62
    7
 10
1099.2418
 20
1134.3968
 11
1104.3947276878648
 21
1139.5497276878648
  0
LINE
  8
_0-1_LAYER003
  6
CONTINUOUS
 62
    7
 10
1099.2418
 20
1134.3968
 11
1219.2265
 21
1342.2165
  0
LINE
  8
_0-1_LAYER003
  6
CONTINUOUS
 62
    7
 10
1226.8481999999999
 20
1299.3173999999999
 11
1131.4096999999999
 21
1134.0130999999999
  0
LINE
  8
_0-1_LAYER003
  6
CONTINUOUS
 62
    7
 10
1131.4096999999999
 20
1134.0130999999999
 11
1133.3508999999999
 21
1141.2575999999999
  0
LINE
  8
_0-1_LAYER003
  6
CONTINUOUS
 62
    7
 10
1131.4096999999999
 20
1134.0130999999999
 11
1136.713
 21
1139.3163999999999
  0
LINE
  8
_0-1_LAYER003
  6
CONTINUOUS
 62
    7
 10
1153.6694084579794
 20
1128.4294906471873
 11
1224.4025999999999
 21
1250.943
  0
LINE
  8
_0-1_LAYER003
  6
CONTINUOUS
 62
    7
 10
1228.1523
 20
1213.4905000000001
 11
1144.1703
 21
1068.0293999999999
  0
LINE
  8
_0-1_LAYER003
  6
CONTINUOUS
 62
    7
 10
1144.1703
 20
1068.0293999999999
 11
1146.1114
 21
1075.2737999999999
  0
LINE
  8
_0-1_LAYER003
  6
CONTINUOUS
 62
    7
 10
1144.1703
 20
1068.0293999999999
 11
1149.4736
 21
1073.3326999999999
  0
LINE
  8
_0-1_LAYER003
  6
CONTINUOUS
 62
    7
 10
1087.0826999999999
 20
1266.5603000000001
 11
1085.1415
 21
1259.3158000000001
  0
LINE
  8
_0-1_LAYER003
  6
CONTINUOUS
 62
    7
 10
1085.1415
 20
1259.3158000000001
 11
1090.4448
 21
1264.6190999999999
  0
LINE
  8
_0-1_LAYER003
  6
CONTINUOUS
 62
    7
 10
1085.1415
 20
1259.3158000000001
 11
1167.4173000000001
 21
1401.8217
  0
LINE
  8
_0-1_LAYER003
  6
CONTINUOUS
 62
    7
 10
1643.2921000000001
 20
1031.9985999999999
 11
1641.3510000000001
 21
1024.7541000000001
  0
LINE
  8
_0-1_LAYER003
  6
CONTINUOUS
 62
    7
 10
1641.3510000000001
 20
1024.7541000000001
 11
1646.6543000000001
 21
1030.0573999999999
  0
LINE
  8
_0-1_LAYER003
  6
CONTINUOUS
 62
    7
 10
1643.0542
 20
994.59539999999993
 11
1644.9953999999998
 21
987.35100000000011
  0
LINE
  8
_0-1_LAYER003
  6
CONTINUOUS
 62
    7
 10
1643.0542
 20
994.59539999999993
 11
1648.3575000000001
 21
989.29209999999989
  0
LINE
  8
_0-1_LAYER003
  6
CONTINUOUS
 62
    7
 10
1643.0542
 20
994.59539999999993
 11
1824.2944000000002
 21
680.67820000000006
  0
LINE
  8
_0-1_LAYER003
  6
CONTINUOUS
 62
    7
 10
1685.4965000000002
 20
967.32220000000007
 11
1685.4965000000002
 21
907.32220000000007
  0
LINE
  8
_0-1_LAYER003
  6
CONTINUOUS
 62
    7
 10
1685.4965000000002
 20
907.32220000000007
 11
1625.4965000000002
 21
907.32220000000007
  0
LINE
  8
_0-1_LAYER003
  6
CONTINUOUS
 62
    7
 10
1625.4965000000002
 20
907.32220000000007
 11
1625.4965000000002
 21
967.32220000000007
  0
LINE
  8
_0-1_LAYER003
  6
CONTINUOUS
 62
    7
 10
1625.4965000000002
 20
907.32220000000007
 11
1685.4965000000002
 21
967.32220000000007
  0
LINE
  8
_0-1_LAYER003
  6
CONTINUOUS
 62
    7
 10
1928.4965000000002
 20
907.32220000000007
 11
1988.4965
 21
967.32220000000007
  0
LINE
  8
_0-1_LAYER003
  6
CONTINUOUS
 62
    7
 10
1641.3510000000001
 20
1024.7541000000001
 11
1688.2420999999999
 21
1105.9718
  0
LINE
  8
_0-1_LAYER003
  6
CONTINUOUS
 62
    7
 10
1688.2420999999999
 20
1105.9718
 11
1728.7420999999999
 21
1105.9718
  0
LINE
  8
_0-1_LAYER003
  6
CONTINUOUS
 62
    7
 10
1806.7073999999998
 20
1129.5054
 11
1806.7073999999998
 21
1181.2054000000001
  0
LINE
  8
_0-1_LAYER003
  6
CONTINUOUS
 62
    7
 10
1551.7073999999998
 20
1129.5054
 11
1551.7073999999998
 21
1182.0054
  0
ARC
  8
_0-1_LAYER003
  6
CONTINUOUS
 62
    7
 10
1160.0650590785947
 20
1088.8470993329433
 40
12.854029926106032
 50
166.11560168679372
 51
210.31283602799351
  0
ARC
  8
_0-1_LAYER003
  6
CONTINUOUS
 62
    7
 10
1288.8290872850489
 20
1073.994144880864
 40
139.91414728455879
 50
183.84037997056987
 51
199.05116794545654
  0
LINE
  8
_0-0_LAYER001
  6
CONTINUOUS
 62
    2
 10
919.19428142829304
 20
1279.3232
 11
919.19428142829304
 21
979.32220000000007
  0
LINE
  8
_0-0_LAYER001
  6
CONTINUOUS
 62
    2
 10
916.69428142829304
 20
1279.3232
 11
994.19428142829304
 21
1279.3232
  0
CIRCLE
  8
_0-0_LAYER001
  6
CONTINUOUS
 62
    2
 10
919.19428142829304
 20
1279.3232
 40
1.6999999999999997
  0
LINE
  8
_0-1_LAYER003
  6
CONTINUOUS
 62
    7
 10
917.49428142829311
 20
1279.3232
 11
994.19428142829304
 21
1279.3232
  0
LINE
  8
_0-1_LAYER003
  6
CONTINUOUS
 62
    7
 10
919.19428142829304
 20
979.32220000000007
 11
919.19428142829304
 21
1279.3232
  0
TEXT
  8
_0-0_LAYER001
 62
    7
 10
1167.4173000000001
 20
1404.3216999999995
 40
20
 41
1
 50
0
  1
外壁　防火サイディング
  0
TEXT
  8
_0-0_LAYER001
 62
    7
 10
966.45420000000001
 20
1292.1647999999996
 40
20
 41
1
 50
0
  1
胴　縁
  0
TEXT
  8
_0-0_LAYER001
 62
    7
 10
1224.4025999999999
 20
1253.4429999999995
 40
20
 41
1
 50
0
  1
熨斗瓦２段積み
  0
TEXT
  8
_0-0_LAYER001
 62
    7
 10
1807.0509000000002
 20
713.04479999999955
 40
20
 41
1
 50
0
  1
　野地板：杉ｔ＝１２
  0
TEXT
  8
_0-0_LAYER001
 62
    7
 10
1824.2944
 20
683.17819999999961
 40
20
 41
1
 50
0
  1
　垂木
  0
TEXT
  8
_0-0_LAYER001
 62
    7
 10
1219.2265
 20
1344.7164999999995
 40
20
 41
1
 50
0
  1
笠木：１５ｘ９０
  0
TEXT
  8
_0-0_LAYER001
 62
    7
 10
1228.1523
 20
1215.9905000000001
 40
20
 41
1
 50
0
  1
葺　土
  0
TEXT
  8
_0-0_LAYER001
 62
    7
 10
1772.3659
 20
773.12099999999964
 40
20
 41
1
 50
0
  1
　瓦桟：１５ｘ３０以上
  0
TEXT
  8
_0-0_LAYER001
 62
    7
 10
1684.4042804414839
 20
1112.5350898476765
 40
20
 41
1
 50
0
  1
桟　瓦
  0
TEXT
  8
_0-0_LAYER001
 62
    7
 10
1414.6677070352066
 20
1197.92870341926
 40
20
 41
1
 50
0
  1
255
  0
TEXT
  8
_0-0_LAYER001
 62
    7
 10
1666.7424517641489
 20
1197.6001698014368
 40
20
 41
1
 50
0
  1
255
  0
TEXT
  8
_0-0_LAYER001
 62
    7
 10
1919.916935786556
 20
1197.6001698014368
 40
20
 41
1
 50
0
  1
255
  0
TEXT
  8
_0-0_LAYER001
 62
    7
 10
1119.4763953924801
 20
1233.4026220874334
 40
20
 41
1
 50
0
  1
75
  0
TEXT
  8
_0-4_LAYER006
 62
    7
 10
945.45749999999998
 20
1189.2956000000001
 40
20
 41
1
 50
0
  1
30x30
  0
TEXT
  8
_0-0_LAYER001
 62
    7
 10
995.45881069251504
 20
1022.7663007220794
 40
20
 41
1
 50
90
  1
115
  0
TEXT
  8
_0-0_LAYER001
 62
    7
 10
866.30191137007296
 20
1207.8294418831501
 40
20
 41
1
 50
90
  1
150
  0
TEXT
  8
_0-0_LAYER001
 62
    7
 10
867.58057038028699
 20
1049.275724616592
 40
20
 41
1
 50
90
  1
165
  0
TEXT
  8
_0-2_LAYER004
 62
    7
 10
815.20937063578231
 20
1058.0464405873781
 40
20
 41
1
 50
90
  1
水切り立上がり寸法
  0
TEXT
  8
_0-1_LAYER003
 62
    7
 10
909.325826552781
 20
1041.1897619156771
 40
20
 41
1
 50
90
  1
下葺き材立上がり寸法
  0
TEXT
  8
_0-0_LAYER001
 62
    7
 10
774.47239717917091
 20
882.45603775715699
 40
20
 41
1
 50
0
  1
下地材：１５ｘ１０５　
  0
TEXT
  8
_0-0_LAYER001
 62
    7
 10
1789.6754000000001
 20
743.14009999999962
 40
20
 41
1
 50
0
  1
　下葺材：ルーフィング
  0
TEXT
  8
_0-0_LAYER001
 62
    7
 10
1226.8481999999999
 20
1301.8173999999997
 40
20
 41
1
 50
0
  1
雨押水切カラー鋼板0.35mm以上
  0
TEXT
  8
_0-0_LAYER001
 62
    7
 10
1244.4005999999999
 20
803.60499999999956
 40
20
 41
1
 50
0
  1
捨谷カラー鋼板0.35mmｍ以上
  0
TEXT
  8
_0-0_LAYER001
 62
    7
 10
958.49113934524303
 20
1125.4731552741832
 40
20
 41
1
 50
90
  1
300
  0
ENDSEC
  0
EOF
