  0
SECTION
  2
HEADER
  9
$ACADVER
  1
AC1009
  9
$INSBASE
 10
0
 20
0
 30
0
  9
$EXTMIN
 10
0
 20
0
  9
$EXTMAX
 10
2970
 20
2100
  9
$LIMMIN
 10
0
 20
0
  9
$LIMMAX
 10
2970
 20
2100
  9
$LTSCALE
 40
10
  0
ENDSEC
  0
SECTION
  2
TABLES
  0
TABLE
  2
LTYPE
 70
     9
  0
LTYPE
  2
CONTINUOUS
 70
    64
  3
実線
 72
    65
 73
     0
 40
0.0
  0
LTYPE
  2
DASHED1
 70
    64
  3
--  --  --  --  --  --  --  --  
 72
    65
 73
     2
 40
2.5
 49
1.25
 49
-1.25
  0
LTYPE
  2
DASHED2
 70
    64
  3
----    ----    ----    ----    
 72
    65
 73
     2
 40
5.0
 49
2.5
 49
-2.5
  0
LTYPE
  2
DASHED3
 70
    64
  3
------  ------  ------  ------  
 72
    65
 73
     2
 40
5.0
 49
3.75
 49
-1.25
  0
LTYPE
  2
CENTER1
 70
    64
  3
----- - ----- - ----- - ----- - 
 72
    65
 73
     4
 40
10.0
 49
6.25
 49
-1.25
 49
1.25
 49
-1.25
  0
LTYPE
  2
CENTER2
 70
    64
  3
----------  --  ----------  --  
 72
    65
 73
     4
 40
20.0
 49
12.5
 49
-2.5
 49
2.5
 49
-2.5
  0
LTYPE
  2
PHANTOM1
 70
    64
  3
--- - - --- - - --- - - --- - - 
 72
    65
 73
     6
 40
10.0
 49
3.25
 49
-1.25
 49
1.25
 49
-1.25
 49
1.25
 49
-1.25
  0
LTYPE
  2
PHANTOM2
 70
    64
  3
--------  -  -  --------  -  -  
 72
    65
 73
     6
 40
20.0
 49
10.0
 49
-2.5
 49
1.25
 49
-2.5
 49
1.25
 49
-2.5
  0
LTYPE
  2
DOT
 70
    64
  3
-   -   -   -   -   -   -   -   
 72
    65
 73
     2
 40
2.5
 49
0.625
 49
-1.875
  0
LTYPE
  2
DUMMY
 70
    64
  3
ダミー
 72
    65
 73
     0
 40
0.0
  0
LTYPE
  2
RAND1
 70
    64
  3
ランダム線1
 72
    65
 73
     4
 40
10.0
 49
1.0
 49
-2.0
 49
3.0
 49
-4.0
  0
LTYPE
  2
RAND2
 70
    64
  3
ランダム線2
 72
    65
 73
     4
 40
14.0
 49
2.0
 49
-3.0
 49
4.0
 49
-5.0
  0
LTYPE
  2
RAND3
 70
    64
  3
ランダム線3
 72
    65
 73
     4
 40
18.0
 49
3.0
 49
-4.0
 49
5.0
 49
-6.0
  0
LTYPE
  2
RAND4
 70
    64
  3
ランダム線4
 72
    65
 73
     4
 40
22.0
 49
4.0
 49
-5.0
 49
6.0
 49
-7.0
  0
LTYPE
  2
RAND5
 70
    64
  3
ランダム線5
 72
    65
 73
     4
 40
26.0
 49
5.0
 49
-6.0
 49
7.0
 49
-8.0
  0
LTYPE
  2
LONG1
 70
    64
  3
----------  --  ----------  --  
 72
    65
 73
     4
 40
40.0
 49
32.5
 49
-2.5
 49
2.5
 49
-2.5
  0
LTYPE
  2
LONG2
 70
    64
  3
--------  -  -  --------  -  -  
 72
    65
 73
     6
 40
40.0
 49
30.0
 49
-2.5
 49
1.25
 49
-2.5
 49
1.25
 49
-2.5
  0
LTYPE
  2
LONG3
 70
    64
  3
+++++++++++++++..+++++++++++++++
 72
    65
 73
     2
 40
40.0
 49
37.5
 49
-2.5
  0
LTYPE
  2
LONG4
 70
    64
  3
+++++++++++++++..+++++++++++++++
 72
    65
 73
     2
 40
80.0
 49
75.0
 49
-5.0
  0
LTYPE
  2
LONG5
 70
    64
  3
----------  --  ----------  --  
 72
    65
 73
     4
 40
60.0
 49
37.5
 49
-7.5
 49
7.5
 49
-7.5
  0
LTYPE
  2
dashed
 70
   64
  3
-------   -------------   ------
 72
   65
 73
    2
 40
7.5
 49
6
 49
-1.5
  0
LTYPE
  2
dashed_spaced
 70
   64
  3
----        --------        ----
 72
   65
 73
    2
 40
12
 49
6
 49
-6
  0
LTYPE
  2
long_dashed_dotted
 70
   64
  3
------------- --- --------------
 72
   65
 73
    4
 40
15.25
 49
12
 49
-1.5
 49
0.25
 49
-1.5
  0
LTYPE
  2
long_dashed_double-dotted
 70
   64
  3
----------- --- --- ------------
 72
   65
 73
    6
 40
17
 49
12
 49
-1.5
 49
0.25
 49
-1.5
 49
0.25
 49
-1.5
  0
LTYPE
  2
long_dashed_triplicate-dotted
 70
   64
  3
--------- --- --- --- ----------
 72
   65
 73
    8
 40
18.75
 49
12
 49
-1.5
 49
0.25
 49
-1.5
 49
0.25
 49
-1.5
 49
0.25
 49
-1.5
  0
LTYPE
  2
dotted
 70
   64
  3
   -       -       -       -    
 72
   65
 73
    2
 40
1.75
 49
0.25
 49
-1.5
  0
LTYPE
  2
chain
 70
   64
  3
-------------- -- --------------
 72
   65
 73
    4
 40
18.5
 49
12
 49
-1.5
 49
3.5
 49
-1.5
  0
LTYPE
  2
chain_double_dash
 70
   64
  3
------------ -- -- -------------
 72
   65
 73
    6
 40
23.5
 49
12
 49
-1.5
 49
3.5
 49
-1.5
 49
3.5
 49
-1.5
  0
LTYPE
  2
dashed_dotted
 70
   64
  3
-----------     -     ----------
 72
   65
 73
    4
 40
9.25
 49
6
 49
-1.5
 49
0.25
 49
-1.5
  0
LTYPE
  2
double-dashed_dotted
 70
   64
  3
------   -----------   -   -----
 72
   65
 73
    6
 40
16.75
 49
6
 49
-1.5
 49
6
 49
-1.5
 49
0.25
 49
-1.5
  0
LTYPE
  2
dashed_double-dotted
 70
   64
  3
---------    -    -    ---------
 72
   65
 73
    6
 40
11
 49
6
 49
-1.5
 49
0.25
 49
-1.5
 49
0.25
 49
-1.5
  0
LTYPE
  2
double-dashed_double-dotted
 70
   64
  3
-----   ---------   -   -   ----
 72
   65
 73
    8
 40
18.5
 49
6
 49
-1.5
 49
6
 49
-1.5
 49
0.25
 49
-1.5
 49
0.25
 49
-1.5
  0
LTYPE
  2
dashed_triplicate-dotted
 70
   64
  3
-------    -    -    -    ------
 72
   65
 73
    8
 40
12.75
 49
6
 49
-1.5
 49
0.25
 49
-1.5
 49
0.25
 49
-1.5
 49
0.25
 49
-1.5
  0
LTYPE
  2
double-dashed_triplicate-dotted
 70
   64
  3
-----  ---------  -  -  -  -----
 72
   65
 73
   10
 40
20.25
 49
6
 49
-1.5
 49
6
 49
-1.5
 49
0.25
 49
-1.5
 49
0.25
 49
-1.5
 49
0.25
 49
-1.5
  0
LTYPE
  2
undefined
 70
   64
  3
--------------------------------
 72
   65
 73
    0
 40
0
  0
ENDTAB
  0
TABLE
  2
STYLE
  5
3
100
AcDbSymbolTable
 70
     1
  0
STYLE
  5
10
100
AcDbSymbolTableRecord
100
AcDbTextStyleTableRecord
  2
STANDARD
 70
     0
 40
0.0
 41
1.0
 50
0.0
 71
     0
 42
0.2
  3
txt
  4
bigfont.shx
  0
STYLE
  5
26
100
AcDbSymbolTableRecord
100
AcDbTextStyleTableRecord
  2
TATEGAKI
 70
    68
 40
0.0
 41
1.0
 50
0.0
 71
     0
 42
1.0
  3
txt
  4
bigfont.shx
  0
ENDTAB
  0
TABLE
  2
LAYER
 70
    6
  0
LAYER
  2
_0-0_LAYER001
 70
   64
 62
    7
  6
CONTINUOUS
  0
LAYER
  2
_0-1_LAYER003
 70
   64
 62
    7
  6
CONTINUOUS
  0
LAYER
  2
_0-2_LAYER004
 70
   64
 62
    7
  6
CONTINUOUS
  0
LAYER
  2
_0-3_LAYER006
 70
   64
 62
    7
  6
CONTINUOUS
  0
LAYER
  2
_0-4_LAYER007
 70
   64
 62
    7
  6
CONTINUOUS
  0
LAYER
  2
ADD_LINE
 70
   64
 62
    7
  6
CONTINUOUS
  0
ENDTAB
  0
ENDSEC
  0
SECTION
  2
BLOCKS
  0
ENDSEC
  0
SECTION
  2
ENTITIES
  0
LINE
  8
_0-0_LAYER001
  6
CONTINUOUS
 62
    2
 10
1778.7177999999999
 20
979.99610000000007
 11
1784.0210999999999
 21
985.29940000000011
  0
LINE
  8
_0-0_LAYER001
  6
CONTINUOUS
 62
    2
 10
1784.0210999999999
 20
985.29940000000011
 11
1782.0799999999999
 21
978.05500000000006
  0
LINE
  8
_0-0_LAYER001
  6
CONTINUOUS
 62
    2
 10
1784.0210999999999
 20
985.29940000000011
 11
1691.0758999999998
 21
824.31359999999995
  0
LINE
  8
_0-0_LAYER001
  6
CONTINUOUS
 62
    2
 10
1691.0758999999998
 20
824.31359999999995
 11
1490.0758999999998
 21
824.31359999999995
  0
LINE
  8
_0-0_LAYER001
  6
CONTINUOUS
 62
    2
 10
1850.1196
 20
1070.2462
 11
1845.3885
 21
1063.0998999999999
  0
LINE
  8
_0-0_LAYER001
  6
CONTINUOUS
 62
    2
 10
1852.6505999999999
 20
1074.5147999999999
 11
1867.6505999999999
 21
984.6733999999999
  0
LINE
  8
_0-0_LAYER001
  6
CONTINUOUS
 62
    2
 10
1807.1541000000002
 20
1120.1585
 11
1809.0953
 21
1112.914
  0
LINE
  8
_0-0_LAYER001
  6
CONTINUOUS
 62
    2
 10
1809.0953
 20
1112.914
 11
1803.7919999999999
 21
1118.2173
  0
LINE
  8
_0-0_LAYER001
  6
CONTINUOUS
 62
    2
 10
1809.0953
 20
1112.914
 11
1738.0551999999998
 21
1235.9591
  0
LINE
  8
_0-0_LAYER001
  6
CONTINUOUS
 62
    2
 10
1738.0551999999998
 20
1235.9591
 11
1504.0551999999998
 21
1235.9591
  0
LINE
  8
_0-0_LAYER001
  6
CONTINUOUS
 62
    2
 10
1841.3564999999999
 20
1297.7277999999999
 11
1843.2977000000001
 21
1290.4834000000001
  0
LINE
  8
_0-0_LAYER001
  6
CONTINUOUS
 62
    2
 10
1843.2977000000001
 20
1290.4834000000001
 11
1837.9944
 21
1295.7867000000001
  0
LINE
  8
_0-0_LAYER001
  6
CONTINUOUS
 62
    2
 10
1843.2977000000001
 20
1290.4834000000001
 11
1782.2220000000002
 21
1396.2695000000003
  0
LINE
  8
_0-0_LAYER001
  6
CONTINUOUS
 62
    2
 10
1782.2220000000002
 20
1396.2695000000003
 11
1609.7220000000002
 21
1396.2695000000003
  0
LINE
  8
_0-3_LAYER006
  6
CONTINUOUS
 62
    2
 10
1864.1437999999998
 20
1095.9521999999999
 11
1858.8404999999998
 21
1090.6488999999999
  0
LINE
  8
_0-3_LAYER006
  6
CONTINUOUS
 62
    2
 10
1858.8404999999998
 20
1090.6488999999999
 11
1860.7817
 21
1097.8933999999999
  0
LINE
  8
_0-3_LAYER006
  6
CONTINUOUS
 62
    2
 10
1858.8404999999998
 20
1090.6488999999999
 11
1896.0038
 21
1155.0175999999999
  0
LINE
  8
_0-3_LAYER006
  6
CONTINUOUS
 62
    2
 10
1896.0038
 20
1155.0175999999999
 11
1977.0038
 21
1155.0175999999999
  0
LINE
  8
_0-0_LAYER001
  6
CONTINUOUS
 62
    2
 10
1860.5100000000002
 20
1178.0050000000001
 11
1862.4511000000002
 21
1170.7606000000001
  0
LINE
  8
_0-0_LAYER001
  6
CONTINUOUS
 62
    2
 10
1862.4511000000002
 20
1170.7606000000001
 11
1857.1478000000002
 21
1176.0639000000001
  0
LINE
  8
_0-0_LAYER001
  6
CONTINUOUS
 62
    2
 10
1862.4511000000002
 20
1170.7606000000001
 11
1767.7020000000002
 21
1334.8708999999999
  0
LINE
  8
_0-0_LAYER001
  6
CONTINUOUS
 62
    2
 10
1767.7020000000002
 20
1334.8708999999999
 11
1727.2020000000002
 21
1334.8708999999999
  0
LINE
  8
_0-0_LAYER001
  6
CONTINUOUS
 62
    2
 10
1862.2190000000001
 20
1003.6039000000001
 11
1860.2777999999998
 21
1010.8484000000001
  0
LINE
  8
_0-0_LAYER001
  6
CONTINUOUS
 62
    2
 10
1860.2777999999998
 20
1010.8484000000001
 11
1865.5810999999999
 21
1005.5451
  0
LINE
  8
_0-0_LAYER001
  6
CONTINUOUS
 62
    2
 10
1860.2777999999998
 20
1010.8484000000001
 11
1921.0707000000002
 21
905.55199999999991
  0
LINE
  8
_0-0_LAYER001
  6
CONTINUOUS
 62
    2
 10
1921.0707000000002
 20
905.55199999999991
 11
2084.5707000000002
 21
905.55199999999991
  0
LINE
  8
_0-0_LAYER001
  6
CONTINUOUS
 62
    2
 10
2108.6695
 20
980.42740000000003
 11
2056.1695
 21
980.42740000000003
  0
CIRCLE
  8
_0-0_LAYER001
  6
CONTINUOUS
 62
    2
 10
2106.1695
 20
980.42740000000003
 40
1.6999999999999997
  0
LINE
  8
_0-0_LAYER001
  6
CONTINUOUS
 62
    2
 10
2106.1695
 20
980.42740000000003
 11
2106.1695
 21
1124.7911999999999
  0
CIRCLE
  8
_0-0_LAYER001
  6
CONTINUOUS
 62
    2
 10
2106.1695
 20
1124.7911999999999
 40
1.6999999999999997
  0
LINE
  8
_0-0_LAYER001
  6
CONTINUOUS
 62
    2
 10
2108.6695
 20
1124.7911999999999
 11
2056.1695
 21
1124.7911999999999
  0
CIRCLE
  8
_0-0_LAYER001
  6
CONTINUOUS
 62
    2
 10
2106.1695
 20
1124.7911999999999
 40
1.6999999999999997
  0
LINE
  8
_0-0_LAYER001
  6
CONTINUOUS
 62
    2
 10
2106.1695
 20
1124.7911999999999
 11
2106.1695
 21
1274.7911999999999
  0
CIRCLE
  8
_0-0_LAYER001
  6
CONTINUOUS
 62
    2
 10
2106.1695
 20
1274.7911999999999
 40
1.6999999999999997
  0
LINE
  8
_0-0_LAYER001
  6
CONTINUOUS
 62
    2
 10
2108.6695
 20
1274.7911999999999
 11
2056.1695
 21
1274.7911999999999
  0
CIRCLE
  8
_0-3_LAYER006
  6
CONTINUOUS
 62
    2
 10
2024.0491000000002
 20
1280.4284000000002
 40
1.6999999999999997
  0
LINE
  8
_0-3_LAYER006
  6
CONTINUOUS
 62
    2
 10
2024.0491000000002
 20
1280.4284000000002
 11
2024.0491000000002
 21
980.42740000000003
  0
CIRCLE
  8
_0-3_LAYER006
  6
CONTINUOUS
 62
    2
 10
2024.0491000000002
 20
980.42740000000003
 40
1.6999999999999997
  0
LINE
  8
_0-3_LAYER006
  6
CONTINUOUS
 62
    2
 10
2026.5491000000002
 20
1280.4284000000002
 11
1974.0491000000002
 21
1280.4284000000002
  0
LINE
  8
_0-3_LAYER006
  6
CONTINUOUS
 62
    2
 10
2026.5491000000002
 20
980.42740000000003
 11
1974.0491000000002
 21
980.42740000000003
  0
LINE
  8
_0-3_LAYER006
  6
CONTINUOUS
 62
    2
 10
1872.4566
 20
1104.5147999999999
 11
1856.1269000000002
 21
1104.5147999999999
  0
LINE
  8
_0-3_LAYER006
  6
CONTINUOUS
 62
    2
 10
1842.4566
 20
1102.0107
 11
1842.4566
 21
1074.5147999999999
  0
LINE
  8
_0-3_LAYER006
  6
CONTINUOUS
 62
    2
 10
1842.4566
 20
1074.5147999999999
 11
1872.4566
 21
1074.5147999999999
  0
LINE
  8
_0-3_LAYER006
  6
CONTINUOUS
 62
    2
 10
1872.4566
 20
1074.5147999999999
 11
1872.4566
 21
1104.5147999999999
  0
LINE
  8
_0-3_LAYER006
  6
CONTINUOUS
 62
    2
 10
1872.4566
 20
1104.5147999999999
 11
1842.4566
 21
1074.5147999999999
  0
LINE
  8
_0-0_LAYER001
  6
CONTINUOUS
 62
    2
 10
1762.4566
 20
1190.5709999999999
 11
1762.4566
 21
1173.0709999999999
  0
CIRCLE
  8
_0-0_LAYER001
  6
CONTINUOUS
 62
    2
 10
1762.4566
 20
1188.0709999999999
 40
1.6999999999999997
  0
LINE
  8
_0-0_LAYER001
  6
CONTINUOUS
 62
    2
 10
1762.4566
 20
1188.0709999999999
 11
1837.4566
 21
1188.0709999999999
  0
CIRCLE
  8
_0-0_LAYER001
  6
CONTINUOUS
 62
    2
 10
1837.4566
 20
1188.0709999999999
 40
1.6999999999999997
  0
LINE
  8
_0-0_LAYER001
  6
CONTINUOUS
 62
    2
 10
1837.4566
 20
1190.5709999999999
 11
1837.4566
 21
1173.0709999999999
  0
LINE
  8
_0-0_LAYER001
  6
CONTINUOUS
 62
    2
 10
1967.5472
 20
980.42740000000003
 11
1915.0472
 21
980.42740000000003
  0
CIRCLE
  8
_0-0_LAYER001
  6
CONTINUOUS
 62
    2
 10
1965.0472
 20
980.42740000000003
 40
1.6999999999999997
  0
LINE
  8
_0-0_LAYER001
  6
CONTINUOUS
 62
    2
 10
1965.0472
 20
980.42740000000003
 11
1965.0472
 21
1074.5147999999999
  0
CIRCLE
  8
_0-0_LAYER001
  6
CONTINUOUS
 62
    2
 10
1965.0472
 20
1074.5147999999999
 40
1.6999999999999997
  0
LINE
  8
_0-0_LAYER001
  6
CONTINUOUS
 62
    2
 10
1967.5472
 20
1074.5147999999999
 11
1915.0472
 21
1074.5147999999999
  0
LINE
  8
_0-0_LAYER001
  6
CONTINUOUS
 62
    2
 10
1493.0171
 20
1015.5232000000001
 11
1494.9582999999998
 21
1008.2788
  0
LINE
  8
_0-0_LAYER001
  6
CONTINUOUS
 62
    2
 10
1494.9582999999998
 20
1008.2788
 11
1489.6550000000002
 21
1013.5821000000001
  0
LINE
  8
_0-0_LAYER001
  6
CONTINUOUS
 62
    2
 10
1494.9582999999998
 20
1008.2788
 11
1454.4187000000002
 21
1078.4953
  0
LINE
  8
_0-0_LAYER001
  6
CONTINUOUS
 62
    2
 10
1454.4187000000002
 20
1078.4953
 11
1413.9186999999997
 21
1078.4953
  0
LINE
  8
_0-0_LAYER001
  6
CONTINUOUS
 62
    2
 10
1180.8672999999999
 20
716.09699999999998
 11
1009.1958999999999
 21
716.09699999999998
  0
LINE
  8
_0-0_LAYER001
  6
CONTINUOUS
 62
    2
 10
1198.2428
 20
746.19229999999993
 11
952.24279999999999
 21
746.19229999999993
  0
LINE
  8
_0-0_LAYER001
  6
CONTINUOUS
 62
    2
 10
1163.6238000000001
 20
686.23039999999992
 11
1101.6511
 21
686.23039999999992
  0
LINE
  8
_0-0_LAYER001
  6
CONTINUOUS
 62
    2
 10
1833.7143999999998
 20
1118.1705999999999
 11
1835.6556
 21
1110.9260999999999
  0
LINE
  8
_0-0_LAYER001
  6
CONTINUOUS
 62
    2
 10
1835.6556
 20
1110.9260999999999
 11
1830.3523
 21
1116.2293999999999
  0
LINE
  8
_0-0_LAYER001
  6
CONTINUOUS
 62
    2
 10
1835.6556
 20
1110.9260999999999
 11
1737.7869999999998
 21
1280.4395
  0
LINE
  8
_0-0_LAYER001
  6
CONTINUOUS
 62
    2
 10
1737.7869999999998
 20
1280.4395
 11
1590.7869999999998
 21
1280.4395
  0
LINE
  8
_0-0_LAYER001
  6
CONTINUOUS
 62
    2
 10
1339.5607
 20
994.84439999999995
 11
1344.864
 21
1000.1477
  0
LINE
  8
_0-0_LAYER001
  6
CONTINUOUS
 62
    2
 10
1344.864
 20
1000.1477
 11
1342.9229
 21
992.90319999999997
  0
LINE
  8
_0-0_LAYER001
  6
CONTINUOUS
 62
    2
 10
1344.864
 20
1000.1477
 11
1163.6238000000001
 21
686.23039999999992
  0
LINE
  8
_0-0_LAYER001
  6
CONTINUOUS
 62
    2
 10
1215.5524
 20
776.17329999999993
 11
1027.2962
 21
776.17329999999993
  0
LINE
  8
_0-0_LAYER001
  6
CONTINUOUS
 62
    2
 10
1041.0371
 20
1201.7724000000001
 11
1041.0371
 21
1149.2724000000001
  0
CIRCLE
  8
_0-0_LAYER001
  6
CONTINUOUS
 62
    2
 10
1041.0371
 20
1199.2724000000001
 40
1.6999999999999997
  0
LINE
  8
_0-0_LAYER001
  6
CONTINUOUS
 62
    2
 10
1041.0371
 20
1199.2724000000001
 11
1296.0371
 21
1199.2724000000001
  0
CIRCLE
  8
_0-0_LAYER001
  6
CONTINUOUS
 62
    2
 10
1296.0371
 20
1199.2724000000001
 40
1.6999999999999997
  0
LINE
  8
_0-0_LAYER001
  6
CONTINUOUS
 62
    2
 10
1296.0371
 20
1201.7724000000001
 11
1296.0371
 21
1149.2724000000001
  0
CIRCLE
  8
_0-0_LAYER001
  6
CONTINUOUS
 62
    2
 10
1296.0371
 20
1199.2724000000001
 40
1.6999999999999997
  0
LINE
  8
_0-0_LAYER001
  6
CONTINUOUS
 62
    2
 10
1296.0371
 20
1199.2724000000001
 11
1551.0371
 21
1199.2724000000001
  0
CIRCLE
  8
_0-0_LAYER001
  6
CONTINUOUS
 62
    2
 10
1551.0371
 20
1199.2724000000001
 40
1.6999999999999997
  0
LINE
  8
_0-0_LAYER001
  6
CONTINUOUS
 62
    2
 10
1551.0371
 20
1201.7724000000001
 11
1551.0371
 21
1149.2724000000001
  0
ARC
  8
_0-0_LAYER001
  6
CONTINUOUS
 62
    4
 10
969.54649999999992
 20
1214.2636
 40
214.38050999999999
 50
233.99995999999999
 51
268.38173
  0
ARC
  8
_0-0_LAYER001
  6
CONTINUOUS
 62
    4
 10
1024.0156999999999
 20
1030.7610999999999
 40
52.178303999999997
 50
215.53766999999999
 51
234.46232000000001
  0
ARC
  8
_0-0_LAYER001
  6
CONTINUOUS
 62
    4
 10
997.6869999999999
 20
993.05729999999994
 40
6.2695089999999993
 50
234.10575000000003
 51
303.29033000000004
  0
ARC
  8
_0-0_LAYER001
  6
CONTINUOUS
 62
    4
 10
966.22620000000006
 20
1037.0633
 40
58.841383
 50
213.2508
 51
234.31144
  0
ARC
  8
_0-0_LAYER001
  6
CONTINUOUS
 62
    4
 10
936.35059999999999
 20
995.90599999999995
 40
7.947610000000001
 50
234.52014000000003
 51
301.23766000000001
  0
ARC
  8
_0-0_LAYER001
  6
CONTINUOUS
 62
    4
 10
919.84909999999991
 20
1028.3752999999999
 40
44.132803000000003
 50
297.62160999999998
 51
318.23129999999998
  0
ARC
  8
_0-0_LAYER001
  6
CONTINUOUS
 62
    4
 10
969.54649999999992
 20
1214.2636
 40
199.38050999999999
 50
231.7756
 51
268.38173
  0
ARC
  8
_0-0_LAYER001
  6
CONTINUOUS
 62
    4
 10
969.54649999999992
 20
1214.2636
 40
199.38050999999999
 50
231.7756
 51
268.38173
  0
ARC
  8
_0-0_LAYER001
  6
CONTINUOUS
 62
    4
 10
969.54649999999992
 20
1214.2636
 40
197.38050999999999
 50
231.7756
 51
268.38173
  0
ARC
  8
_0-0_LAYER001
  6
CONTINUOUS
 62
    4
 10
969.54649999999992
 20
1214.2636
 40
182.38050999999999
 50
231.7756
 51
268.38173
  0
ARC
  8
_0-0_LAYER001
  6
CONTINUOUS
 62
    4
 10
969.54649999999992
 20
1214.2636
 40
214.38050999999999
 50
233.99995999999999
 51
268.38173
  0
ARC
  8
_0-0_LAYER001
  6
CONTINUOUS
 62
    4
 10
830.96060000000011
 20
1036.8706
 40
27.732966999999999
 50
54.176177000000003
 51
63.033442000000008
  0
ARC
  8
_0-0_LAYER001
  6
CONTINUOUS
 62
    4
 10
831.30850000000009
 20
1039.144
 40
40.679594999999999
 50
51.535313000000002
 51
72.506515000000007
  0
ARC
  8
_0-0_LAYER001
  6
CONTINUOUS
 62
    4
 10
830.94699999999989
 20
1036.3726999999999
 40
26.213477999999995
 50
54.56426900000001
 51
61.296635000000009
  0
ARC
  8
_0-0_LAYER001
  6
CONTINUOUS
 62
    4
 10
946.1579999999999
 20
1030.8784000000001
 40
69.674484000000007
 50
321.65733
 51
337.34946000000002
  0
ARC
  8
_0-0_LAYER001
  6
CONTINUOUS
 62
    4
 10
960.00289999999995
 20
1307.1507999999999
 40
307.27562
 50
270.90795000000003
 51
293.21983
  0
ARC
  8
_0-0_LAYER001
  6
CONTINUOUS
 62
    4
 10
960.00289999999995
 20
1307.1507999999999
 40
275.27562
 50
270.90795000000003
 51
287.11988000000002
  0
ARC
  8
_0-0_LAYER001
  6
CONTINUOUS
 62
    4
 10
960.00289999999995
 20
1307.1507999999999
 40
292.27562
 50
270.90795000000003
 51
292.69346000000002
  0
LINE
  8
_0-0_LAYER001
  6
CONTINUOUS
 62
    4
 10
1072.7630999999999
 20
1039.9273000000001
 11
1072.7630999999999
 21
1037.5026
  0
LINE
  8
_0-0_LAYER001
  6
CONTINUOUS
 62
    4
 10
1081.1494
 20
1024.7648999999999
 11
1081.1494
 21
1043.0722000000001
  0
LINE
  8
_0-0_LAYER001
  6
CONTINUOUS
 62
    4
 10
1072.7630999999999
 20
1039.9273000000001
 11
1081.1494
 21
1043.0722000000001
  0
ARC
  8
_0-0_LAYER001
  6
CONTINUOUS
 62
    4
 10
960.00289999999995
 20
1307.1507999999999
 40
290.27562
 50
270.90795000000003
 51
286.23334
  0
LINE
  8
_0-0_LAYER001
  6
CONTINUOUS
 62
    4
 10
1041.1494
 20
1028.4482
 11
1041.1494
 21
1044.1072999999999
  0
ARC
  8
_0-0_LAYER001
  6
CONTINUOUS
 62
    4
 10
1224.4333999999999
 20
1213.8671999999999
 40
214.38050999999999
 50
231.7756
 51
268.38173
  0
LINE
  8
_0-0_LAYER001
  6
CONTINUOUS
 62
    4
 10
1045.0418
 20
1029.462
 11
1081.2318
 21
1045.6181999999999
  0
ARC
  8
_0-0_LAYER001
  6
CONTINUOUS
 62
    4
 10
1278.9025999999999
 20
1030.3647000000001
 40
52.178303999999997
 50
215.53766999999999
 51
234.46232000000001
  0
ARC
  8
_0-0_LAYER001
  6
CONTINUOUS
 62
    4
 10
1252.5739000000001
 20
992.66090000000008
 40
6.2695089999999993
 50
234.10575000000003
 51
303.29033000000004
  0
ARC
  8
_0-0_LAYER001
  6
CONTINUOUS
 62
    4
 10
1221.1132
 20
1036.6669999999999
 40
58.841383
 50
213.2508
 51
234.31144
  0
ARC
  8
_0-0_LAYER001
  6
CONTINUOUS
 62
    4
 10
1191.2375
 20
995.50960000000009
 40
7.947610000000001
 50
234.52014000000003
 51
301.23766000000001
  0
ARC
  8
_0-0_LAYER001
  6
CONTINUOUS
 62
    4
 10
1174.7360000000001
 20
1027.9789000000001
 40
44.132803000000003
 50
297.62160999999998
 51
318.23129999999998
  0
LINE
  8
_0-0_LAYER001
  6
CONTINUOUS
 62
    4
 10
1045.0418
 20
1028.0420999999999
 11
1041.0364
 21
1026.1601000000001
  0
LINE
  8
_0-0_LAYER001
  6
CONTINUOUS
 62
    4
 10
1045.0418
 20
1029.462
 11
1045.0418
 21
1028.0420999999999
  0
LINE
  8
_0-0_LAYER001
  6
CONTINUOUS
 62
    4
 10
1044.5162
 20
1046.2058999999999
 11
1041.1532999999999
 21
1044.8797
  0
LINE
  8
_0-0_LAYER001
  6
CONTINUOUS
 62
    4
 10
1044.5162
 20
1047.6946
 11
1044.5162
 21
1046.2058999999999
  0
ARC
  8
_0-0_LAYER001
  6
CONTINUOUS
 62
    4
 10
1224.4333999999999
 20
1213.8671999999999
 40
199.38050999999999
 50
231.7756
 51
268.38173
  0
ARC
  8
_0-0_LAYER001
  6
CONTINUOUS
 62
    4
 10
1224.4333999999999
 20
1213.8671999999999
 40
199.38050999999999
 50
231.7756
 51
268.38173
  0
ARC
  8
_0-0_LAYER001
  6
CONTINUOUS
 62
    4
 10
1224.4333999999999
 20
1213.8671999999999
 40
197.38050999999999
 50
231.7756
 51
268.38173
  0
LINE
  8
_0-0_LAYER001
  6
CONTINUOUS
 62
    4
 10
1044.7711999999999
 20
1047.9190000000001
 11
1075.0512000000001
 21
1061.9664
  0
LINE
  8
_0-0_LAYER001
  6
CONTINUOUS
 62
    4
 10
1076.2998
 20
1060.4056
 11
1041.6496
 21
1044.7973999999999
  0
ARC
  8
_0-0_LAYER001
  6
CONTINUOUS
 62
    4
 10
1224.4333999999999
 20
1213.8671999999999
 40
182.38050999999999
 50
231.7756
 51
268.38173
  0
LINE
  8
_0-0_LAYER001
  6
CONTINUOUS
 62
    4
 10
1041.0364
 20
1026.1601000000001
 11
1041.0364
 21
1062.7219
  0
LINE
  8
_0-0_LAYER001
  6
CONTINUOUS
 62
    4
 10
1041.0364
 20
1062.7219
 11
1068.7385999999999
 21
1075.5735
  0
ARC
  8
_0-0_LAYER001
  6
CONTINUOUS
 62
    4
 10
1224.4333999999999
 20
1213.8671999999999
 40
214.38050999999999
 50
231.7756
 51
268.38173
  0
ARC
  8
_0-0_LAYER001
  6
CONTINUOUS
 62
    4
 10
1085.8475000000001
 20
1036.4742000000001
 40
27.732966999999999
 50
54.176177000000003
 51
112.93031000000001
  0
ARC
  8
_0-0_LAYER001
  6
CONTINUOUS
 62
    4
 10
1086.1954000000001
 20
1038.7475999999999
 40
40.679594999999999
 50
51.535313000000002
 51
115.27963000000001
  0
ARC
  8
_0-0_LAYER001
  6
CONTINUOUS
 62
    4
 10
1085.8340000000001
 20
1035.9763
 40
26.213477999999995
 50
54.56426900000001
 51
111.2666
  0
ARC
  8
_0-0_LAYER001
  6
CONTINUOUS
 62
    4
 10
1086.3448000000001
 20
1033.5148999999999
 40
13.076713
 50
65.553432000000001
 51
112.83269999999999
  0
ARC
  8
_0-0_LAYER001
  6
CONTINUOUS
 62
    4
 10
1201.0449000000001
 20
1030.482
 40
69.674484000000007
 50
321.65733
 51
337.34946000000002
  0
ARC
  8
_0-0_LAYER001
  6
CONTINUOUS
 62
    4
 10
1214.8897999999999
 20
1306.7545
 40
307.27562
 50
270.90795000000003
 51
293.21983
  0
ARC
  8
_0-0_LAYER001
  6
CONTINUOUS
 62
    4
 10
1214.8897999999999
 20
1306.7545
 40
275.27562
 50
270.90795000000003
 51
287.11988000000002
  0
ARC
  8
_0-0_LAYER001
  6
CONTINUOUS
 62
    4
 10
1214.8897999999999
 20
1306.7545
 40
292.27562
 50
270.90795000000003
 51
292.69346000000002
  0
ARC
  8
_0-0_LAYER001
  6
CONTINUOUS
 62
    4
 10
1214.8897999999999
 20
1306.7545
 40
290.27562
 50
270.90795000000003
 51
286.23334
  0
ARC
  8
_0-0_LAYER001
  6
CONTINUOUS
 62
    4
 10
1479.0693000000001
 20
1216.3035
 40
214.38050999999999
 50
231.7756
 51
268.38173
  0
LINE
  8
_0-0_LAYER001
  6
CONTINUOUS
 62
    4
 10
1299.6776
 20
1031.8983000000001
 11
1335.8676
 21
1048.0545
  0
ARC
  8
_0-0_LAYER001
  6
CONTINUOUS
 62
    4
 10
1533.5385000000001
 20
1032.8009999999999
 40
52.178303999999997
 50
215.53766999999999
 51
234.46232000000001
  0
ARC
  8
_0-0_LAYER001
  6
CONTINUOUS
 62
    4
 10
1507.2096999999999
 20
995.09719999999993
 40
6.2695089999999993
 50
234.10575000000003
 51
303.29033000000004
  0
ARC
  8
_0-0_LAYER001
  6
CONTINUOUS
 62
    4
 10
1475.7489999999998
 20
1039.1033
 40
58.841383
 50
213.2508
 51
234.31144
  0
ARC
  8
_0-0_LAYER001
  6
CONTINUOUS
 62
    4
 10
1445.8733000000002
 20
997.94589999999994
 40
7.947610000000001
 50
234.52014000000003
 51
301.23766000000001
  0
ARC
  8
_0-0_LAYER001
  6
CONTINUOUS
 62
    4
 10
1429.3717999999999
 20
1030.4151999999999
 40
44.132803000000003
 50
297.62160999999998
 51
318.23129999999998
  0
LINE
  8
_0-0_LAYER001
  6
CONTINUOUS
 62
    4
 10
1299.6776
 20
1030.4784
 11
1295.6722
 21
1028.5963999999999
  0
LINE
  8
_0-0_LAYER001
  6
CONTINUOUS
 62
    4
 10
1299.6776
 20
1031.8983000000001
 11
1299.6776
 21
1030.4784
  0
LINE
  8
_0-0_LAYER001
  6
CONTINUOUS
 62
    4
 10
1299.1521
 20
1048.6422
 11
1295.7891
 21
1047.316
  0
LINE
  8
_0-0_LAYER001
  6
CONTINUOUS
 62
    4
 10
1299.1521
 20
1050.1309000000001
 11
1299.1521
 21
1048.6422
  0
ARC
  8
_0-0_LAYER001
  6
CONTINUOUS
 62
    4
 10
1479.0693000000001
 20
1216.3035
 40
199.38050999999999
 50
231.7756
 51
268.38173
  0
ARC
  8
_0-0_LAYER001
  6
CONTINUOUS
 62
    4
 10
1479.0693000000001
 20
1216.3035
 40
199.38050999999999
 50
231.7756
 51
268.38173
  0
ARC
  8
_0-0_LAYER001
  6
CONTINUOUS
 62
    4
 10
1479.0693000000001
 20
1216.3035
 40
197.38050999999999
 50
231.7756
 51
268.38173
  0
LINE
  8
_0-0_LAYER001
  6
CONTINUOUS
 62
    4
 10
1299.4070999999999
 20
1050.3552999999999
 11
1329.6869999999999
 21
1064.4027000000001
  0
LINE
  8
_0-0_LAYER001
  6
CONTINUOUS
 62
    4
 10
1330.9357
 20
1062.8418999999999
 11
1296.2853999999998
 21
1047.2337
  0
ARC
  8
_0-0_LAYER001
  6
CONTINUOUS
 62
    4
 10
1479.0693000000001
 20
1216.3035
 40
182.38050999999999
 50
231.7756
 51
268.38173
  0
LINE
  8
_0-0_LAYER001
  6
CONTINUOUS
 62
    4
 10
1295.6722
 20
1028.5963999999999
 11
1295.6722
 21
1065.1582000000001
  0
LINE
  8
_0-0_LAYER001
  6
CONTINUOUS
 62
    4
 10
1295.6722
 20
1065.1582000000001
 11
1323.3744999999999
 21
1078.0098
  0
ARC
  8
_0-0_LAYER001
  6
CONTINUOUS
 62
    4
 10
1479.0693000000001
 20
1216.3035
 40
214.38050999999999
 50
231.7756
 51
268.38173
  0
ARC
  8
_0-0_LAYER001
  6
CONTINUOUS
 62
    4
 10
1340.4833000000003
 20
1038.9105
 40
27.732966999999999
 50
54.176177000000003
 51
112.93031000000001
  0
ARC
  8
_0-0_LAYER001
  6
CONTINUOUS
 62
    4
 10
1340.8312000000001
 20
1041.1839
 40
40.679594999999999
 50
51.535313000000002
 51
115.27963000000001
  0
ARC
  8
_0-0_LAYER001
  6
CONTINUOUS
 62
    4
 10
1340.4698000000003
 20
1038.4126000000001
 40
26.213477999999995
 50
54.56426900000001
 51
111.2666
  0
ARC
  8
_0-0_LAYER001
  6
CONTINUOUS
 62
    4
 10
1340.9806000000001
 20
1035.9512
 40
13.076713
 50
65.553432000000001
 51
112.83269999999999
  0
ARC
  8
_0-0_LAYER001
  6
CONTINUOUS
 62
    4
 10
1455.6806999999999
 20
1032.9183
 40
69.674484000000007
 50
321.65733
 51
337.34946000000002
  0
ARC
  8
_0-0_LAYER001
  6
CONTINUOUS
 62
    4
 10
1469.5257000000001
 20
1309.1908000000001
 40
307.27562
 50
270.90795000000003
 51
293.21983
  0
ARC
  8
_0-0_LAYER001
  6
CONTINUOUS
 62
    4
 10
1733.9562000000001
 20
1216.3153
 40
214.38050999999999
 50
231.7756
 51
268.38173
  0
LINE
  8
_0-0_LAYER001
  6
CONTINUOUS
 62
    4
 10
1554.5645
 20
1031.9100000000001
 11
1590.7546000000002
 21
1048.0663
  0
ARC
  8
_0-0_LAYER001
  6
CONTINUOUS
 62
    4
 10
1788.4254000000001
 20
1032.8127999999999
 40
52.178303999999997
 50
215.53766999999999
 51
234.46232000000001
  0
ARC
  8
_0-0_LAYER001
  6
CONTINUOUS
 62
    4
 10
1762.0965999999999
 20
995.10899999999992
 40
6.2695089999999993
 50
234.10575000000003
 51
303.29033000000004
  0
ARC
  8
_0-0_LAYER001
  6
CONTINUOUS
 62
    4
 10
1730.6359000000002
 20
1039.115
 40
58.841383
 50
213.2508
 51
234.31144
  0
ARC
  8
_0-0_LAYER001
  6
CONTINUOUS
 62
    4
 10
1700.7602999999999
 20
997.95769999999993
 40
7.947610000000001
 50
234.52014000000003
 51
301.23766000000001
  0
ARC
  8
_0-0_LAYER001
  6
CONTINUOUS
 62
    4
 10
1684.2586999999999
 20
1030.4269999999999
 40
44.132803000000003
 50
297.62160999999998
 51
318.23129999999998
  0
LINE
  8
_0-0_LAYER001
  6
CONTINUOUS
 62
    4
 10
1844.8937000000001
 20
1064.7679000000001
 11
1837.1727999999998
 21
1061.7653
  0
LINE
  8
_0-0_LAYER001
  6
CONTINUOUS
 62
    4
 10
1554.5645
 20
1031.9100000000001
 11
1554.5645
 21
1030.4902
  0
LINE
  8
_0-0_LAYER001
  6
CONTINUOUS
 62
    4
 10
1554.0390000000002
 20
1048.654
 11
1550.6759999999999
 21
1047.3277
  0
LINE
  8
_0-0_LAYER001
  6
CONTINUOUS
 62
    4
 10
1554.0390000000002
 20
1050.1425999999999
 11
1554.0390000000002
 21
1048.654
  0
ARC
  8
_0-0_LAYER001
  6
CONTINUOUS
 62
    4
 10
1733.9562000000001
 20
1216.3153
 40
199.38050999999999
 50
231.7756
 51
268.38173
  0
ARC
  8
_0-0_LAYER001
  6
CONTINUOUS
 62
    4
 10
1733.9562000000001
 20
1216.3153
 40
199.38050999999999
 50
231.7756
 51
268.38173
  0
ARC
  8
_0-0_LAYER001
  6
CONTINUOUS
 62
    4
 10
1733.9562000000001
 20
1216.3153
 40
197.38050999999999
 50
231.7756
 51
268.38173
  0
LINE
  8
_0-0_LAYER001
  6
CONTINUOUS
 62
    4
 10
1554.2939999999999
 20
1050.3670999999999
 11
1584.5738999999999
 21
1064.4145000000001
  0
ARC
  8
_0-0_LAYER001
  6
CONTINUOUS
 62
    4
 10
1733.9562000000001
 20
1216.3153
 40
182.38050999999999
 50
231.7756
 51
268.38173
  0
LINE
  8
_0-0_LAYER001
  6
CONTINUOUS
 62
    4
 10
1550.5590999999999
 20
1065.1699000000001
 11
1578.2613999999999
 21
1078.0215000000001
  0
ARC
  8
_0-0_LAYER001
  6
CONTINUOUS
 62
    4
 10
1733.9562000000001
 20
1216.3153
 40
214.38050999999999
 50
231.7756
 51
268.38173
  0
ARC
  8
_0-0_LAYER001
  6
CONTINUOUS
 62
    4
 10
1595.3701999999998
 20
1038.9223
 40
27.732966999999999
 50
54.176177000000003
 51
112.93031000000001
  0
ARC
  8
_0-0_LAYER001
  6
CONTINUOUS
 62
    4
 10
1595.7181
 20
1041.1957
 40
40.679594999999999
 50
51.535313000000002
 51
115.27963000000001
  0
ARC
  8
_0-0_LAYER001
  6
CONTINUOUS
 62
    4
 10
1595.3566999999998
 20
1038.4244000000001
 40
26.213477999999995
 50
54.56426900000001
 51
111.2666
  0
ARC
  8
_0-0_LAYER001
  6
CONTINUOUS
 62
    4
 10
1595.8674999999998
 20
1035.963
 40
13.076713
 50
65.553432000000001
 51
112.83269999999999
  0
LINE
  8
_0-0_LAYER001
  6
CONTINUOUS
 62
    4
 10
1805.5590999999999
 20
1030.4999
 11
1805.5590999999999
 21
1046.1590000000001
  0
ARC
  8
_0-0_LAYER001
  6
CONTINUOUS
 62
    4
 10
1724.4126000000001
 20
1309.2025000000001
 40
290.27562
 50
270.90795000000003
 51
294.66739000000001
  0
ARC
  8
_0-0_LAYER001
  6
CONTINUOUS
 62
    4
 10
1724.4126000000001
 20
1309.2025000000001
 40
275.27562
 50
270.90795000000003
 51
294.18137000000002
  0
LINE
  8
_0-0_LAYER001
  6
CONTINUOUS
 62
    4
 10
1837.1727999999998
 20
1061.7653
 11
1837.1727999999998
 21
1058.0815
  0
ARC
  8
_0-0_LAYER001
  6
CONTINUOUS
 62
    4
 10
1724.4126000000001
 20
1309.2025000000001
 40
292.27562
 50
270.90795000000003
 51
294.48746
  0
ARC
  8
_0-0_LAYER001
  6
CONTINUOUS
 62
    4
 10
1710.5675999999999
 20
1032.9300000000001
 40
69.674484000000007
 50
321.65733
 51
337.34946000000002
  0
ARC
  8
_0-0_LAYER001
  6
CONTINUOUS
 62
    4
 10
1724.4126000000001
 20
1309.2025000000001
 40
307.27562
 50
270.90795000000003
 51
293.21983
  0
LINE
  8
_0-0_LAYER001
  6
CONTINUOUS
 62
    4
 10
1845.5590999999999
 20
1026.8166000000001
 11
1845.5590999999999
 21
1065.1699000000001
  0
ARC
  8
_0-0_LAYER001
  6
CONTINUOUS
 62
    4
 10
1469.5257000000001
 20
1309.1908000000001
 40
275.27562
 50
270.90795000000003
 51
287.11988000000002
  0
ARC
  8
_0-0_LAYER001
  6
CONTINUOUS
 62
    4
 10
1469.5257000000001
 20
1309.1908000000001
 40
290.27562
 50
270.90795000000003
 51
286.21008999999998
  0
LINE
  8
_0-0_LAYER001
  6
CONTINUOUS
 62
    4
 10
1550.5590999999999
 20
1030.4552000000001
 11
1550.5590999999999
 21
1065.1699000000001
  0
LINE
  8
_0-0_LAYER001
  6
CONTINUOUS
 62
    4
 10
1554.5645
 20
1030.4902
 11
1550.6722
 21
1028.6612
  0
LINE
  8
_0-0_LAYER001
  6
CONTINUOUS
 62
    4
 10
1550.6722
 20
1028.6612
 11
1550.6722
 21
1046.1473000000001
  0
ARC
  8
_0-0_LAYER001
  6
CONTINUOUS
 62
    4
 10
1469.5257000000001
 20
1309.1908000000001
 40
292.27562
 50
270.90795000000003
 51
292.69346000000002
  0
LINE
  8
_0-0_LAYER001
  6
CONTINUOUS
 62
    4
 10
1582.2858000000001
 20
1041.9673
 11
1582.2858000000001
 21
1039.5426
  0
LINE
  8
_0-0_LAYER001
  6
CONTINUOUS
 62
    4
 10
1590.6722
 20
1026.8049000000001
 11
1590.6722
 21
1045.1122
  0
LINE
  8
_0-0_LAYER001
  6
CONTINUOUS
 62
    4
 10
1582.2858000000001
 20
1041.9673
 11
1590.6722
 21
1045.1122
  0
LINE
  8
_0-0_LAYER001
  6
CONTINUOUS
 62
    4
 10
1550.9643999999998
 20
1046.6042
 11
1586.0104999999999
 21
1062.9866999999999
  0
LINE
  8
_0-0_LAYER001
  6
CONTINUOUS
 62
    4
 10
1327.7870000000003
 20
1039.5916
 11
1327.7870000000003
 21
1037.4065000000001
  0
LINE
  8
_0-0_LAYER001
  6
CONTINUOUS
 62
    4
 10
1327.7870000000003
 20
1040.2158999999999
 11
1327.7870000000003
 21
1037.4065000000001
  0
LINE
  8
_0-0_LAYER001
  6
CONTINUOUS
 62
    4
 10
1327.7870000000003
 20
1040.5281
 11
1335.9032999999999
 21
1043.6496999999999
  0
LINE
  8
_0-0_LAYER001
  6
CONTINUOUS
 62
    4
 10
1335.9032999999999
 20
1024.9199000000001
 11
1335.9032999999999
 21
1043.6496999999999
  0
LINE
  8
_0-2_LAYER004
  6
CONTINUOUS
 62
    2
 10
1872.4566
 20
1319.3833999999997
 11
1872.4566
 21
902.66139999999996
  0
LINE
  8
_0-2_LAYER004
  6
CONTINUOUS
 62
    2
 10
1852.6505999999999
 20
984.6733999999999
 11
1852.6505999999999
 21
1074.5147999999999
  0
LINE
  8
_0-2_LAYER004
  6
CONTINUOUS
 62
    2
 10
1867.6505999999999
 20
1074.5147999999999
 11
1867.6505999999999
 21
984.6733999999999
  0
LINE
  8
_0-2_LAYER004
  6
CONTINUOUS
 62
    2
 10
843.53659999999991
 20
1000.4126000000001
 11
1770.0131999999999
 21
1000.4126000000001
  0
LINE
  8
_0-2_LAYER004
  6
CONTINUOUS
 62
    2
 10
843.53659999999991
 20
985.41260000000011
 11
1770.0131999999999
 21
985.41260000000011
  0
LINE
  8
_0-2_LAYER004
  6
CONTINUOUS
 62
    2
 10
1770.0131999999999
 20
1000.4126000000001
 11
1770.0131999999999
 21
985.41260000000011
  0
LINE
  8
_0-2_LAYER004
  6
CONTINUOUS
 62
    2
 10
1774.8542000000002
 20
985.29940000000011
 11
1774.8542000000002
 21
1000.4126000000001
  0
LINE
  8
_0-2_LAYER004
  6
CONTINUOUS
 62
    2
 10
1774.8542000000002
 20
1000.4126000000001
 11
1795.3982000000001
 21
1000.4126000000001
  0
LINE
  8
_0-2_LAYER004
  6
CONTINUOUS
 62
    2
 10
1850.1196
 20
985.29940000000011
 11
1850.1196
 21
1070.2462
  0
LINE
  8
_0-2_LAYER004
  6
CONTINUOUS
 62
    2
 10
1872.4566
 20
968.42740000000003
 11
843.53659999999991
 21
968.42740000000003
  0
LINE
  8
_0-2_LAYER004
  6
CONTINUOUS
 62
    2
 10
1872.4566
 20
980.42740000000003
 11
843.53659999999991
 21
980.42740000000003
  0
LINE
  8
_0-2_LAYER004
  6
CONTINUOUS
 62
    2
 10
1774.8542000000002
 20
985.29940000000011
 11
1850.1196
 21
985.29940000000011
  0
LINE
  8
_0-2_LAYER004
  6
DASHED3
 62
    2
 10
1870.1336000000001
 20
982.92440000000011
 11
843.53659999999991
 21
982.92440000000011
  0
LINE
  8
_0-2_LAYER004
  6
DASHED3
 62
    2
 10
1870.1336000000001
 20
982.92440000000011
 11
1870.1336000000001
 21
1280.4274
  0
LINE
  8
_0-2_LAYER004
  6
CONTINUOUS
 62
    2
 10
1867.6505999999999
 20
984.6733999999999
 11
1852.6505999999999
 21
984.6733999999999
  0
LINE
  8
_0-2_LAYER004
  6
CONTINUOUS
 62
    3
 10
1872.4566
 20
902.66139999999996
 11
1872.4566
 21
748.57140000000004
  0
LINE
  8
_0-2_LAYER004
  6
CONTINUOUS
 62
    2
 10
1812.4566
 20
908.42740000000003
 11
1812.4566
 21
968.42740000000003
  0
LINE
  8
_0-2_LAYER004
  6
CONTINUOUS
 62
    2
 10
1812.4566
 20
968.42740000000003
 11
1872.4566
 21
968.42740000000003
  0
LINE
  8
_0-2_LAYER004
  6
CONTINUOUS
 62
    2
 10
1872.4566
 20
968.42740000000003
 11
1872.4566
 21
908.42740000000003
  0
LINE
  8
_0-2_LAYER004
  6
CONTINUOUS
 62
    2
 10
1872.4566
 20
908.42740000000003
 11
1812.4566
 21
908.42740000000003
  0
LINE
  8
_0-2_LAYER004
  6
CONTINUOUS
 62
    2
 10
1872.4566
 20
968.42740000000003
 11
1812.4566
 21
908.42740000000003
  0
LINE
  8
_0-2_LAYER004
  6
CONTINUOUS
 62
    2
 10
1771.6966000000002
 20
1089.0491999999999
 11
1768.9935999999998
 21
1103.8042
  0
LINE
  8
_0-2_LAYER004
  6
CONTINUOUS
 62
    2
 10
1768.9935999999998
 20
1103.8042
 11
1857.5216
 21
1120.0192
  0
LINE
  8
_0-2_LAYER004
  6
CONTINUOUS
 62
    2
 10
1857.5216
 20
1120.0192
 11
1860.2235999999998
 21
1105.2652
  0
LINE
  8
_0-2_LAYER004
  6
CONTINUOUS
 62
    2
 10
1860.2235999999998
 20
1105.2652
 11
1771.6966000000002
 21
1089.0491999999999
  0
LINE
  8
_0-2_LAYER004
  6
CONTINUOUS
 62
    2
 10
1768.9935999999998
 20
1103.8042
 11
1860.2235999999998
 21
1105.2652
  0
LINE
  8
_0-2_LAYER004
  6
CONTINUOUS
 62
    2
 10
1849.4566
 20
1140.4176
 11
1849.4566
 21
1180.4176
  0
LINE
  8
_0-2_LAYER004
  6
CONTINUOUS
 62
    2
 10
1849.4566
 20
1180.4176
 11
1867.4566
 21
1180.4176
  0
LINE
  8
_0-2_LAYER004
  6
CONTINUOUS
 62
    2
 10
1867.4566
 20
1180.4176
 11
1867.4566
 21
1140.4176
  0
LINE
  8
_0-2_LAYER004
  6
CONTINUOUS
 62
    2
 10
1867.4566
 20
1140.4176
 11
1849.4566
 21
1140.4176
  0
LINE
  8
_0-2_LAYER004
  6
CONTINUOUS
 62
    2
 10
1867.4566
 20
1180.4176
 11
1849.4566
 21
1140.4176
  0
LINE
  8
_0-4_LAYER007
  6
CONTINUOUS
 62
    3
 10
1872.4566
 20
1397.2554
 11
1872.4566
 21
885.92840000000001
  0
LINE
  8
_0-2_LAYER004
  6
CONTINUOUS
 62
    3
 10
1872.4566
 20
1319.3833999999997
 11
1872.4566
 21
1397.2554
  0
LINE
  8
_0-2_LAYER004
  6
CONTINUOUS
 62
    2
 10
1509.4566
 20
908.42740000000003
 11
1509.4566
 21
968.42740000000003
  0
LINE
  8
_0-2_LAYER004
  6
CONTINUOUS
 62
    2
 10
1509.4566
 20
968.42740000000003
 11
1569.4566
 21
968.42740000000003
  0
LINE
  8
_0-2_LAYER004
  6
CONTINUOUS
 62
    2
 10
1569.4566
 20
968.42740000000003
 11
1569.4566
 21
908.42740000000003
  0
LINE
  8
_0-2_LAYER004
  6
CONTINUOUS
 62
    2
 10
1569.4566
 20
908.42740000000003
 11
1509.4566
 21
908.42740000000003
  0
LINE
  8
_0-2_LAYER004
  6
CONTINUOUS
 62
    2
 10
1569.4566
 20
968.42740000000003
 11
1509.4566
 21
908.42740000000003
  0
LINE
  8
_0-2_LAYER004
  6
CONTINUOUS
 62
    2
 10
1206.4566
 20
908.42740000000003
 11
1206.4566
 21
968.42740000000003
  0
LINE
  8
_0-2_LAYER004
  6
CONTINUOUS
 62
    2
 10
1206.4566
 20
968.42740000000003
 11
1266.4566
 21
968.42740000000003
  0
LINE
  8
_0-2_LAYER004
  6
CONTINUOUS
 62
    2
 10
1266.4566
 20
968.42740000000003
 11
1266.4566
 21
908.42740000000003
  0
LINE
  8
_0-2_LAYER004
  6
CONTINUOUS
 62
    2
 10
1266.4566
 20
908.42740000000003
 11
1206.4566
 21
908.42740000000003
  0
LINE
  8
_0-2_LAYER004
  6
CONTINUOUS
 62
    2
 10
1266.4566
 20
968.42740000000003
 11
1206.4566
 21
908.42740000000003
  0
LINE
  8
_0-2_LAYER004
  6
CONTINUOUS
 62
    2
 10
903.45659999999998
 20
908.42740000000003
 11
903.45659999999998
 21
968.42740000000003
  0
LINE
  8
_0-2_LAYER004
  6
CONTINUOUS
 62
    2
 10
903.45659999999998
 20
968.42740000000003
 11
963.45659999999998
 21
968.42740000000003
  0
LINE
  8
_0-2_LAYER004
  6
CONTINUOUS
 62
    2
 10
963.45659999999998
 20
968.42740000000003
 11
963.45659999999998
 21
908.42740000000003
  0
LINE
  8
_0-2_LAYER004
  6
CONTINUOUS
 62
    2
 10
963.45659999999998
 20
908.42740000000003
 11
903.45659999999998
 21
908.42740000000003
  0
LINE
  8
_0-2_LAYER004
  6
CONTINUOUS
 62
    2
 10
963.45659999999998
 20
968.42740000000003
 11
903.45659999999998
 21
908.42740000000003
  0
LINE
  8
_0-2_LAYER004
  6
CONTINUOUS
 62
    2
 10
1868.8715999999999
 20
1124.7911999999999
 11
1868.8715999999999
 21
1274.7911999999999
  0
LINE
  8
_0-3_LAYER006
  6
CONTINUOUS
 62
    2
 10
1762.4566
 20
1105.2994000000001
 11
1760.0756000000001
 21
1079.7084
  0
LINE
  8
_0-3_LAYER006
  6
CONTINUOUS
 62
    2
 10
1762.4566
 20
1105.2994000000001
 11
1868.8715999999999
 21
1124.7911999999999
  0
LINE
  8
_0-3_LAYER006
  6
CONTINUOUS
 62
    2
 10
1760.0756000000001
 20
1079.7084
 11
1765.3726000000001
 21
1085.6674
  0
LINE
  8
_0-2_LAYER004
  6
CONTINUOUS
 62
    2
 10
1837.4566
 20
1399.2231999999999
 11
1837.4566
 21
1123.9631999999999
  0
LINE
  8
_0-2_LAYER004
  6
CONTINUOUS
 62
    2
 10
1837.4566
 20
1123.9631999999999
 11
1849.4566
 21
1123.9631999999999
  0
LINE
  8
_0-2_LAYER004
  6
CONTINUOUS
 62
    2
 10
1849.4566
 20
1123.9631999999999
 11
1849.4566
 21
1397.2554
  0
LINE
  8
_0-1_LAYER003
  6
CONTINUOUS
 62
    7
 10
1041.0371
 20
1201.7724000000001
 11
1041.0371
 21
1149.2724000000001
  0
LINE
  8
_0-1_LAYER003
  6
CONTINUOUS
 62
    7
 10
1041.0371
 20
1199.2724000000001
 11
1551.0371
 21
1199.2724000000001
  0
LINE
  8
_0-1_LAYER003
  6
CONTINUOUS
 62
    7
 10
1551.0371
 20
1149.2724000000001
 11
1551.0371
 21
1201.7724000000001
  0
LINE
  8
_0-1_LAYER003
  6
CONTINUOUS
 62
    7
 10
1296.0371
 20
1149.2724000000001
 11
1296.0371
 21
1201.7724000000001
  0
LINE
  8
_0-1_LAYER003
  6
CONTINUOUS
 62
    7
 10
1027.2962
 20
776.17329999999993
 11
1215.5523467369271
 21
776.17329999999993
  0
LINE
  8
_0-1_LAYER003
  6
CONTINUOUS
 62
    7
 10
952.24279999999999
 20
746.19229999999993
 11
1198.2428
 21
746.19229999999993
  0
LINE
  8
_0-1_LAYER003
  6
CONTINUOUS
 62
    7
 10
1009.1958999999999
 20
716.09699999999998
 11
1180.8672999999999
 21
716.09699999999998
  0
LINE
  8
_0-1_LAYER003
  6
CONTINUOUS
 62
    7
 10
1101.6511
 20
686.23039999999992
 11
1163.6238000000001
 21
686.23039999999992
  0
LINE
  8
_0-1_LAYER003
  6
CONTINUOUS
 62
    7
 10
843.53659999999991
 20
968.42740000000003
 11
1872.4566
 21
968.42740000000003
  0
LINE
  8
_0-1_LAYER003
  6
CONTINUOUS
 62
    7
 10
1915.0472
 20
980.42740000000003
 11
1967.5472
 21
980.42740000000003
  0
LINE
  8
_0-1_LAYER003
  6
CONTINUOUS
 62
    7
 10
1921.0707000000002
 20
905.55199999999991
 11
2084.5707000000002
 21
905.55199999999991
  0
LINE
  8
_0-1_LAYER003
  6
CONTINUOUS
 62
    7
 10
1872.4566
 20
908.42740000000003
 11
1812.4566
 21
908.42740000000003
  0
LINE
  8
_0-1_LAYER003
  6
CONTINUOUS
 62
    7
 10
1812.4566
 20
908.42740000000003
 11
1812.4566
 21
968.42740000000003
  0
LINE
  8
_0-1_LAYER003
  6
CONTINUOUS
 62
    7
 10
1569.4566
 20
968.42740000000003
 11
1569.4566
 21
908.42740000000003
  0
LINE
  8
_0-1_LAYER003
  6
CONTINUOUS
 62
    7
 10
1569.4566
 20
908.42740000000003
 11
1509.4566
 21
908.42740000000003
  0
LINE
  8
_0-1_LAYER003
  6
CONTINUOUS
 62
    7
 10
1509.4566
 20
908.42740000000003
 11
1509.4566
 21
968.42740000000003
  0
LINE
  8
_0-1_LAYER003
  6
CONTINUOUS
 62
    7
 10
1691.0758999999998
 20
824.31359999999995
 11
1490.0758999999998
 21
824.31359999999995
  0
LINE
  8
_0-1_LAYER003
  6
CONTINUOUS
 62
    7
 10
1266.4566
 20
968.42740000000003
 11
1266.4566
 21
908.42740000000003
  0
LINE
  8
_0-1_LAYER003
  6
CONTINUOUS
 62
    7
 10
1266.4566
 20
908.42740000000003
 11
1206.4566
 21
908.42740000000003
  0
LINE
  8
_0-1_LAYER003
  6
CONTINUOUS
 62
    7
 10
1206.4566
 20
908.42740000000003
 11
1206.4566
 21
968.42740000000003
  0
LINE
  8
_0-1_LAYER003
  6
CONTINUOUS
 62
    7
 10
963.45659999999998
 20
968.42740000000003
 11
963.45659999999998
 21
908.42740000000003
  0
LINE
  8
_0-1_LAYER003
  6
CONTINUOUS
 62
    7
 10
963.45659999999998
 20
908.42740000000003
 11
903.45659999999998
 21
908.42740000000003
  0
LINE
  8
_0-1_LAYER003
  6
CONTINUOUS
 62
    7
 10
903.45659999999998
 20
908.42740000000003
 11
903.45659999999998
 21
968.42740000000003
  0
LINE
  8
_0-1_LAYER003
  6
CONTINUOUS
 62
    7
 10
843.53659999999991
 20
1000.4126000000001
 11
1770.0131999999999
 21
1000.4126000000001
  0
LINE
  8
_0-1_LAYER003
  6
CONTINUOUS
 62
    7
 10
1770.0131999999999
 20
996.58781567783444
 11
1770.0131999999999
 21
985.41260000000011
  0
LINE
  8
_0-1_LAYER003
  6
CONTINUOUS
 62
    7
 10
1770.0131999999999
 20
985.41260000000011
 11
843.53659999999991
 21
985.41260000000011
  0
LINE
  8
_0-1_LAYER003
  6
CONTINUOUS
 62
    7
 10
843.53659999999991
 20
982.92440000000011
 11
1870.1336000000001
 21
982.92440000000011
  0
LINE
  8
_0-1_LAYER003
  6
CONTINUOUS
 62
    7
 10
1870.1336000000001
 20
982.92440000000011
 11
1870.1336000000001
 21
1280.4274
  0
LINE
  8
_0-1_LAYER003
  6
CONTINUOUS
 62
    7
 10
1868.8715999999999
 20
1274.7911999999999
 11
1868.8715999999999
 21
1124.7911999999999
  0
LINE
  8
_0-1_LAYER003
  6
CONTINUOUS
 62
    7
 10
1867.4566
 20
1140.4176
 11
1849.4566
 21
1140.4176
  0
LINE
  8
_0-1_LAYER003
  6
CONTINUOUS
 62
    7
 10
1849.4566
 20
1140.4176
 11
1849.4566
 21
1180.4176
  0
LINE
  8
_0-1_LAYER003
  6
CONTINUOUS
 62
    7
 10
1849.4566
 20
1180.4176
 11
1867.4566
 21
1180.4176
  0
LINE
  8
_0-1_LAYER003
  6
CONTINUOUS
 62
    7
 10
1867.4566
 20
1180.4176
 11
1867.4566
 21
1140.4176
  0
LINE
  8
_0-1_LAYER003
  6
CONTINUOUS
 62
    7
 10
1896.0038
 20
1155.0175999999999
 11
1977.0038
 21
1155.0175999999999
  0
LINE
  8
_0-1_LAYER003
  6
CONTINUOUS
 62
    7
 10
1849.4566
 20
1140.4176
 11
1849.4566
 21
1123.9631999999999
  0
LINE
  8
_0-1_LAYER003
  6
CONTINUOUS
 62
    7
 10
1849.4566
 20
1123.9631999999999
 11
1837.4566
 21
1123.9631999999999
  0
LINE
  8
_0-1_LAYER003
  6
CONTINUOUS
 62
    7
 10
1837.4566
 20
1123.9631999999999
 11
1837.4566
 21
1399.2231999999999
  0
LINE
  8
_0-1_LAYER003
  6
CONTINUOUS
 62
    7
 10
1849.4566
 20
1397.2554
 11
1849.4566
 21
1180.4176
  0
LINE
  8
_0-1_LAYER003
  6
CONTINUOUS
 62
    7
 10
1837.4566
 20
1188.0709999999999
 11
1762.4566
 21
1188.0709999999999
  0
LINE
  8
_0-1_LAYER003
  6
CONTINUOUS
 62
    7
 10
1762.4566
 20
1190.5709999999999
 11
1762.4566
 21
1173.0709999999999
  0
LINE
  8
_0-1_LAYER003
  6
CONTINUOUS
 62
    7
 10
1738.0551999999998
 20
1235.9591
 11
1504.0551999999998
 21
1235.9591
  0
LINE
  8
_0-1_LAYER003
  6
CONTINUOUS
 62
    7
 10
1590.7869999999998
 20
1280.4395
 11
1737.7869999999998
 21
1280.4395
  0
LINE
  8
_0-1_LAYER003
  6
CONTINUOUS
 62
    7
 10
1727.2020000000002
 20
1334.8708999999999
 11
1767.7020000000002
 21
1334.8708999999999
  0
LINE
  8
_0-1_LAYER003
  6
CONTINUOUS
 62
    7
 10
1782.2220000000002
 20
1396.2695000000003
 11
1609.7220000000002
 21
1396.2695000000003
  0
LINE
  8
_0-1_LAYER003
  6
CONTINUOUS
 62
    7
 10
1915.0472
 20
1074.5147999999999
 11
1966.7472
 21
1074.5147999999999
  0
LINE
  8
_0-1_LAYER003
  6
CONTINUOUS
 62
    7
 10
1974.0491000000002
 20
980.42740000000003
 11
2024.0491000000002
 21
980.42740000000003
  0
LINE
  8
_0-1_LAYER003
  6
CONTINUOUS
 62
    7
 10
2024.0491000000002
 20
980.42740000000003
 11
2026.5491000000002
 21
980.42740000000003
  0
LINE
  8
_0-1_LAYER003
  6
CONTINUOUS
 62
    7
 10
2024.0491000000002
 20
982.12740000000008
 11
2024.0491000000002
 21
1280.4284000000002
  0
LINE
  8
_0-1_LAYER003
  6
CONTINUOUS
 62
    7
 10
2026.5491000000002
 20
1280.4284000000002
 11
1974.0491000000002
 21
1280.4284000000002
  0
LINE
  8
_0-1_LAYER003
  6
CONTINUOUS
 62
    7
 10
2056.1695
 20
1274.7911999999999
 11
2108.6695
 21
1274.7911999999999
  0
LINE
  8
_0-1_LAYER003
  6
CONTINUOUS
 62
    7
 10
1872.4566
 20
1104.5147999999999
 11
1860.2235999999998
 21
1104.5147999999999
  0
LINE
  8
_0-1_LAYER003
  6
CONTINUOUS
 62
    7
 10
1842.4566
 20
1102.0107
 11
1842.4566
 21
1074.5147999999999
  0
LINE
  8
_0-1_LAYER003
  6
CONTINUOUS
 62
    7
 10
1842.4566
 20
1074.5147999999999
 11
1872.4566
 21
1074.5147999999999
  0
LINE
  8
_0-1_LAYER003
  6
CONTINUOUS
 62
    7
 10
1870.1336000000001
 20
1074.5147999999999
 11
1870.1336000000001
 21
982.92440000000011
  0
LINE
  8
_0-1_LAYER003
  6
CONTINUOUS
 62
    7
 10
1867.6505999999999
 20
984.6733999999999
 11
1867.6505999999999
 21
1074.5147999999999
  0
LINE
  8
_0-1_LAYER003
  6
CONTINUOUS
 62
    7
 10
1852.6505999999999
 20
1074.5147999999999
 11
1852.6505999999999
 21
985.29940000000011
  0
LINE
  8
_0-1_LAYER003
  6
CONTINUOUS
 62
    7
 10
1850.1196
 20
985.29940000000011
 11
1850.1196
 21
1070.2462
  0
LINE
  8
_0-1_LAYER003
  6
CONTINUOUS
 62
    7
 10
1850.1196
 20
985.29940000000011
 11
1774.8542000000002
 21
985.29940000000011
  0
LINE
  8
_0-1_LAYER003
  6
CONTINUOUS
 62
    7
 10
1774.8542000000002
 20
1000.4126000000001
 11
1774.8542000000002
 21
985.29940000000011
  0
LINE
  8
_0-1_LAYER003
  6
CONTINUOUS
 62
    7
 10
1774.8542000000002
 20
1000.4126000000001
 11
1788.9369350098123
 21
1000.4126000000001
  0
LINE
  8
_0-1_LAYER003
  6
CONTINUOUS
 62
    7
 10
1770.0131999999999
 20
996.58781567783444
 11
1770.0131999999999
 21
1000.4126000000001
  0
LINE
  8
_0-1_LAYER003
  6
CONTINUOUS
 62
    7
 10
1852.6505999999999
 20
985.29940000000011
 11
1867.6505999999999
 21
985.29940000000011
  0
LINE
  8
_0-1_LAYER003
  6
CONTINUOUS
 62
    7
 10
1872.4566
 20
980.42740000000003
 11
843.53659999999991
 21
980.42740000000003
  0
LINE
  8
_0-1_LAYER003
  6
CONTINUOUS
 62
    7
 10
1413.9186999999997
 20
1078.4953
 11
1454.4187000000002
 21
1078.4953
  0
LINE
  8
_0-1_LAYER003
  6
CONTINUOUS
 62
    7
 10
2106.1695
 20
1274.7911999999999
 11
2106.1695
 21
982.12739999999997
  0
LINE
  8
_0-1_LAYER003
  6
CONTINUOUS
 62
    7
 10
2056.1695
 20
980.42740000000003
 11
2106.1695
 21
980.42740000000003
  0
LINE
  8
_0-1_LAYER003
  6
CONTINUOUS
 62
    7
 10
2056.1695
 20
1124.7911999999999
 11
2108.6695
 21
1124.7911999999999
  0
LINE
  8
_0-1_LAYER003
  6
CONTINUOUS
 62
    7
 10
1965.0472
 20
1074.5147999999999
 11
1965.0472
 21
980.42740000000003
  0
LINE
  8
_0-1_LAYER003
  6
CONTINUOUS
 62
    7
 10
2024.0491000000002
 20
982.12740000000008
 11
2024.0491000000002
 21
980.42740000000003
  0
LINE
  8
_0-1_LAYER003
  6
CONTINUOUS
 62
    7
 10
2106.1695
 20
982.12739999999997
 11
2106.1695
 21
980.42740000000003
  0
LINE
  8
_0-1_LAYER003
  6
CONTINUOUS
 62
    7
 10
2104.4694999999997
 20
980.42740000000003
 11
2107.8694999999998
 21
980.42740000000003
  0
LINE
  8
_0-1_LAYER003
  6
CONTINUOUS
 62
    7
 10
1782.2220000000002
 20
1396.2695000000003
 11
1843.2977000000001
 21
1290.4834000000001
  0
LINE
  8
_0-1_LAYER003
  6
CONTINUOUS
 62
    7
 10
1843.2977000000001
 20
1290.4834000000001
 11
1841.3564999999999
 21
1297.7277999999999
  0
LINE
  8
_0-1_LAYER003
  6
CONTINUOUS
 62
    7
 10
1837.9944
 20
1295.7867000000001
 11
1843.2977000000001
 21
1290.4834000000001
  0
LINE
  8
_0-1_LAYER003
  6
CONTINUOUS
 62
    7
 10
1767.7020000000002
 20
1334.8708999999999
 11
1862.4511000000002
 21
1170.7606000000001
  0
LINE
  8
_0-1_LAYER003
  6
CONTINUOUS
 62
    7
 10
1862.4511000000002
 20
1170.7606000000001
 11
1860.5100000000002
 21
1178.0050000000001
  0
LINE
  8
_0-1_LAYER003
  6
CONTINUOUS
 62
    7
 10
1862.4511000000002
 20
1170.7606000000001
 11
1857.1478000000002
 21
1176.0639000000001
  0
LINE
  8
_0-1_LAYER003
  6
CONTINUOUS
 62
    7
 10
1867.4566
 20
1180.4176
 11
1849.4566
 21
1140.4176
  0
LINE
  8
_0-1_LAYER003
  6
CONTINUOUS
 62
    7
 10
1738.0551999999998
 20
1235.9591
 11
1809.0953
 21
1112.914
  0
LINE
  8
_0-1_LAYER003
  6
CONTINUOUS
 62
    7
 10
1809.0953
 20
1112.914
 11
1807.1541000000002
 21
1120.1585
  0
LINE
  8
_0-1_LAYER003
  6
CONTINUOUS
 62
    7
 10
1809.0953
 20
1112.914
 11
1803.7919999999999
 21
1118.2173
  0
LINE
  8
_0-1_LAYER003
  6
CONTINUOUS
 62
    7
 10
1833.7143999999998
 20
1118.1705999999999
 11
1835.6556
 21
1110.9260999999999
  0
LINE
  8
_0-1_LAYER003
  6
CONTINUOUS
 62
    7
 10
1835.6556
 20
1110.9260999999999
 11
1830.3523
 21
1116.2293999999999
  0
LINE
  8
_0-1_LAYER003
  6
CONTINUOUS
 62
    7
 10
1835.6556
 20
1110.9260999999999
 11
1737.7869999999998
 21
1280.4395
  0
LINE
  8
_0-1_LAYER003
  6
CONTINUOUS
 62
    7
 10
1896.0038
 20
1155.0175999999999
 11
1858.8404999999998
 21
1090.6488999999999
  0
LINE
  8
_0-1_LAYER003
  6
CONTINUOUS
 62
    7
 10
1858.9319358531477
 20
1090.9901358531476
 11
1860.7817
 21
1097.8933999999999
  0
LINE
  8
_0-1_LAYER003
  6
CONTINUOUS
 62
    7
 10
1858.9319358531477
 20
1090.9901358531476
 11
1864.1437999999998
 21
1095.9521999999999
  0
LINE
  8
_0-1_LAYER003
  6
CONTINUOUS
 62
    7
 10
1872.4566
 20
1104.5147999999999
 11
1842.4566
 21
1074.5147999999999
  0
LINE
  8
_0-1_LAYER003
  6
CONTINUOUS
 62
    7
 10
1860.2235999999998
 20
1105.2652
 11
1857.5216
 21
1120.0192
  0
LINE
  8
_0-1_LAYER003
  6
CONTINUOUS
 62
    7
 10
1857.5216
 20
1120.0192
 11
1768.9935999999998
 21
1103.8042
  0
LINE
  8
_0-1_LAYER003
  6
CONTINUOUS
 62
    7
 10
1768.9935999999998
 20
1103.8042
 11
1771.6966000000002
 21
1089.0491999999999
  0
LINE
  8
_0-1_LAYER003
  6
CONTINUOUS
 62
    7
 10
1771.6966000000002
 20
1089.0491999999999
 11
1860.2235999999998
 21
1105.2652
  0
LINE
  8
_0-1_LAYER003
  6
CONTINUOUS
 62
    7
 10
1860.2235999999998
 20
1105.2652
 11
1768.9935999999998
 21
1103.8042
  0
LINE
  8
_0-1_LAYER003
  6
CONTINUOUS
 62
    7
 10
1765.3726000000001
 20
1085.6674
 11
1760.0756000000001
 21
1079.7084
  0
LINE
  8
_0-1_LAYER003
  6
CONTINUOUS
 62
    7
 10
1760.0756000000001
 20
1079.7084
 11
1762.4566
 21
1105.2994000000001
  0
LINE
  8
_0-1_LAYER003
  6
CONTINUOUS
 62
    7
 10
1762.4566
 20
1105.2994000000001
 11
1868.8715999999999
 21
1124.7911999999999
  0
LINE
  8
_0-1_LAYER003
  6
CONTINUOUS
 62
    7
 10
1852.6505999999999
 20
1074.5147999999999
 11
1867.5460824835764
 21
985.29940000000011
  0
LINE
  8
_0-1_LAYER003
  6
CONTINUOUS
 62
    7
 10
1860.2777999999998
 20
1010.8484000000001
 11
1862.2190000000001
 21
1003.6039000000001
  0
LINE
  8
_0-1_LAYER003
  6
CONTINUOUS
 62
    7
 10
1860.2777999999998
 20
1010.8484000000001
 11
1865.5810999999999
 21
1005.5451
  0
LINE
  8
_0-1_LAYER003
  6
CONTINUOUS
 62
    7
 10
1852.6505999999999
 20
985.29940000000011
 11
1852.6505999999999
 21
984.6733999999999
  0
LINE
  8
_0-1_LAYER003
  6
CONTINUOUS
 62
    7
 10
1852.6505999999999
 20
984.6733999999999
 11
1867.6505999999999
 21
984.6733999999999
  0
LINE
  8
_0-1_LAYER003
  6
CONTINUOUS
 62
    7
 10
1860.2777999999998
 20
1010.8484000000001
 11
1921.0707000000002
 21
905.55199999999991
  0
LINE
  8
_0-1_LAYER003
  6
CONTINUOUS
 62
    7
 10
1872.4566
 20
968.42740000000003
 11
1812.4566
 21
908.42740000000003
  0
LINE
  8
_0-1_LAYER003
  6
CONTINUOUS
 62
    7
 10
1778.7177999999999
 20
979.99610000000007
 11
1784.0210999999999
 21
985.29940000000011
  0
LINE
  8
_0-1_LAYER003
  6
CONTINUOUS
 62
    7
 10
1784.0210999999999
 20
985.29940000000011
 11
1782.0799999999999
 21
978.05500000000006
  0
LINE
  8
_0-1_LAYER003
  6
CONTINUOUS
 62
    7
 10
1784.0210999999999
 20
985.29940000000011
 11
1691.0758999999998
 21
824.31359999999995
  0
LINE
  8
_0-1_LAYER003
  6
CONTINUOUS
 62
    7
 10
1569.4566
 20
968.42740000000003
 11
1509.4566
 21
908.42740000000003
  0
LINE
  8
_0-1_LAYER003
  6
CONTINUOUS
 62
    7
 10
1493.0171
 20
1015.5232000000001
 11
1494.9582999999998
 21
1008.2788
  0
LINE
  8
_0-1_LAYER003
  6
CONTINUOUS
 62
    7
 10
1494.9582999999998
 20
1008.2788
 11
1489.6550000000002
 21
1013.5821000000001
  0
LINE
  8
_0-1_LAYER003
  6
CONTINUOUS
 62
    7
 10
1494.9582999999998
 20
1008.2788
 11
1454.4187000000002
 21
1078.4953
  0
LINE
  8
_0-1_LAYER003
  6
CONTINUOUS
 62
    7
 10
1339.5607
 20
994.84439999999995
 11
1344.864
 21
1000.1477
  0
LINE
  8
_0-1_LAYER003
  6
CONTINUOUS
 62
    7
 10
1344.864
 20
1000.1477
 11
1342.9229
 21
992.90319999999997
  0
LINE
  8
_0-1_LAYER003
  6
CONTINUOUS
 62
    7
 10
1344.864
 20
1000.1477
 11
1163.6238000000001
 21
686.23039999999992
  0
LINE
  8
_0-1_LAYER003
  6
CONTINUOUS
 62
    7
 10
1266.4566
 20
968.42740000000003
 11
1206.4566
 21
908.42740000000003
  0
LINE
  8
_0-1_LAYER003
  6
CONTINUOUS
 62
    7
 10
963.45659999999998
 20
968.42740000000003
 11
903.45659999999998
 21
908.42740000000003
  0
TEXT
  8
_0-0_LAYER001
 62
    7
 10
1609.7220000000002
 20
1398.7694999999997
 40
20
 41
1
 50
0
  1
外壁　防火サイディング
  0
TEXT
  8
_0-0_LAYER001
 62
    7
 10
1727.2020000000002
 20
1337.3708999999997
 40
20
 41
1
 50
0
  1
胴　縁
  0
TEXT
  8
_0-0_LAYER001
 62
    7
 10
1099.1238000000003
 20
688.73039999999969
 40
20
 41
1
 50
0
  1
　垂木　
  0
TEXT
  8
_0-0_LAYER001
 62
    7
 10
1590.7869999999998
 20
1282.9394999999997
 40
20
 41
1
 50
0
  1
笠木：１５ｘ９０
  0
TEXT
  8
_0-0_LAYER001
 62
    7
 10
1160.9224284027373
 20
1216.9128531341787
 40
20
 41
1
 50
0
  1
255
  0
TEXT
  8
_0-0_LAYER001
 62
    7
 10
1412.8737221915994
 20
1213.6827083420139
 40
20
 41
1
 50
0
  1
255
  0
TEXT
  8
_0-0_LAYER001
 62
    7
 10
1795.6458800631403
 20
1202.3772015694367
 40
20
 41
1
 50
0
  1
75
  0
TEXT
  8
_0-3_LAYER006
 62
    7
 10
1896.0038000000004
 20
1157.5175999999997
 40
20
 41
1
 50
0
  1
30x30
  0
TEXT
  8
_0-3_LAYER006
 62
    7
 10
2007.2203639499414
 20
1115.1632921809844
 40
20
 41
1
 50
90
  1
300
  0
TEXT
  8
_0-0_LAYER001
 62
    7
 10
2089.5890561501465
 20
1182.9963328164472
 40
20
 41
1
 50
90
  1
150
  0
TEXT
  8
_0-0_LAYER001
 62
    7
 10
2086.3589113579815
 20
1036.0247447729444
 40
20
 41
1
 50
90
  1
145
  0
TEXT
  8
_0-0_LAYER001
 62
    7
 10
1949.0777576909732
 20
1018.2589484160374
 40
20
 41
1
 50
90
  1
95
  0
TEXT
  8
_0-0_LAYER001
 62
    7
 10
1435.3531626985946
 20
831.90592689414734
 40
20
 41
1
 50
0
  1
捨谷カラー鋼板0.35mm以上
  0
TEXT
  8
_0-0_LAYER001
 62
    7
 10
1447.7466073011933
 20
1240.5243043248317
 40
20
 41
1
 50
0
  1
雨押水切カラー鋼板0.35mm以上
  0
TEXT
  8
_0-0_LAYER001
 62
    7
 10
959.69993190562491
 20
719.68747029955921
 40
20
 41
1
 50
0
  1
　野地板：杉ｔ＝１２　
  0
TEXT
  8
_0-0_LAYER001
 62
    7
 10
952.24279999999931
 20
748.6922999999997
 40
20
 41
1
 50
0
  1
　下葺材：ルーフィング
  0
TEXT
  8
_0-0_LAYER001
 62
    7
 10
977.55286818203672
 20
782.1727472670002
 40
20
 41
1
 50
0
  1
　瓦桟：１５ｘ３０以上　
  0
TEXT
  8
_0-0_LAYER001
 62
    7
 10
1918.6576518957406
 20
909.69372066994129
 40
20
 41
1
 50
0
  1
下地材：１５ｘ９０
  0
TEXT
  8
_0-2_LAYER004
 62
    7
 10
2150.7458234890933
 20
1048.691581679147
 40
20
 41
1
 50
90
  1
水切り立上がり寸法
  0
TEXT
  8
_0-1_LAYER003
 62
    7
 10
2050.00425450077
 20
1044.8659524770587
 40
20
 41
1
 50
90
  1
下葺き材立上がり寸法
  0
TEXT
  8
_0-0_LAYER001
 62
    7
 10
1404.7481290818887
 20
1086.947873700029
 40
20
 41
1
 50
0
  1
桟　瓦
  0
ENDSEC
  0
EOF
