  0
SECTION
  2
HEADER
  9
$ACADVER
  1
AC1009
  9
$INSBASE
 10
0
 20
0
 30
0
  9
$EXTMIN
 10
0
 20
0
  9
$EXTMAX
 10
2970
 20
2100
  9
$LIMMIN
 10
0
 20
0
  9
$LIMMAX
 10
2970
 20
2100
  9
$LTSCALE
 40
10
  0
ENDSEC
  0
SECTION
  2
TABLES
  0
TABLE
  2
LTYPE
 70
     9
  0
LTYPE
  2
CONTINUOUS
 70
    64
  3
実線
 72
    65
 73
     0
 40
0.0
  0
LTYPE
  2
DASHED1
 70
    64
  3
--  --  --  --  --  --  --  --  
 72
    65
 73
     2
 40
2.5
 49
1.25
 49
-1.25
  0
LTYPE
  2
DASHED2
 70
    64
  3
----    ----    ----    ----    
 72
    65
 73
     2
 40
5.0
 49
2.5
 49
-2.5
  0
LTYPE
  2
DASHED3
 70
    64
  3
------  ------  ------  ------  
 72
    65
 73
     2
 40
5.0
 49
3.75
 49
-1.25
  0
LTYPE
  2
CENTER1
 70
    64
  3
----- - ----- - ----- - ----- - 
 72
    65
 73
     4
 40
10.0
 49
6.25
 49
-1.25
 49
1.25
 49
-1.25
  0
LTYPE
  2
CENTER2
 70
    64
  3
----------  --  ----------  --  
 72
    65
 73
     4
 40
20.0
 49
12.5
 49
-2.5
 49
2.5
 49
-2.5
  0
LTYPE
  2
PHANTOM1
 70
    64
  3
--- - - --- - - --- - - --- - - 
 72
    65
 73
     6
 40
10.0
 49
3.25
 49
-1.25
 49
1.25
 49
-1.25
 49
1.25
 49
-1.25
  0
LTYPE
  2
PHANTOM2
 70
    64
  3
--------  -  -  --------  -  -  
 72
    65
 73
     6
 40
20.0
 49
10.0
 49
-2.5
 49
1.25
 49
-2.5
 49
1.25
 49
-2.5
  0
LTYPE
  2
DOT
 70
    64
  3
-   -   -   -   -   -   -   -   
 72
    65
 73
     2
 40
2.5
 49
0.625
 49
-1.875
  0
LTYPE
  2
DUMMY
 70
    64
  3
ダミー
 72
    65
 73
     0
 40
0.0
  0
LTYPE
  2
RAND1
 70
    64
  3
ランダム線1
 72
    65
 73
     4
 40
10.0
 49
1.0
 49
-2.0
 49
3.0
 49
-4.0
  0
LTYPE
  2
RAND2
 70
    64
  3
ランダム線2
 72
    65
 73
     4
 40
14.0
 49
2.0
 49
-3.0
 49
4.0
 49
-5.0
  0
LTYPE
  2
RAND3
 70
    64
  3
ランダム線3
 72
    65
 73
     4
 40
18.0
 49
3.0
 49
-4.0
 49
5.0
 49
-6.0
  0
LTYPE
  2
RAND4
 70
    64
  3
ランダム線4
 72
    65
 73
     4
 40
22.0
 49
4.0
 49
-5.0
 49
6.0
 49
-7.0
  0
LTYPE
  2
RAND5
 70
    64
  3
ランダム線5
 72
    65
 73
     4
 40
26.0
 49
5.0
 49
-6.0
 49
7.0
 49
-8.0
  0
LTYPE
  2
LONG1
 70
    64
  3
----------  --  ----------  --  
 72
    65
 73
     4
 40
40.0
 49
32.5
 49
-2.5
 49
2.5
 49
-2.5
  0
LTYPE
  2
LONG2
 70
    64
  3
--------  -  -  --------  -  -  
 72
    65
 73
     6
 40
40.0
 49
30.0
 49
-2.5
 49
1.25
 49
-2.5
 49
1.25
 49
-2.5
  0
LTYPE
  2
LONG3
 70
    64
  3
+++++++++++++++..+++++++++++++++
 72
    65
 73
     2
 40
40.0
 49
37.5
 49
-2.5
  0
LTYPE
  2
LONG4
 70
    64
  3
+++++++++++++++..+++++++++++++++
 72
    65
 73
     2
 40
80.0
 49
75.0
 49
-5.0
  0
LTYPE
  2
LONG5
 70
    64
  3
----------  --  ----------  --  
 72
    65
 73
     4
 40
60.0
 49
37.5
 49
-7.5
 49
7.5
 49
-7.5
  0
LTYPE
  2
dashed
 70
   64
  3
-------   -------------   ------
 72
   65
 73
    2
 40
7.5
 49
6
 49
-1.5
  0
LTYPE
  2
dashed_spaced
 70
   64
  3
----        --------        ----
 72
   65
 73
    2
 40
12
 49
6
 49
-6
  0
LTYPE
  2
long_dashed_dotted
 70
   64
  3
------------- --- --------------
 72
   65
 73
    4
 40
15.25
 49
12
 49
-1.5
 49
0.25
 49
-1.5
  0
LTYPE
  2
long_dashed_double-dotted
 70
   64
  3
----------- --- --- ------------
 72
   65
 73
    6
 40
17
 49
12
 49
-1.5
 49
0.25
 49
-1.5
 49
0.25
 49
-1.5
  0
LTYPE
  2
long_dashed_triplicate-dotted
 70
   64
  3
--------- --- --- --- ----------
 72
   65
 73
    8
 40
18.75
 49
12
 49
-1.5
 49
0.25
 49
-1.5
 49
0.25
 49
-1.5
 49
0.25
 49
-1.5
  0
LTYPE
  2
dotted
 70
   64
  3
   -       -       -       -    
 72
   65
 73
    2
 40
1.75
 49
0.25
 49
-1.5
  0
LTYPE
  2
chain
 70
   64
  3
-------------- -- --------------
 72
   65
 73
    4
 40
18.5
 49
12
 49
-1.5
 49
3.5
 49
-1.5
  0
LTYPE
  2
chain_double_dash
 70
   64
  3
------------ -- -- -------------
 72
   65
 73
    6
 40
23.5
 49
12
 49
-1.5
 49
3.5
 49
-1.5
 49
3.5
 49
-1.5
  0
LTYPE
  2
dashed_dotted
 70
   64
  3
-----------     -     ----------
 72
   65
 73
    4
 40
9.25
 49
6
 49
-1.5
 49
0.25
 49
-1.5
  0
LTYPE
  2
double-dashed_dotted
 70
   64
  3
------   -----------   -   -----
 72
   65
 73
    6
 40
16.75
 49
6
 49
-1.5
 49
6
 49
-1.5
 49
0.25
 49
-1.5
  0
LTYPE
  2
dashed_double-dotted
 70
   64
  3
---------    -    -    ---------
 72
   65
 73
    6
 40
11
 49
6
 49
-1.5
 49
0.25
 49
-1.5
 49
0.25
 49
-1.5
  0
LTYPE
  2
double-dashed_double-dotted
 70
   64
  3
-----   ---------   -   -   ----
 72
   65
 73
    8
 40
18.5
 49
6
 49
-1.5
 49
6
 49
-1.5
 49
0.25
 49
-1.5
 49
0.25
 49
-1.5
  0
LTYPE
  2
dashed_triplicate-dotted
 70
   64
  3
-------    -    -    -    ------
 72
   65
 73
    8
 40
12.75
 49
6
 49
-1.5
 49
0.25
 49
-1.5
 49
0.25
 49
-1.5
 49
0.25
 49
-1.5
  0
LTYPE
  2
double-dashed_triplicate-dotted
 70
   64
  3
-----  ---------  -  -  -  -----
 72
   65
 73
   10
 40
20.25
 49
6
 49
-1.5
 49
6
 49
-1.5
 49
0.25
 49
-1.5
 49
0.25
 49
-1.5
 49
0.25
 49
-1.5
  0
LTYPE
  2
undefined
 70
   64
  3
--------------------------------
 72
   65
 73
    0
 40
0
  0
ENDTAB
  0
TABLE
  2
STYLE
  5
3
100
AcDbSymbolTable
 70
     1
  0
STYLE
  5
10
100
AcDbSymbolTableRecord
100
AcDbTextStyleTableRecord
  2
STANDARD
 70
     0
 40
0.0
 41
1.0
 50
0.0
 71
     0
 42
0.2
  3
txt
  4
bigfont.shx
  0
STYLE
  5
26
100
AcDbSymbolTableRecord
100
AcDbTextStyleTableRecord
  2
TATEGAKI
 70
    68
 40
0.0
 41
1.0
 50
0.0
 71
     0
 42
1.0
  3
txt
  4
bigfont.shx
  0
ENDTAB
  0
TABLE
  2
LAYER
 70
    3
  0
LAYER
  2
_0-0_LAYER001
 70
   64
 62
    7
  6
CONTINUOUS
  0
LAYER
  2
_0-1_LAYER004
 70
   64
 62
    7
  6
CONTINUOUS
  0
LAYER
  2
ADD_LINE
 70
   64
 62
    7
  6
CONTINUOUS
  0
ENDTAB
  0
ENDSEC
  0
SECTION
  2
BLOCKS
  0
ENDSEC
  0
SECTION
  2
ENTITIES
  0
LINE
  8
_0-1_LAYER004
  6
CONTINUOUS
 62
    2
 10
1220.5553
 20
1095.2472
 11
1216.8053
 21
1088.752
  0
LINE
  8
_0-1_LAYER004
  6
CONTINUOUS
 62
    2
 10
1216.8053
 20
1088.752
 11
1216.8053
 21
1096.252
  0
LINE
  8
_0-1_LAYER004
  6
CONTINUOUS
 62
    2
 10
1216.8053
 20
1088.752
 11
1245.4680000000001
 21
1195.7225000000001
  0
LINE
  8
_0-1_LAYER004
  6
CONTINUOUS
 62
    2
 10
1245.4680000000001
 20
1195.7225000000001
 11
1285.9680000000001
 21
1195.7225000000001
  0
LINE
  8
_0-0_LAYER001
  6
CONTINUOUS
 62
    2
 10
1426.4291000000001
 20
1050.5059000000001
 11
1430.1791000000001
 21
1057.0011
  0
LINE
  8
_0-0_LAYER001
  6
CONTINUOUS
 62
    2
 10
1430.1791000000001
 20
1057.0011
 11
1430.1791000000001
 21
1049.5011
  0
LINE
  8
_0-0_LAYER001
  6
CONTINUOUS
 62
    2
 10
1430.1791000000001
 20
1057.0011
 11
1360.5740000000001
 21
797.23129999999992
  0
LINE
  8
_0-0_LAYER001
  6
CONTINUOUS
 62
    2
 10
1843.9027000000001
 20
1060.1412
 11
998.67560000000003
 21
1060.1412
  0
LINE
  8
_0-0_LAYER001
  6
DASHED3
 62
    2
 10
1843.9027000000001
 20
1061.6412
 11
998.67560000000003
 21
1061.6412
  0
LINE
  8
_0-0_LAYER001
  6
CONTINUOUS
 62
    2
 10
1366.9175999999998
 20
827.09789999999998
 11
1195.2463
 21
827.09789999999998
  0
LINE
  8
_0-0_LAYER001
  6
CONTINUOUS
 62
    2
 10
1376.4607000000001
 20
857.19319999999993
 11
1145.0479
 21
857.19319999999993
  0
LINE
  8
_0-0_LAYER001
  6
CONTINUOUS
 62
    2
 10
1360.5740000000001
 20
797.23129999999992
 11
1297.2326
 21
797.23129999999992
  0
LINE
  8
_0-1_LAYER004
  6
CONTINUOUS
 62
    2
 10
1845.6138000000001
 20
961.92689999999993
 11
1849.3638000000001
 21
968.4221
  0
LINE
  8
_0-1_LAYER004
  6
CONTINUOUS
 62
    2
 10
1849.3638000000001
 20
968.4221
 11
1849.3638000000001
 21
960.9221
  0
LINE
  8
_0-1_LAYER004
  6
CONTINUOUS
 62
    2
 10
1849.3638000000001
 20
968.4221
 11
1807.0030999999999
 21
810.32989999999995
  0
LINE
  8
_0-1_LAYER004
  6
CONTINUOUS
 62
    2
 10
1807.0030999999999
 20
810.32989999999995
 11
1725.6637999999998
 21
810.32989999999995
  0
LINE
  8
_0-0_LAYER001
  6
CONTINUOUS
 62
    2
 10
1385.0902000000001
 20
887.28850000000011
 11
1180.2674
 21
887.28850000000011
  0
LINE
  8
_0-0_LAYER001
  6
CONTINUOUS
 62
    2
 10
1958.3243000000002
 20
1057.1412
 11
1915.8243000000002
 21
1057.1412
  0
CIRCLE
  8
_0-0_LAYER001
  6
CONTINUOUS
 62
    2
 10
1955.8243000000002
 20
1057.1412
 40
1.6999999999999997
  0
LINE
  8
_0-0_LAYER001
  6
CONTINUOUS
 62
    2
 10
1955.8243000000002
 20
1057.1412
 11
1955.8243000000002
 21
1045.1412
  0
CIRCLE
  8
_0-0_LAYER001
  6
CONTINUOUS
 62
    2
 10
1955.8243000000002
 20
1045.1412
 40
1.6999999999999997
  0
LINE
  8
_0-0_LAYER001
  6
CONTINUOUS
 62
    2
 10
1958.3243000000002
 20
1045.1412
 11
1915.8243000000002
 21
1045.1412
  0
CIRCLE
  8
_0-0_LAYER001
  6
CONTINUOUS
 62
    2
 10
1955.8243000000002
 20
1045.1412
 40
1.6999999999999997
  0
LINE
  8
_0-0_LAYER001
  6
CONTINUOUS
 62
    2
 10
1955.8243000000002
 20
1045.1412
 11
1955.8243000000002
 21
985.14120000000003
  0
CIRCLE
  8
_0-0_LAYER001
  6
CONTINUOUS
 62
    2
 10
1955.8243000000002
 20
985.14120000000003
 40
1.6999999999999997
  0
LINE
  8
_0-0_LAYER001
  6
CONTINUOUS
 62
    2
 10
1958.3243000000002
 20
985.14120000000003
 11
1915.8243000000002
 21
985.14120000000003
  0
LINE
  8
_0-0_LAYER001
  6
CONTINUOUS
 62
    3
 10
1843.9027000000001
 20
1093.1412
 11
1867.9027000000001
 21
1093.1412
  0
LINE
  8
_0-1_LAYER004
  6
CONTINUOUS
 62
    2
 10
1843.9027000000001
 20
1077.6202000000001
 11
998.67560000000003
 21
1077.6202000000001
  0
LINE
  8
_0-1_LAYER004
  6
CONTINUOUS
 62
    3
 10
1843.9027000000001
 20
1093.1412
 11
1843.9027000000001
 21
931.73820000000001
  0
LINE
  8
_0-1_LAYER004
  6
CONTINUOUS
 62
    2
 10
1843.9027000000001
 20
1045.1412
 11
998.67560000000003
 21
1045.1412
  0
LINE
  8
_0-1_LAYER004
  6
CONTINUOUS
 62
    2
 10
1843.9027000000001
 20
1062.6202000000001
 11
998.67560000000003
 21
1062.6202000000001
  0
LINE
  8
_0-1_LAYER004
  6
CONTINUOUS
 62
    2
 10
1843.9027000000001
 20
1045.1412
 11
1783.9027000000001
 21
1045.1412
  0
LINE
  8
_0-1_LAYER004
  6
CONTINUOUS
 62
    2
 10
1783.9027000000001
 20
1045.1412
 11
1783.9027000000001
 21
985.14120000000003
  0
LINE
  8
_0-1_LAYER004
  6
CONTINUOUS
 62
    2
 10
1783.9027000000001
 20
985.14120000000003
 11
1843.9027000000001
 21
985.14120000000003
  0
LINE
  8
_0-1_LAYER004
  6
CONTINUOUS
 62
    2
 10
1540.9027000000001
 20
985.14120000000003
 11
1540.9027000000001
 21
1045.1412
  0
LINE
  8
_0-1_LAYER004
  6
CONTINUOUS
 62
    2
 10
1540.9027000000001
 20
1045.1412
 11
1480.9027000000001
 21
1045.1412
  0
LINE
  8
_0-1_LAYER004
  6
CONTINUOUS
 62
    2
 10
1480.9027000000001
 20
1045.1412
 11
1480.9027000000001
 21
985.14120000000003
  0
LINE
  8
_0-1_LAYER004
  6
CONTINUOUS
 62
    2
 10
1480.9027000000001
 20
985.14120000000003
 11
1540.9027000000001
 21
985.14120000000003
  0
LINE
  8
_0-1_LAYER004
  6
CONTINUOUS
 62
    2
 10
1237.9027000000001
 20
985.14120000000003
 11
1237.9027000000001
 21
1045.1412
  0
LINE
  8
_0-1_LAYER004
  6
CONTINUOUS
 62
    2
 10
1237.9027000000001
 20
1045.1412
 11
1177.9027000000001
 21
1045.1412
  0
LINE
  8
_0-1_LAYER004
  6
CONTINUOUS
 62
    2
 10
1177.9027000000001
 20
1045.1412
 11
1177.9027000000001
 21
985.14120000000003
  0
LINE
  8
_0-1_LAYER004
  6
CONTINUOUS
 62
    2
 10
1177.9027000000001
 20
985.14120000000003
 11
1237.9027000000001
 21
985.14120000000003
  0
LINE
  8
_0-1_LAYER004
  6
CONTINUOUS
 62
    2
 10
1783.9027000000001
 20
1045.1412
 11
1843.9027000000001
 21
985.14120000000003
  0
LINE
  8
_0-1_LAYER004
  6
CONTINUOUS
 62
    2
 10
1540.9027000000001
 20
985.14120000000003
 11
1480.9027000000001
 21
1045.1412
  0
LINE
  8
_0-1_LAYER004
  6
CONTINUOUS
 62
    2
 10
1237.9027000000001
 20
985.14120000000003
 11
1177.9027000000001
 21
1045.1412
  0
LINE
  8
_0-1_LAYER004
  6
CONTINUOUS
 62
    3
 10
1867.9027000000001
 20
1093.1412
 11
1867.9027000000001
 21
931.73820000000001
  0
LINE
  8
_0-1_LAYER004
  6
CONTINUOUS
 62
    3
 10
1843.9027000000001
 20
931.73820000000001
 11
1867.9027000000001
 21
931.73820000000001
  0
LINE
  8
_0-0_LAYER001
  6
CONTINUOUS
 62
    2
 10
1854.5093000000002
 20
931.73820000000001
 11
1843.9027000000001
 21
942.34480000000008
  0
LINE
  8
_0-0_LAYER001
  6
CONTINUOUS
 62
    2
 10
1865.1158999999998
 20
931.73820000000001
 11
1843.9027000000001
 21
952.95139999999992
  0
LINE
  8
_0-0_LAYER001
  6
CONTINUOUS
 62
    2
 10
1867.9027000000001
 20
939.55799999999999
 11
1843.9027000000001
 21
963.55799999999999
  0
LINE
  8
_0-0_LAYER001
  6
CONTINUOUS
 62
    2
 10
1867.9027000000001
 20
950.16460000000006
 11
1843.9027000000001
 21
974.16460000000006
  0
LINE
  8
_0-0_LAYER001
  6
CONTINUOUS
 62
    2
 10
1867.9027000000001
 20
960.77119999999991
 11
1843.9027000000001
 21
984.77119999999991
  0
LINE
  8
_0-0_LAYER001
  6
CONTINUOUS
 62
    2
 10
1867.9027000000001
 20
971.37779999999998
 11
1843.9027000000001
 21
995.37779999999998
  0
LINE
  8
_0-0_LAYER001
  6
CONTINUOUS
 62
    2
 10
1867.9027000000001
 20
981.98440000000005
 11
1843.9027000000001
 21
1005.9844000000001
  0
LINE
  8
_0-0_LAYER001
  6
CONTINUOUS
 62
    2
 10
1867.9027000000001
 20
992.59099999999989
 11
1843.9027000000001
 21
1016.5909999999999
  0
LINE
  8
_0-0_LAYER001
  6
CONTINUOUS
 62
    2
 10
1867.9027000000001
 20
1003.1976
 11
1843.9027000000001
 21
1027.1976
  0
LINE
  8
_0-0_LAYER001
  6
CONTINUOUS
 62
    2
 10
1867.9027000000001
 20
1013.8042
 11
1843.9027000000001
 21
1037.8042
  0
LINE
  8
_0-0_LAYER001
  6
CONTINUOUS
 62
    2
 10
1867.9027000000001
 20
1024.4108000000001
 11
1843.9027000000001
 21
1048.4108000000001
  0
LINE
  8
_0-0_LAYER001
  6
CONTINUOUS
 62
    2
 10
1867.9027000000001
 20
1035.0174
 11
1843.9027000000001
 21
1059.0174
  0
LINE
  8
_0-0_LAYER001
  6
CONTINUOUS
 62
    2
 10
1867.9027000000001
 20
1045.624
 11
1843.9027000000001
 21
1069.624
  0
LINE
  8
_0-0_LAYER001
  6
CONTINUOUS
 62
    2
 10
1867.9027000000001
 20
1056.2306000000001
 11
1843.9027000000001
 21
1080.2306000000001
  0
LINE
  8
_0-0_LAYER001
  6
CONTINUOUS
 62
    2
 10
1867.9027000000001
 20
1066.8371999999999
 11
1843.9027000000001
 21
1090.8371999999999
  0
LINE
  8
_0-0_LAYER001
  6
CONTINUOUS
 62
    2
 10
1867.9027000000001
 20
1077.4438
 11
1852.2053000000001
 21
1093.1412
  0
LINE
  8
_0-0_LAYER001
  6
CONTINUOUS
 62
    4
 10
1587.7471999999998
 20
1115.2646999999999
 11
1587.7471999999998
 21
1132.4621
  0
LINE
  8
_0-0_LAYER001
  6
DASHED1
 62
    2
 10
1843.3254000000002
 20
1119.4391000000001
 11
1859.3254000000002
 21
1119.4391000000001
  0
LINE
  8
_0-0_LAYER001
  6
DASHED1
 62
    2
 10
1859.3254000000002
 20
1119.4391000000001
 11
1859.3254000000002
 21
1116.4391000000001
  0
LINE
  8
_0-0_LAYER001
  6
DASHED1
 62
    2
 10
1843.3254000000002
 20
1119.4391000000001
 11
1843.3254000000002
 21
1116.4391000000001
  0
LINE
  8
_0-0_LAYER001
  6
DASHED1
 62
    2
 10
1843.3254000000002
 20
1116.4391000000001
 11
1859.3254000000002
 21
1116.4391000000001
  0
LINE
  8
_0-0_LAYER001
  6
DASHED1
 62
    2
 10
1854.3254000000002
 20
1061.5429999999999
 11
1851.2752
 21
1047.0341000000001
  0
LINE
  8
_0-0_LAYER001
  6
DASHED1
 62
    2
 10
1854.3254000000002
 20
1116.4391000000001
 11
1854.3254000000002
 21
1061.5429999999999
  0
LINE
  8
_0-0_LAYER001
  6
DASHED1
 62
    2
 10
1851.2752
 20
1047.0341000000001
 11
1848.3254000000002
 21
1061.2916
  0
LINE
  8
_0-0_LAYER001
  6
DASHED1
 62
    2
 10
1848.3254000000002
 20
1116.4391000000001
 11
1848.3254000000002
 21
1061.2916
  0
LINE
  8
_0-0_LAYER001
  6
CONTINUOUS
 62
    4
 10
1448.0205999999998
 20
1071.4254000000001
 11
1439.4850999999999
 21
1085.9586999999999
  0
LINE
  8
_0-0_LAYER001
  6
CONTINUOUS
 62
    4
 10
1456.1885000000002
 20
1070.7751000000001
 11
1464.4947000000002
 21
1080.8406
  0
ARC
  8
_0-0_LAYER001
  6
CONTINUOUS
 62
    4
 10
1452.3319999999999
 20
1073.9575
 40
5
 50
210.42578
 51
320.47001
  0
LINE
  8
_0-0_LAYER001
  6
CONTINUOUS
 62
    4
 10
1532.1341000000002
 20
1070.3052
 11
1524.8087
 21
1081.6113
  0
LINE
  8
_0-0_LAYER001
  6
CONTINUOUS
 62
    4
 10
1540.6435999999999
 20
1070.4951000000001
 11
1549.5819999999999
 21
1085.7408
  0
ARC
  8
_0-0_LAYER001
  6
CONTINUOUS
 62
    4
 10
1536.3303000000001
 20
1073.0239999999999
 40
5
 50
212.93986000000001
 51
329.61716000000001
  0
LINE
  8
_0-0_LAYER001
  6
CONTINUOUS
 62
    4
 10
1579.9256
 20
1110.0527999999999
 11
1582.3537999999999
 21
1110.4567
  0
LINE
  8
_0-0_LAYER001
  6
CONTINUOUS
 62
    4
 10
1575.7366000000002
 20
1109.3565000000001
 11
1579.9256
 21
1110.0527999999999
  0
LINE
  8
_0-0_LAYER001
  6
CONTINUOUS
 62
    4
 10
1571.5428000000002
 20
1108.6610000000001
 11
1575.7366000000002
 21
1109.3565000000001
  0
LINE
  8
_0-0_LAYER001
  6
CONTINUOUS
 62
    4
 10
1567.3440000000001
 20
1107.9670000000001
 11
1571.5428000000002
 21
1108.6610000000001
  0
LINE
  8
_0-0_LAYER001
  6
CONTINUOUS
 62
    4
 10
1563.1399999999999
 20
1107.2755
 11
1567.3440000000001
 21
1107.9670000000001
  0
LINE
  8
_0-0_LAYER001
  6
CONTINUOUS
 62
    4
 10
1558.9331000000002
 20
1106.5879
 11
1563.1399999999999
 21
1107.2755
  0
LINE
  8
_0-0_LAYER001
  6
CONTINUOUS
 62
    4
 10
1556.4807999999998
 20
1106.1894
 11
1558.9331000000002
 21
1106.5879
  0
LINE
  8
_0-0_LAYER001
  6
CONTINUOUS
 62
    4
 10
1551.7480999999998
 20
1105.4268999999999
 11
1556.4807999999998
 21
1106.1894
  0
LINE
  8
_0-0_LAYER001
  6
CONTINUOUS
 62
    4
 10
1543.5437000000002
 20
1104.143
 11
1551.7480999999998
 21
1105.4268999999999
  0
LINE
  8
_0-0_LAYER001
  6
CONTINUOUS
 62
    4
 10
1535.2361999999998
 20
1102.9232
 11
1543.5437000000002
 21
1104.143
  0
LINE
  8
_0-0_LAYER001
  6
CONTINUOUS
 62
    4
 10
1526.8279000000002
 20
1101.8068000000001
 11
1535.2361999999998
 21
1102.9232
  0
LINE
  8
_0-0_LAYER001
  6
CONTINUOUS
 62
    4
 10
1518.3153000000002
 20
1100.8334
 11
1526.8279000000002
 21
1101.8068000000001
  0
LINE
  8
_0-0_LAYER001
  6
CONTINUOUS
 62
    4
 10
1509.7561999999998
 20
1100.0494000000001
 11
1518.3153000000002
 21
1100.8334
  0
LINE
  8
_0-0_LAYER001
  6
CONTINUOUS
 62
    4
 10
1504.6947
 20
1099.6913999999999
 11
1509.7561999999998
 21
1100.0494000000001
  0
LINE
  8
_0-0_LAYER001
  6
CONTINUOUS
 62
    4
 10
1501.8921
 20
1099.5298
 11
1504.6947
 21
1099.6913999999999
  0
LINE
  8
_0-0_LAYER001
  6
CONTINUOUS
 62
    4
 10
1497.1709999999998
 20
1099.3259
 11
1501.8921
 21
1099.5298
  0
LINE
  8
_0-0_LAYER001
  6
CONTINUOUS
 62
    4
 10
1492.3418000000001
 20
1099.2203999999999
 11
1497.1709999999998
 21
1099.3259
  0
LINE
  8
_0-0_LAYER001
  6
CONTINUOUS
 62
    4
 10
1487.4402
 20
1099.2357999999999
 11
1492.3418000000001
 21
1099.2203999999999
  0
LINE
  8
_0-0_LAYER001
  6
CONTINUOUS
 62
    4
 10
1482.4690999999998
 20
1099.3937000000001
 11
1487.4402
 21
1099.2357999999999
  0
LINE
  8
_0-0_LAYER001
  6
CONTINUOUS
 62
    4
 10
1477.5118000000002
 20
1099.7113999999999
 11
1482.4690999999998
 21
1099.3937000000001
  0
LINE
  8
_0-0_LAYER001
  6
CONTINUOUS
 62
    4
 10
1474.4600999999998
 20
1099.9928
 11
1477.5118000000002
 21
1099.7113999999999
  0
LINE
  8
_0-0_LAYER001
  6
CONTINUOUS
 62
    4
 10
1470.5313000000001
 20
1100.4550999999999
 11
1474.4600999999998
 21
1099.9928
  0
LINE
  8
_0-0_LAYER001
  6
CONTINUOUS
 62
    4
 10
1464.0173
 20
1101.4775999999999
 11
1470.5313000000001
 21
1100.4550999999999
  0
LINE
  8
_0-0_LAYER001
  6
CONTINUOUS
 62
    4
 10
1457.4706999999999
 20
1102.8298
 11
1464.0173
 21
1101.4775999999999
  0
LINE
  8
_0-0_LAYER001
  6
CONTINUOUS
 62
    4
 10
1451.0077999999999
 20
1104.4856
 11
1457.4706999999999
 21
1102.8298
  0
LINE
  8
_0-0_LAYER001
  6
CONTINUOUS
 62
    4
 10
1444.6417999999999
 20
1106.4364
 11
1451.0077999999999
 21
1104.4856
  0
LINE
  8
_0-0_LAYER001
  6
CONTINUOUS
 62
    4
 10
1438.4769999999999
 20
1108.6413
 11
1444.6417999999999
 21
1106.4364
  0
LINE
  8
_0-0_LAYER001
  6
CONTINUOUS
 62
    4
 10
1434.7903999999999
 20
1110.1131
 11
1438.4769999999999
 21
1108.6413
  0
LINE
  8
_0-0_LAYER001
  6
CONTINUOUS
 62
    4
 10
1430.4260999999999
 20
1112.0056
 11
1434.7903999999999
 21
1110.1131
  0
LINE
  8
_0-0_LAYER001
  6
CONTINUOUS
 62
    4
 10
1423.3571000000002
 20
1115.4205999999999
 11
1430.4260999999999
 21
1112.0056
  0
LINE
  8
_0-0_LAYER001
  6
CONTINUOUS
 62
    4
 10
1416.4641999999999
 20
1119.1502
 11
1423.3571000000002
 21
1115.4205999999999
  0
LINE
  8
_0-0_LAYER001
  6
CONTINUOUS
 62
    4
 10
1409.8271999999999
 20
1123.0839000000001
 11
1416.4641999999999
 21
1119.1502
  0
LINE
  8
_0-0_LAYER001
  6
CONTINUOUS
 62
    4
 10
1403.4177999999999
 20
1127.1663000000001
 11
1409.8271999999999
 21
1123.0839000000001
  0
LINE
  8
_0-0_LAYER001
  6
CONTINUOUS
 62
    4
 10
1397.2336
 20
1131.3284000000001
 11
1403.4177999999999
 21
1127.1663000000001
  0
LINE
  8
_0-0_LAYER001
  6
CONTINUOUS
 62
    4
 10
1393.6913
 20
1133.7922000000001
 11
1397.2336
 21
1131.3284000000001
  0
LINE
  8
_0-0_LAYER001
  6
CONTINUOUS
 62
    4
 10
1391.4593
 20
1135.3656000000001
 11
1393.6913
 21
1133.7922000000001
  0
LINE
  8
_0-0_LAYER001
  6
CONTINUOUS
 62
    4
 10
1387.8357000000001
 20
1137.9048
 11
1391.4593
 21
1135.3656000000001
  0
LINE
  8
_0-0_LAYER001
  6
CONTINUOUS
 62
    4
 10
1384.4661000000001
 20
1140.1703
 11
1387.8357000000001
 21
1137.9048
  0
LINE
  8
_0-0_LAYER001
  6
CONTINUOUS
 62
    4
 10
1381.3510999999999
 20
1142.0974000000001
 11
1384.4661000000001
 21
1140.1703
  0
LINE
  8
_0-0_LAYER001
  6
CONTINUOUS
 62
    4
 10
1378.4838999999999
 20
1143.6531
 11
1381.3510999999999
 21
1142.0974000000001
  0
LINE
  8
_0-0_LAYER001
  6
CONTINUOUS
 62
    4
 10
1375.6528000000001
 20
1144.9215999999999
 11
1378.4838999999999
 21
1143.6531
  0
LINE
  8
_0-0_LAYER001
  6
CONTINUOUS
 62
    4
 10
1374.1895999999999
 20
1145.4537
 11
1375.6528000000001
 21
1144.9215999999999
  0
LINE
  8
_0-0_LAYER001
  6
CONTINUOUS
 62
    4
 10
1374.0084999999999
 20
1145.5117
 11
1374.1895999999999
 21
1145.4537
  0
LINE
  8
_0-0_LAYER001
  6
CONTINUOUS
 62
    4
 10
1373.2202000000002
 20
1145.7396000000001
 11
1374.0084999999999
 21
1145.5117
  0
LINE
  8
_0-0_LAYER001
  6
CONTINUOUS
 62
    4
 10
1372.5630000000001
 20
1145.9023
 11
1373.2202000000002
 21
1145.7396000000001
  0
LINE
  8
_0-0_LAYER001
  6
CONTINUOUS
 62
    4
 10
1371.9811999999999
 20
1146.0202999999999
 11
1372.5630000000001
 21
1145.9023
  0
LINE
  8
_0-0_LAYER001
  6
CONTINUOUS
 62
    4
 10
1371.9412
 20
1146.0264999999999
 11
1371.9811999999999
 21
1146.0202999999999
  0
LINE
  8
_0-0_LAYER001
  6
CONTINUOUS
 62
    4
 10
1575.915
 20
1090.8652999999999
 11
1577.5291000000002
 21
1091.1338000000001
  0
LINE
  8
_0-0_LAYER001
  6
CONTINUOUS
 62
    4
 10
1571.7264
 20
1090.1691000000001
 11
1575.915
 21
1090.8652999999999
  0
LINE
  8
_0-0_LAYER001
  6
CONTINUOUS
 62
    4
 10
1567.5335
 20
1089.4737
 11
1571.7264
 21
1090.1691000000001
  0
LINE
  8
_0-0_LAYER001
  6
CONTINUOUS
 62
    4
 10
1563.3361
 20
1088.78
 11
1567.5335
 21
1089.4737
  0
LINE
  8
_0-0_LAYER001
  6
CONTINUOUS
 62
    4
 10
1559.1338000000001
 20
1088.0888
 11
1563.3361
 21
1088.78
  0
LINE
  8
_0-0_LAYER001
  6
CONTINUOUS
 62
    4
 10
1554.9288000000001
 20
1087.4014
 11
1559.1338000000001
 21
1088.0888
  0
LINE
  8
_0-0_LAYER001
  6
CONTINUOUS
 62
    4
 10
1552.4787999999999
 20
1087.0033000000001
 11
1554.9288000000001
 21
1087.4014
  0
LINE
  8
_0-0_LAYER001
  6
CONTINUOUS
 62
    4
 10
1547.7518
 20
1086.2418
 11
1552.4787999999999
 21
1087.0033000000001
  0
LINE
  8
_0-0_LAYER001
  6
CONTINUOUS
 62
    4
 10
1539.5612000000001
 20
1084.96
 11
1547.7518
 21
1086.2418
  0
LINE
  8
_0-0_LAYER001
  6
CONTINUOUS
 62
    4
 10
1531.2766999999999
 20
1083.7436
 11
1539.5612000000001
 21
1084.96
  0
LINE
  8
_0-0_LAYER001
  6
CONTINUOUS
 62
    4
 10
1522.9000999999998
 20
1082.6314
 11
1531.2766999999999
 21
1083.7436
  0
LINE
  8
_0-0_LAYER001
  6
CONTINUOUS
 62
    4
 10
1514.4279000000001
 20
1081.6627000000001
 11
1522.9000999999998
 21
1082.6314
  0
LINE
  8
_0-0_LAYER001
  6
CONTINUOUS
 62
    4
 10
1505.9117999999999
 20
1080.8825999999999
 11
1514.4279000000001
 21
1081.6627000000001
  0
LINE
  8
_0-0_LAYER001
  6
CONTINUOUS
 62
    4
 10
1500.8838999999998
 20
1080.527
 11
1505.9117999999999
 21
1080.8825999999999
  0
LINE
  8
_0-0_LAYER001
  6
CONTINUOUS
 62
    4
 10
1498.1087000000002
 20
1080.367
 11
1500.8838999999998
 21
1080.527
  0
LINE
  8
_0-0_LAYER001
  6
CONTINUOUS
 62
    4
 10
1493.4234999999999
 20
1080.1645000000001
 11
1498.1087000000002
 21
1080.367
  0
LINE
  8
_0-0_LAYER001
  6
CONTINUOUS
 62
    4
 10
1488.6405
 20
1080.0600999999999
 11
1493.4234999999999
 21
1080.1645000000001
  0
LINE
  8
_0-0_LAYER001
  6
CONTINUOUS
 62
    4
 10
1483.7925
 20
1080.0753
 11
1488.6405
 21
1080.0600999999999
  0
LINE
  8
_0-0_LAYER001
  6
CONTINUOUS
 62
    4
 10
1478.8823000000002
 20
1080.2311999999999
 11
1483.7925
 21
1080.0753
  0
LINE
  8
_0-0_LAYER001
  6
CONTINUOUS
 62
    4
 10
1473.9850000000001
 20
1080.5451
 11
1478.8823000000002
 21
1080.2311999999999
  0
LINE
  8
_0-0_LAYER001
  6
CONTINUOUS
 62
    4
 10
1470.9861999999998
 20
1080.8217
 11
1473.9850000000001
 21
1080.5451
  0
LINE
  8
_0-0_LAYER001
  6
CONTINUOUS
 62
    4
 10
1467.1206999999999
 20
1081.2764999999999
 11
1470.9861999999998
 21
1080.8217
  0
LINE
  8
_0-0_LAYER001
  6
CONTINUOUS
 62
    4
 10
1460.6923000000002
 20
1082.2855999999999
 11
1467.1206999999999
 21
1081.2764999999999
  0
LINE
  8
_0-0_LAYER001
  6
CONTINUOUS
 62
    4
 10
1454.2388000000001
 20
1083.6185
 11
1460.6923000000002
 21
1082.2855999999999
  0
LINE
  8
_0-0_LAYER001
  6
CONTINUOUS
 62
    4
 10
1447.8665999999998
 20
1085.2511
 11
1454.2388000000001
 21
1083.6185
  0
LINE
  8
_0-0_LAYER001
  6
CONTINUOUS
 62
    4
 10
1441.5893000000001
 20
1087.1747
 11
1447.8665999999998
 21
1085.2511
  0
LINE
  8
_0-0_LAYER001
  6
CONTINUOUS
 62
    4
 10
1435.5021999999999
 20
1089.3517999999999
 11
1441.5893000000001
 21
1087.1747
  0
LINE
  8
_0-0_LAYER001
  6
CONTINUOUS
 62
    4
 10
1431.8766000000001
 20
1090.7992999999999
 11
1435.5021999999999
 21
1089.3517999999999
  0
LINE
  8
_0-0_LAYER001
  6
CONTINUOUS
 62
    4
 10
1427.5767000000001
 20
1092.6638
 11
1431.8766000000001
 21
1090.7992999999999
  0
LINE
  8
_0-0_LAYER001
  6
CONTINUOUS
 62
    4
 10
1420.5858000000001
 20
1096.0410999999999
 11
1427.5767000000001
 21
1092.6638
  0
LINE
  8
_0-0_LAYER001
  6
CONTINUOUS
 62
    4
 10
1413.7677000000003
 20
1099.7302
 11
1420.5858000000001
 21
1096.0410999999999
  0
LINE
  8
_0-0_LAYER001
  6
CONTINUOUS
 62
    4
 10
1407.192
 20
1103.6276
 11
1413.7677000000003
 21
1099.7302
  0
LINE
  8
_0-0_LAYER001
  6
CONTINUOUS
 62
    4
 10
1400.8310000000001
 20
1107.6792
 11
1407.192
 21
1103.6276
  0
LINE
  8
_0-0_LAYER001
  6
CONTINUOUS
 62
    4
 10
1394.6804
 20
1111.8187
 11
1400.8310000000001
 21
1107.6792
  0
LINE
  8
_0-0_LAYER001
  6
CONTINUOUS
 62
    4
 10
1391.1559
 20
1114.2701
 11
1394.6804
 21
1111.8187
  0
LINE
  8
_0-0_LAYER001
  6
CONTINUOUS
 62
    4
 10
1388.9267999999997
 20
1115.8415
 11
1391.1559
 21
1114.2701
  0
LINE
  8
_0-0_LAYER001
  6
CONTINUOUS
 62
    4
 10
1385.2851000000001
 20
1118.3933999999999
 11
1388.9267999999997
 21
1115.8415
  0
LINE
  8
_0-0_LAYER001
  6
CONTINUOUS
 62
    4
 10
1381.8679
 20
1120.6908000000001
 11
1385.2851000000001
 21
1118.3933999999999
  0
LINE
  8
_0-0_LAYER001
  6
CONTINUOUS
 62
    4
 10
1378.6723000000002
 20
1122.6677999999999
 11
1381.8679
 21
1120.6908000000001
  0
LINE
  8
_0-0_LAYER001
  6
CONTINUOUS
 62
    4
 10
1375.6884
 20
1124.2868000000001
 11
1378.6723000000002
 21
1122.6677999999999
  0
LINE
  8
_0-0_LAYER001
  6
CONTINUOUS
 62
    4
 10
1372.7217999999998
 20
1125.616
 11
1375.6884
 21
1124.2868000000001
  0
LINE
  8
_0-0_LAYER001
  6
CONTINUOUS
 62
    4
 10
1371.9718
 20
1125.8887
 11
1372.7217999999998
 21
1125.616
  0
LINE
  8
_0-0_LAYER001
  6
CONTINUOUS
 62
    4
 10
1372.3049000000001
 20
1145.9319
 11
1372.1288999999999
 21
1125.7583999999999
  0
LINE
  8
_0-0_LAYER001
  6
CONTINUOUS
 62
    4
 10
1572.6305000000002
 20
1080.4440999999999
 11
1570.3851
 21
1089.0174999999999
  0
ARC
  8
_0-0_LAYER001
  6
CONTINUOUS
 62
    4
 10
1575.5327000000002
 20
1081.2040999999999
 40
3
 50
194.67639000000003
 51
270.00000000000006
  0
LINE
  8
_0-0_LAYER001
  6
CONTINUOUS
 62
    4
 10
1578.9751000000001
 20
1078.1998000000001
 11
1575.5572999999999
 21
1078.1998000000001
  0
LINE
  8
_0-0_LAYER001
  6
CONTINUOUS
 62
    4
 10
1581.9342999999999
 20
1080.7066
 11
1583.8683000000001
 21
1092.3108
  0
ARC
  8
_0-0_LAYER001
  6
CONTINUOUS
 62
    4
 10
1578.9751000000001
 20
1081.1998000000001
 40
3
 50
270
 51
350.53766999999999
  0
LINE
  8
_0-0_LAYER001
  6
CONTINUOUS
 62
    4
 10
1325.2088000000001
 20
1155.3219999999999
 11
1326.0227
 21
1155.6287
  0
LINE
  8
_0-0_LAYER001
  6
CONTINUOUS
 62
    4
 10
1326.0227
 20
1155.6287
 11
1329.5718999999999
 21
1156.9683
  0
LINE
  8
_0-0_LAYER001
  6
CONTINUOUS
 62
    4
 10
1329.5718999999999
 20
1156.9683
 11
1333.1285
 21
1158.3172
  0
LINE
  8
_0-0_LAYER001
  6
CONTINUOUS
 62
    4
 10
1333.1285
 20
1158.3172
 11
1336.6972000000001
 21
1159.6812
  0
LINE
  8
_0-0_LAYER001
  6
CONTINUOUS
 62
    4
 10
1336.6972000000001
 20
1159.6812
 11
1340.2825000000003
 21
1161.0663
  0
LINE
  8
_0-0_LAYER001
  6
CONTINUOUS
 62
    4
 10
1340.2825000000003
 20
1161.0663
 11
1343.8893000000003
 21
1162.4782
  0
LINE
  8
_0-0_LAYER001
  6
CONTINUOUS
 62
    4
 10
1343.8893000000003
 20
1162.4782
 11
1345.9928
 21
1163.3117999999999
  0
LINE
  8
_0-0_LAYER001
  6
CONTINUOUS
 62
    4
 10
1345.9928
 20
1163.3117999999999
 11
1348.0722000000001
 21
1164.1406999999999
  0
LINE
  8
_0-0_LAYER001
  6
CONTINUOUS
 62
    4
 10
1348.0722000000001
 20
1164.1406999999999
 11
1351.6786999999999
 21
1165.5422000000001
  0
LINE
  8
_0-0_LAYER001
  6
CONTINUOUS
 62
    4
 10
1351.6786999999999
 20
1165.5422000000001
 11
1355.3114
 21
1166.8249000000001
  0
LINE
  8
_0-0_LAYER001
  6
CONTINUOUS
 62
    4
 10
1355.3114
 20
1166.8249000000001
 11
1358.9693
 21
1167.8915
  0
LINE
  8
_0-0_LAYER001
  6
CONTINUOUS
 62
    4
 10
1358.9693
 20
1167.8915
 11
1362.6514999999999
 21
1168.6448
  0
LINE
  8
_0-0_LAYER001
  6
CONTINUOUS
 62
    4
 10
1362.6514999999999
 20
1168.6448
 11
1366.3567
 21
1168.9873
  0
LINE
  8
_0-0_LAYER001
  6
CONTINUOUS
 62
    4
 10
1366.3567
 20
1168.9873
 11
1368.5160000000001
 21
1168.9594
  0
LINE
  8
_0-0_LAYER001
  6
CONTINUOUS
 62
    4
 10
1368.5160000000001
 20
1168.9594
 11
1369.3652
 21
1168.8979999999999
  0
LINE
  8
_0-0_LAYER001
  6
CONTINUOUS
 62
    4
 10
1369.3652
 20
1168.8979999999999
 11
1370.8295000000001
 21
1168.7274
  0
LINE
  8
_0-0_LAYER001
  6
CONTINUOUS
 62
    4
 10
1370.8295000000001
 20
1168.7274
 11
1372.2906
 21
1168.4807000000001
  0
LINE
  8
_0-0_LAYER001
  6
CONTINUOUS
 62
    4
 10
1372.2906
 20
1168.4807000000001
 11
1373.7443000000003
 21
1168.1647
  0
LINE
  8
_0-0_LAYER001
  6
CONTINUOUS
 62
    4
 10
1373.7443000000003
 20
1168.1647
 11
1375.1864
 21
1167.7862
  0
LINE
  8
_0-0_LAYER001
  6
CONTINUOUS
 62
    4
 10
1375.1864
 20
1167.7862
 11
1376.6129000000001
 21
1167.3520000000001
  0
LINE
  8
_0-0_LAYER001
  6
CONTINUOUS
 62
    4
 10
1376.6129000000001
 20
1167.3520000000001
 11
1377.4313000000002
 21
1167.0773999999999
  0
LINE
  8
_0-0_LAYER001
  6
CONTINUOUS
 62
    4
 10
1377.4313000000002
 20
1167.0773999999999
 11
1379.9295999999999
 21
1166.1292000000001
  0
LINE
  8
_0-0_LAYER001
  6
CONTINUOUS
 62
    4
 10
1379.9295999999999
 20
1166.1292000000001
 11
1384.0885000000001
 21
1164.1956
  0
LINE
  8
_0-0_LAYER001
  6
CONTINUOUS
 62
    4
 10
1384.0885000000001
 20
1164.1956
 11
1388.0923000000003
 21
1161.9502
  0
LINE
  8
_0-0_LAYER001
  6
CONTINUOUS
 62
    4
 10
1388.0923000000003
 20
1161.9502
 11
1391.9792000000002
 21
1159.47
  0
LINE
  8
_0-0_LAYER001
  6
CONTINUOUS
 62
    4
 10
1391.9792000000002
 20
1159.47
 11
1395.7872
 21
1156.8317999999999
  0
LINE
  8
_0-0_LAYER001
  6
CONTINUOUS
 62
    4
 10
1395.7872
 20
1156.8317999999999
 11
1399.5544
 21
1154.1128000000001
  0
LINE
  8
_0-0_LAYER001
  6
CONTINUOUS
 62
    4
 10
1399.5544
 20
1154.1128000000001
 11
1401.7357999999999
 21
1152.5289
  0
LINE
  8
_0-0_LAYER001
  6
CONTINUOUS
 62
    4
 10
1401.7357999999999
 20
1152.5289
 11
1405.0673000000002
 21
1150.1421
  0
LINE
  8
_0-0_LAYER001
  6
CONTINUOUS
 62
    4
 10
1405.0673000000002
 20
1150.1421
 11
1410.8596
 21
1146.1251999999999
  0
LINE
  8
_0-0_LAYER001
  6
CONTINUOUS
 62
    4
 10
1410.8596
 20
1146.1251999999999
 11
1416.7317
 21
1142.2686000000001
  0
LINE
  8
_0-0_LAYER001
  6
CONTINUOUS
 62
    4
 10
1416.7317
 20
1142.2686000000001
 11
1422.7058999999999
 21
1138.6141
  0
LINE
  8
_0-0_LAYER001
  6
CONTINUOUS
 62
    4
 10
1422.7058999999999
 20
1138.6141
 11
1428.8041000000001
 21
1135.2036000000001
  0
LINE
  8
_0-0_LAYER001
  6
CONTINUOUS
 62
    4
 10
1428.8041000000001
 20
1135.2036000000001
 11
1435.0484000000001
 21
1132.0787
  0
LINE
  8
_0-0_LAYER001
  6
CONTINUOUS
 62
    4
 10
1435.0484000000001
 20
1132.0787
 11
1438.7456999999999
 21
1130.4137000000001
  0
LINE
  8
_0-0_LAYER001
  6
CONTINUOUS
 62
    4
 10
1438.7456999999999
 20
1130.4137000000001
 11
1441.8049000000001
 21
1129.1425999999999
  0
LINE
  8
_0-0_LAYER001
  6
CONTINUOUS
 62
    4
 10
1441.8049000000001
 20
1129.1425999999999
 11
1447.1653999999999
 21
1127.1405
  0
LINE
  8
_0-0_LAYER001
  6
CONTINUOUS
 62
    4
 10
1447.1653999999999
 20
1127.1405
 11
1452.6210999999998
 21
1125.385
  0
LINE
  8
_0-0_LAYER001
  6
CONTINUOUS
 62
    4
 10
1452.6210999999998
 20
1125.385
 11
1458.1561000000002
 21
1123.8842
  0
LINE
  8
_0-0_LAYER001
  6
CONTINUOUS
 62
    4
 10
1458.1561000000002
 20
1123.8842
 11
1463.7543999999998
 21
1122.6461999999999
  0
LINE
  8
_0-0_LAYER001
  6
CONTINUOUS
 62
    4
 10
1463.7543999999998
 20
1122.6461999999999
 11
1469.4000999999998
 21
1121.6790000000001
  0
LINE
  8
_0-0_LAYER001
  6
CONTINUOUS
 62
    4
 10
1469.4000999999998
 20
1121.6790000000001
 11
1472.6900999999998
 21
1121.2453
  0
LINE
  8
_0-0_LAYER001
  6
CONTINUOUS
 62
    4
 10
1472.6900999999998
 20
1121.2453
 11
1475.2094000000002
 21
1120.9774
  0
LINE
  8
_0-0_LAYER001
  6
CONTINUOUS
 62
    4
 10
1475.2094000000002
 20
1120.9774
 11
1479.5614999999998
 21
1120.6374000000001
  0
LINE
  8
_0-0_LAYER001
  6
CONTINUOUS
 62
    4
 10
1479.5614999999998
 20
1120.6374000000001
 11
1483.9216999999999
 21
1120.4380000000001
  0
LINE
  8
_0-0_LAYER001
  6
CONTINUOUS
 62
    4
 10
1483.9216999999999
 20
1120.4380000000001
 11
1488.2869000000001
 21
1120.3633
  0
LINE
  8
_0-0_LAYER001
  6
CONTINUOUS
 62
    4
 10
1488.2869000000001
 20
1120.3633
 11
1492.654
 21
1120.3977
  0
LINE
  8
_0-0_LAYER001
  6
CONTINUOUS
 62
    4
 10
1492.654
 20
1120.3977
 11
1497.0198999999998
 21
1120.5253
  0
LINE
  8
_0-0_LAYER001
  6
CONTINUOUS
 62
    4
 10
1497.0198999999998
 20
1120.5253
 11
1499.5504000000001
 21
1120.6357
  0
LINE
  8
_0-0_LAYER001
  6
CONTINUOUS
 62
    4
 10
1499.5504000000001
 20
1120.6357
 11
1504.2795000000001
 21
1120.9039
  0
LINE
  8
_0-0_LAYER001
  6
CONTINUOUS
 62
    4
 10
1504.2795000000001
 20
1120.9039
 11
1512.4176000000002
 21
1121.5349000000001
  0
LINE
  8
_0-0_LAYER001
  6
CONTINUOUS
 62
    4
 10
1512.4176000000002
 20
1121.5349000000001
 11
1520.5383999999999
 21
1122.3488
  0
LINE
  8
_0-0_LAYER001
  6
CONTINUOUS
 62
    4
 10
1520.5383999999999
 20
1122.3488
 11
1528.6442000000002
 21
1123.3100999999999
  0
LINE
  8
_0-0_LAYER001
  6
CONTINUOUS
 62
    4
 10
1528.6442000000002
 20
1123.3100999999999
 11
1536.7377000000001
 21
1124.3832
  0
LINE
  8
_0-0_LAYER001
  6
CONTINUOUS
 62
    4
 10
1536.7377000000001
 20
1124.3832
 11
1544.8213000000001
 21
1125.5328
  0
LINE
  8
_0-0_LAYER001
  6
CONTINUOUS
 62
    4
 10
1544.8213000000001
 20
1125.5328
 11
1549.5061999999998
 21
1126.2206000000001
  0
LINE
  8
_0-0_LAYER001
  6
CONTINUOUS
 62
    4
 10
1549.5061999999998
 20
1126.2206000000001
 11
1551.9411
 21
1126.5815
  0
LINE
  8
_0-0_LAYER001
  6
CONTINUOUS
 62
    4
 10
1551.9411
 20
1126.5815
 11
1556.1379999999999
 21
1127.2075
  0
LINE
  8
_0-0_LAYER001
  6
CONTINUOUS
 62
    4
 10
1556.1379999999999
 20
1127.2075
 11
1560.3337999999999
 21
1127.8376000000001
  0
LINE
  8
_0-0_LAYER001
  6
CONTINUOUS
 62
    4
 10
1560.3337999999999
 20
1127.8376000000001
 11
1564.5286000000001
 21
1128.4708000000001
  0
LINE
  8
_0-0_LAYER001
  6
CONTINUOUS
 62
    4
 10
1564.5286000000001
 20
1128.4708000000001
 11
1568.7228
 21
1129.1063999999999
  0
LINE
  8
_0-0_LAYER001
  6
CONTINUOUS
 62
    4
 10
1568.7228
 20
1129.1063999999999
 11
1572.9164999999998
 21
1129.7434000000001
  0
LINE
  8
_0-0_LAYER001
  6
CONTINUOUS
 62
    4
 10
1572.9164999999998
 20
1129.7434000000001
 11
1575.3488000000002
 21
1130.1132
  0
LINE
  8
_0-0_LAYER001
  6
CONTINUOUS
 62
    4
 10
1330.3119999999999
 20
1138.0096000000001
 11
1332.3739
 21
1138.7864
  0
LINE
  8
_0-0_LAYER001
  6
CONTINUOUS
 62
    4
 10
1332.3739
 20
1138.7864
 11
1335.9414999999999
 21
1140.1329000000001
  0
LINE
  8
_0-0_LAYER001
  6
CONTINUOUS
 62
    4
 10
1335.9414999999999
 20
1140.1329000000001
 11
1339.5334
 21
1141.4952000000001
  0
LINE
  8
_0-0_LAYER001
  6
CONTINUOUS
 62
    4
 10
1339.5334
 20
1141.4952000000001
 11
1343.1537000000001
 21
1142.8789999999999
  0
LINE
  8
_0-0_LAYER001
  6
CONTINUOUS
 62
    4
 10
1343.1537000000001
 20
1142.8789999999999
 11
1346.8067000000001
 21
1144.2901999999999
  0
LINE
  8
_0-0_LAYER001
  6
CONTINUOUS
 62
    4
 10
1346.8067000000001
 20
1144.2901999999999
 11
1350.4858999999999
 21
1145.7304999999999
  0
LINE
  8
_0-0_LAYER001
  6
CONTINUOUS
 62
    4
 10
1350.4858999999999
 20
1145.7304999999999
 11
1352.6411000000003
 21
1146.5845999999999
  0
LINE
  8
_0-0_LAYER001
  6
CONTINUOUS
 62
    4
 10
1352.6411000000003
 20
1146.5845999999999
 11
1354.6647000000003
 21
1147.3913
  0
LINE
  8
_0-0_LAYER001
  6
CONTINUOUS
 62
    4
 10
1354.6647000000003
 20
1147.3913
 11
1357.9366
 21
1148.6627000000001
  0
LINE
  8
_0-0_LAYER001
  6
CONTINUOUS
 62
    4
 10
1357.9366
 20
1148.6627000000001
 11
1360.8317
 21
1149.6849
  0
LINE
  8
_0-0_LAYER001
  6
CONTINUOUS
 62
    4
 10
1360.8317
 20
1149.6849
 11
1363.2998
 21
1150.4046000000001
  0
LINE
  8
_0-0_LAYER001
  6
CONTINUOUS
 62
    4
 10
1363.2998
 20
1150.4046000000001
 11
1365.2915000000003
 21
1150.8121000000001
  0
LINE
  8
_0-0_LAYER001
  6
CONTINUOUS
 62
    4
 10
1365.2915000000003
 20
1150.8121000000001
 11
1367.0708
 21
1150.9765
  0
LINE
  8
_0-0_LAYER001
  6
CONTINUOUS
 62
    4
 10
1367.0708
 20
1150.9765
 11
1367.7503999999999
 21
1150.9677999999999
  0
LINE
  8
_0-0_LAYER001
  6
CONTINUOUS
 62
    4
 10
1367.7503999999999
 20
1150.9677999999999
 11
1367.6742999999999
 21
1150.9733000000001
  0
LINE
  8
_0-0_LAYER001
  6
CONTINUOUS
 62
    4
 10
1367.6742999999999
 20
1150.9733000000001
 11
1368.2879
 21
1150.9018000000001
  0
LINE
  8
_0-0_LAYER001
  6
CONTINUOUS
 62
    4
 10
1368.2879
 20
1150.9018000000001
 11
1368.8783000000001
 21
1150.8021000000001
  0
LINE
  8
_0-0_LAYER001
  6
CONTINUOUS
 62
    4
 10
1368.8783000000001
 20
1150.8021000000001
 11
1369.5458000000003
 21
1150.6569999999999
  0
LINE
  8
_0-0_LAYER001
  6
CONTINUOUS
 62
    4
 10
1369.5458000000003
 20
1150.6569999999999
 11
1370.2792999999999
 21
1150.4644000000001
  0
LINE
  8
_0-0_LAYER001
  6
CONTINUOUS
 62
    4
 10
1370.2792999999999
 20
1150.4644000000001
 11
1371.1285
 21
1150.2059999999999
  0
LINE
  8
_0-0_LAYER001
  6
CONTINUOUS
 62
    4
 10
1371.1285
 20
1150.2059999999999
 11
1371.3725999999999
 21
1150.1241
  0
LINE
  8
_0-0_LAYER001
  6
CONTINUOUS
 62
    4
 10
1371.3725999999999
 20
1150.1241
 11
1372.9324999999999
 21
1149.5319999999999
  0
LINE
  8
_0-0_LAYER001
  6
CONTINUOUS
 62
    4
 10
1372.9324999999999
 20
1149.5319999999999
 11
1375.8802000000001
 21
1148.1615999999999
  0
LINE
  8
_0-0_LAYER001
  6
CONTINUOUS
 62
    4
 10
1375.8802000000001
 20
1148.1615999999999
 11
1378.8411999999998
 21
1146.501
  0
LINE
  8
_0-0_LAYER001
  6
CONTINUOUS
 62
    4
 10
1378.8411999999998
 20
1146.501
 11
1382.0089000000003
 21
1144.4795999999999
  0
LINE
  8
_0-0_LAYER001
  6
CONTINUOUS
 62
    4
 10
1382.0089000000003
 20
1144.4795999999999
 11
1385.3937000000001
 21
1142.1347000000001
  0
LINE
  8
_0-0_LAYER001
  6
CONTINUOUS
 62
    4
 10
1385.3937000000001
 20
1142.1347000000001
 11
1388.9993999999999
 21
1139.5322000000001
  0
LINE
  8
_0-0_LAYER001
  6
CONTINUOUS
 62
    4
 10
1388.9993999999999
 20
1139.5322000000001
 11
1391.2064
 21
1137.9297999999999
  0
LINE
  8
_0-0_LAYER001
  6
CONTINUOUS
 62
    4
 10
1391.2064
 20
1137.9297999999999
 11
1394.6963000000001
 21
1135.4295
  0
LINE
  8
_0-0_LAYER001
  6
CONTINUOUS
 62
    4
 10
1394.6963000000001
 20
1135.4295
 11
1400.7885000000001
 21
1131.2045000000001
  0
LINE
  8
_0-0_LAYER001
  6
CONTINUOUS
 62
    4
 10
1400.7885000000001
 20
1131.2045000000001
 11
1407.0922999999998
 21
1127.0645
  0
LINE
  8
_0-0_LAYER001
  6
CONTINUOUS
 62
    4
 10
1407.0922999999998
 20
1127.0645
 11
1413.6130000000001
 21
1123.0757000000001
  0
LINE
  8
_0-0_LAYER001
  6
CONTINUOUS
 62
    4
 10
1413.6130000000001
 20
1123.0757000000001
 11
1420.3789000000002
 21
1119.2917
  0
LINE
  8
_0-0_LAYER001
  6
CONTINUOUS
 62
    4
 10
1420.3789000000002
 20
1119.2917
 11
1427.3219999999997
 21
1115.8172
  0
LINE
  8
_0-0_LAYER001
  6
CONTINUOUS
 62
    4
 10
1427.3219999999997
 20
1115.8172
 11
1431.5954000000002
 21
1113.8928000000001
  0
LINE
  8
_0-0_LAYER001
  6
CONTINUOUS
 62
    4
 10
1431.5954000000002
 20
1113.8928000000001
 11
1435.2004999999999
 21
1112.3949
  0
LINE
  8
_0-0_LAYER001
  6
CONTINUOUS
 62
    4
 10
1435.2004999999999
 20
1112.3949
 11
1441.2565
 21
1110.1329000000001
  0
LINE
  8
_0-0_LAYER001
  6
CONTINUOUS
 62
    4
 10
1441.2565
 20
1110.1329000000001
 11
1447.5064000000002
 21
1108.1219000000001
  0
LINE
  8
_0-0_LAYER001
  6
CONTINUOUS
 62
    4
 10
1447.5064000000002
 20
1108.1219000000001
 11
1453.8552
 21
1106.4005
  0
LINE
  8
_0-0_LAYER001
  6
CONTINUOUS
 62
    4
 10
1453.8552
 20
1106.4005
 11
1460.2894000000001
 21
1104.9775999999999
  0
LINE
  8
_0-0_LAYER001
  6
CONTINUOUS
 62
    4
 10
1460.2894000000001
 20
1104.9775999999999
 11
1466.7031000000002
 21
1103.8788
  0
LINE
  8
_0-0_LAYER001
  6
CONTINUOUS
 62
    4
 10
1466.7031000000002
 20
1103.8788
 11
1470.5619000000002
 21
1103.3701000000001
  0
LINE
  8
_0-0_LAYER001
  6
CONTINUOUS
 62
    4
 10
1470.5619000000002
 20
1103.3701000000001
 11
1473.5565000000001
 21
1103.0517
  0
LINE
  8
_0-0_LAYER001
  6
CONTINUOUS
 62
    4
 10
1473.5565000000001
 20
1103.0517
 11
1478.4488999999999
 21
1102.6695
  0
LINE
  8
_0-0_LAYER001
  6
CONTINUOUS
 62
    4
 10
1478.4488999999999
 20
1102.6695
 11
1483.3564999999999
 21
1102.4449999999999
  0
LINE
  8
_0-0_LAYER001
  6
CONTINUOUS
 62
    4
 10
1483.3564999999999
 20
1102.4449999999999
 11
1488.2037999999998
 21
1102.3621000000001
  0
LINE
  8
_0-0_LAYER001
  6
CONTINUOUS
 62
    4
 10
1488.2037999999998
 20
1102.3621000000001
 11
1492.9877000000001
 21
1102.3996999999999
  0
LINE
  8
_0-0_LAYER001
  6
CONTINUOUS
 62
    4
 10
1492.9877000000001
 20
1102.3996999999999
 11
1497.6754000000001
 21
1102.5367000000001
  0
LINE
  8
_0-0_LAYER001
  6
CONTINUOUS
 62
    4
 10
1497.6754000000001
 20
1102.5367000000001
 11
1500.4526000000001
 21
1102.6579999999999
  0
LINE
  8
_0-0_LAYER001
  6
CONTINUOUS
 62
    4
 10
1500.4526000000001
 20
1102.6579999999999
 11
1505.4848999999999
 21
1102.9434000000001
  0
LINE
  8
_0-0_LAYER001
  6
CONTINUOUS
 62
    4
 10
1505.4848999999999
 20
1102.9434000000001
 11
1514.0111000000002
 21
1103.6043999999999
  0
LINE
  8
_0-0_LAYER001
  6
CONTINUOUS
 62
    4
 10
1514.0111000000002
 20
1103.6043999999999
 11
1522.4958999999999
 21
1104.4548
  0
LINE
  8
_0-0_LAYER001
  6
CONTINUOUS
 62
    4
 10
1522.4958999999999
 20
1104.4548
 11
1530.8872999999999
 21
1105.4499000000001
  0
LINE
  8
_0-0_LAYER001
  6
CONTINUOUS
 62
    4
 10
1530.8872999999999
 20
1105.4499000000001
 11
1539.1878999999999
 21
1106.5506
  0
LINE
  8
_0-0_LAYER001
  6
CONTINUOUS
 62
    4
 10
1539.1878999999999
 20
1106.5506
 11
1547.3957
 21
1107.7177999999999
  0
LINE
  8
_0-0_LAYER001
  6
CONTINUOUS
 62
    4
 10
1547.3957
 20
1107.7177999999999
 11
1552.1327999999999
 21
1108.4132999999999
  0
LINE
  8
_0-0_LAYER001
  6
CONTINUOUS
 62
    4
 10
1552.1327999999999
 20
1108.4132999999999
 11
1554.5882000000001
 21
1108.7772
  0
LINE
  8
_0-0_LAYER001
  6
CONTINUOUS
 62
    4
 10
1554.5882000000001
 20
1108.7772
 11
1558.8022999999998
 21
1109.4057
  0
LINE
  8
_0-0_LAYER001
  6
CONTINUOUS
 62
    4
 10
1558.8022999999998
 20
1109.4057
 11
1563.0138000000002
 21
1110.0382
  0
LINE
  8
_0-0_LAYER001
  6
CONTINUOUS
 62
    4
 10
1563.0138000000002
 20
1110.0382
 11
1567.2206000000001
 21
1110.6732999999999
  0
LINE
  8
_0-0_LAYER001
  6
CONTINUOUS
 62
    4
 10
1567.2206000000001
 20
1110.6732999999999
 11
1571.4227999999998
 21
1111.3100999999999
  0
LINE
  8
_0-0_LAYER001
  6
CONTINUOUS
 62
    4
 10
1571.4227999999998
 20
1111.3100999999999
 11
1575.6206999999999
 21
1111.9476999999999
  0
LINE
  8
_0-0_LAYER001
  6
CONTINUOUS
 62
    4
 10
1575.6206999999999
 20
1111.9476999999999
 11
1577.2384000000002
 21
1112.1936000000001
  0
LINE
  8
_0-0_LAYER001
  6
CONTINUOUS
 62
    4
 10
1324.7831000000001
 20
1155.1596999999999
 11
1325.2091
 21
1155.3227999999999
  0
ARC
  8
_0-0_LAYER001
  6
CONTINUOUS
 62
    4
 10
1325.8557000000001
 20
1152.3579999999999
 40
3
 50
110.94902000000002
 51
178.70000000000002
  0
LINE
  8
_0-0_LAYER001
  6
CONTINUOUS
 62
    4
 10
1322.7472
 20
1136.587
 11
1322.7472
 21
1152.3095000000001
  0
LINE
  8
_0-0_LAYER001
  6
CONTINUOUS
 62
    4
 10
1324.1012000000001
 20
1135.6516999999999
 11
1330.2760000000001
 21
1137.9889000000001
  0
ARC
  8
_0-0_LAYER001
  6
CONTINUOUS
 62
    4
 10
1323.7472
 20
1136.587
 40
1
 50
180
 51
290.73165999999998
  0
LINE
  8
_0-0_LAYER001
  6
CONTINUOUS
 62
    4
 10
1575.4738000000002
 20
1130.1486
 11
1619.9279999999999
 21
1139.7963999999999
  0
LINE
  8
_0-0_LAYER001
  6
CONTINUOUS
 62
    4
 10
1582.2190000000001
 20
1110.3148000000001
 11
1620.8908000000001
 21
1119.3648000000001
  0
LINE
  8
_0-0_LAYER001
  6
CONTINUOUS
 62
    4
 10
1620.8908000000001
 20
1120.3213000000001
 11
1620.8908000000001
 21
1119.3648000000001
  0
ARC
  8
_0-0_LAYER001
  6
CONTINUOUS
 62
    4
 10
1621.8908000000001
 20
1120.3213000000001
 40
1
 50
102.72435
 51
180
  0
LINE
  8
_0-0_LAYER001
  6
CONTINUOUS
 62
    4
 10
1626.7078000000001
 20
1122.4341999999999
 11
1621.6705000000002
 21
1121.2967000000001
  0
ARC
  8
_0-0_LAYER001
  6
CONTINUOUS
 62
    4
 10
1626.9279999999999
 20
1121.4586999999999
 40
1
 50
0
 51
102.72435
  0
LINE
  8
_0-0_LAYER001
  6
CONTINUOUS
 62
    4
 10
1627.1401000000001
 20
1122.9426000000001
 11
1577.0061999999998
 21
1112.0621000000001
  0
ARC
  8
_0-0_LAYER001
  6
CONTINUOUS
 62
    4
 10
1626.9279999999999
 20
1123.9199000000001
 40
1
 50
282.24497000000002
 51
0
  0
LINE
  8
_0-0_LAYER001
  6
CONTINUOUS
 62
    4
 10
1627.1459
 20
1102.2019
 11
1577.5619000000002
 21
1091.1341
  0
LINE
  8
_0-0_LAYER001
  6
CONTINUOUS
 62
    4
 10
1627.9279999999999
 20
1103.1778999999999
 11
1627.9279999999999
 21
1121.4586999999999
  0
ARC
  8
_0-0_LAYER001
  6
CONTINUOUS
 62
    4
 10
1626.9279999999999
 20
1103.1778999999999
 40
1
 50
282.58296000000001
 51
0.0000000000000254
  0
LINE
  8
_0-0_LAYER001
  6
CONTINUOUS
 62
    4
 10
1619.9279999999999
 20
1141.2535
 11
1619.9279999999999
 21
1139.7963999999999
  0
ARC
  8
_0-0_LAYER001
  6
CONTINUOUS
 62
    4
 10
1620.9279999999999
 20
1141.2535
 40
1
 50
101.73308
 51
180
  0
LINE
  8
_0-0_LAYER001
  6
CONTINUOUS
 62
    4
 10
1626.7247000000002
 20
1143.4786999999999
 11
1620.7247000000002
 21
1142.2326
  0
LINE
  8
_0-0_LAYER001
  6
CONTINUOUS
 62
    4
 10
1627.9279999999999
 20
1142.4996000000001
 11
1627.9279999999999
 21
1123.9199000000001
  0
ARC
  8
_0-0_LAYER001
  6
CONTINUOUS
 62
    4
 10
1626.9279999999999
 20
1142.4996000000001
 40
1
 50
0
 51
101.73308
  0
LINE
  8
_0-0_LAYER001
  6
CONTINUOUS
 62
    4
 10
1183.1974
 20
1071.6097
 11
1174.662
 21
1086.1431
  0
LINE
  8
_0-0_LAYER001
  6
CONTINUOUS
 62
    4
 10
1191.3652999999999
 20
1070.9594
 11
1199.6714999999999
 21
1081.0248999999999
  0
ARC
  8
_0-0_LAYER001
  6
CONTINUOUS
 62
    4
 10
1187.5089
 20
1074.1418000000001
 40
5
 50
210.42578
 51
320.47001
  0
LINE
  8
_0-0_LAYER001
  6
CONTINUOUS
 62
    4
 10
1267.3108999999999
 20
1070.4896000000001
 11
1259.9855
 21
1081.7955999999999
  0
LINE
  8
_0-0_LAYER001
  6
CONTINUOUS
 62
    4
 10
1275.8205
 20
1070.6795
 11
1284.7588999999998
 21
1085.9251999999999
  0
ARC
  8
_0-0_LAYER001
  6
CONTINUOUS
 62
    4
 10
1271.5071
 20
1073.2084
 40
5
 50
212.93986000000001
 51
329.61716000000001
  0
LINE
  8
_0-0_LAYER001
  6
CONTINUOUS
 62
    4
 10
1315.1025
 20
1110.2371000000001
 11
1317.5306
 21
1110.6410000000001
  0
LINE
  8
_0-0_LAYER001
  6
CONTINUOUS
 62
    4
 10
1310.9135000000001
 20
1109.5409
 11
1315.1025
 21
1110.2371000000001
  0
LINE
  8
_0-0_LAYER001
  6
CONTINUOUS
 62
    4
 10
1306.7197000000001
 20
1108.8453
 11
1310.9135000000001
 21
1109.5409
  0
LINE
  8
_0-0_LAYER001
  6
CONTINUOUS
 62
    4
 10
1302.5209
 20
1108.1513
 11
1306.7197000000001
 21
1108.8453
  0
LINE
  8
_0-0_LAYER001
  6
CONTINUOUS
 62
    4
 10
1298.3168000000001
 20
1107.4599000000001
 11
1302.5209
 21
1108.1513
  0
LINE
  8
_0-0_LAYER001
  6
CONTINUOUS
 62
    4
 10
1294.1100000000001
 20
1106.7722000000001
 11
1298.3168000000001
 21
1107.4599000000001
  0
LINE
  8
_0-0_LAYER001
  6
CONTINUOUS
 62
    4
 10
1291.6577000000002
 20
1106.3737000000001
 11
1294.1100000000001
 21
1106.7722000000001
  0
LINE
  8
_0-0_LAYER001
  6
CONTINUOUS
 62
    4
 10
1286.9249
 20
1105.6112000000001
 11
1291.6577000000002
 21
1106.3737000000001
  0
LINE
  8
_0-0_LAYER001
  6
CONTINUOUS
 62
    4
 10
1278.7204999999999
 20
1104.3273999999999
 11
1286.9249
 21
1105.6112000000001
  0
LINE
  8
_0-0_LAYER001
  6
CONTINUOUS
 62
    4
 10
1270.413
 20
1103.1075000000001
 11
1278.7204999999999
 21
1104.3273999999999
  0
LINE
  8
_0-0_LAYER001
  6
CONTINUOUS
 62
    4
 10
1262.0047999999999
 20
1101.9911999999999
 11
1270.413
 21
1103.1075000000001
  0
LINE
  8
_0-0_LAYER001
  6
CONTINUOUS
 62
    4
 10
1253.4921999999999
 20
1101.0178000000001
 11
1262.0047999999999
 21
1101.9911999999999
  0
LINE
  8
_0-0_LAYER001
  6
CONTINUOUS
 62
    4
 10
1244.933
 20
1100.2338
 11
1253.4921999999999
 21
1101.0178000000001
  0
LINE
  8
_0-0_LAYER001
  6
CONTINUOUS
 62
    4
 10
1239.8715
 20
1099.8758
 11
1244.933
 21
1100.2338
  0
LINE
  8
_0-0_LAYER001
  6
CONTINUOUS
 62
    4
 10
1237.0689
 20
1099.7141999999999
 11
1239.8715
 21
1099.8758
  0
LINE
  8
_0-0_LAYER001
  6
CONTINUOUS
 62
    4
 10
1232.3479
 20
1099.5101999999999
 11
1237.0689
 21
1099.7141999999999
  0
LINE
  8
_0-0_LAYER001
  6
CONTINUOUS
 62
    4
 10
1227.5187000000001
 20
1099.4048
 11
1232.3479
 21
1099.5101999999999
  0
LINE
  8
_0-0_LAYER001
  6
CONTINUOUS
 62
    4
 10
1222.617
 20
1099.4201
 11
1227.5187000000001
 21
1099.4048
  0
LINE
  8
_0-0_LAYER001
  6
CONTINUOUS
 62
    4
 10
1217.646
 20
1099.578
 11
1222.617
 21
1099.4201
  0
LINE
  8
_0-0_LAYER001
  6
CONTINUOUS
 62
    4
 10
1212.6886
 20
1099.8958
 11
1217.646
 21
1099.578
  0
LINE
  8
_0-0_LAYER001
  6
CONTINUOUS
 62
    4
 10
1209.6369999999999
 20
1100.1772000000001
 11
1212.6886
 21
1099.8958
  0
LINE
  8
_0-0_LAYER001
  6
CONTINUOUS
 62
    4
 10
1205.7081000000001
 20
1100.6394
 11
1209.6369999999999
 21
1100.1772000000001
  0
LINE
  8
_0-0_LAYER001
  6
CONTINUOUS
 62
    4
 10
1199.1941999999999
 20
1101.662
 11
1205.7081000000001
 21
1100.6394
  0
LINE
  8
_0-0_LAYER001
  6
CONTINUOUS
 62
    4
 10
1192.6475
 20
1103.0141000000001
 11
1199.1941999999999
 21
1101.662
  0
LINE
  8
_0-0_LAYER001
  6
CONTINUOUS
 62
    4
 10
1186.1846
 20
1104.6700000000001
 11
1192.6475
 21
1103.0141000000001
  0
LINE
  8
_0-0_LAYER001
  6
CONTINUOUS
 62
    4
 10
1179.8187
 20
1106.6206999999999
 11
1186.1846
 21
1104.6700000000001
  0
LINE
  8
_0-0_LAYER001
  6
CONTINUOUS
 62
    4
 10
1173.6539
 20
1108.8257000000001
 11
1179.8187
 21
1106.6206999999999
  0
LINE
  8
_0-0_LAYER001
  6
CONTINUOUS
 62
    4
 10
1169.9673
 20
1110.2973999999999
 11
1173.6539
 21
1108.8257000000001
  0
LINE
  8
_0-0_LAYER001
  6
CONTINUOUS
 62
    4
 10
1165.6030000000001
 20
1112.1899000000001
 11
1169.9673
 21
1110.2973999999999
  0
LINE
  8
_0-0_LAYER001
  6
CONTINUOUS
 62
    4
 10
1158.5338999999999
 20
1115.6049
 11
1165.6030000000001
 21
1112.1899000000001
  0
LINE
  8
_0-0_LAYER001
  6
CONTINUOUS
 62
    4
 10
1151.6410000000001
 20
1119.3344999999999
 11
1158.5338999999999
 21
1115.6049
  0
LINE
  8
_0-0_LAYER001
  6
CONTINUOUS
 62
    4
 10
1145.0039999999999
 20
1123.2682
 11
1151.6410000000001
 21
1119.3344999999999
  0
LINE
  8
_0-0_LAYER001
  6
CONTINUOUS
 62
    4
 10
1138.5947000000001
 20
1127.3507
 11
1145.0039999999999
 21
1123.2682
  0
LINE
  8
_0-0_LAYER001
  6
CONTINUOUS
 62
    4
 10
1132.4105
 20
1131.5128
 11
1138.5947000000001
 21
1127.3507
  0
LINE
  8
_0-0_LAYER001
  6
CONTINUOUS
 62
    4
 10
1128.8681999999999
 20
1133.9765
 11
1132.4105
 21
1131.5128
  0
LINE
  8
_0-0_LAYER001
  6
CONTINUOUS
 62
    4
 10
1126.6361999999999
 20
1135.55
 11
1128.8681999999999
 21
1133.9765
  0
LINE
  8
_0-0_LAYER001
  6
CONTINUOUS
 62
    4
 10
1123.0126
 20
1138.0891999999999
 11
1126.6361999999999
 21
1135.55
  0
LINE
  8
_0-0_LAYER001
  6
CONTINUOUS
 62
    4
 10
1119.6429000000001
 20
1140.3547000000001
 11
1123.0126
 21
1138.0891999999999
  0
LINE
  8
_0-0_LAYER001
  6
CONTINUOUS
 62
    4
 10
1116.5279
 20
1142.2817
 11
1119.6429000000001
 21
1140.3547000000001
  0
LINE
  8
_0-0_LAYER001
  6
CONTINUOUS
 62
    4
 10
1113.6606999999999
 20
1143.8375000000001
 11
1116.5279
 21
1142.2817
  0
LINE
  8
_0-0_LAYER001
  6
CONTINUOUS
 62
    4
 10
1110.8296
 20
1145.1059
 11
1113.6606999999999
 21
1143.8375000000001
  0
LINE
  8
_0-0_LAYER001
  6
CONTINUOUS
 62
    4
 10
1109.3664000000001
 20
1145.6379999999999
 11
1110.8296
 21
1145.1059
  0
LINE
  8
_0-0_LAYER001
  6
CONTINUOUS
 62
    4
 10
1109.1853000000001
 20
1145.6959999999999
 11
1109.3664000000001
 21
1145.6379999999999
  0
LINE
  8
_0-0_LAYER001
  6
CONTINUOUS
 62
    4
 10
1108.3969999999999
 20
1145.924
 11
1109.1853000000001
 21
1145.6959999999999
  0
LINE
  8
_0-0_LAYER001
  6
CONTINUOUS
 62
    4
 10
1107.7399
 20
1146.0867000000001
 11
1108.3969999999999
 21
1145.924
  0
LINE
  8
_0-0_LAYER001
  6
CONTINUOUS
 62
    4
 10
1107.1581000000001
 20
1146.2047
 11
1107.7399
 21
1146.0867000000001
  0
LINE
  8
_0-0_LAYER001
  6
CONTINUOUS
 62
    4
 10
1107.1179999999999
 20
1146.2108000000001
 11
1107.1581000000001
 21
1146.2047
  0
LINE
  8
_0-0_LAYER001
  6
CONTINUOUS
 62
    4
 10
1311.0918999999999
 20
1091.0496000000001
 11
1312.7060000000001
 21
1091.3181
  0
LINE
  8
_0-0_LAYER001
  6
CONTINUOUS
 62
    4
 10
1306.9032999999999
 20
1090.3534999999999
 11
1311.0918999999999
 21
1091.0496000000001
  0
LINE
  8
_0-0_LAYER001
  6
CONTINUOUS
 62
    4
 10
1302.7103999999999
 20
1089.6581000000001
 11
1306.9032999999999
 21
1090.3534999999999
  0
LINE
  8
_0-0_LAYER001
  6
CONTINUOUS
 62
    4
 10
1298.5129000000002
 20
1088.9643000000001
 11
1302.7103999999999
 21
1089.6581000000001
  0
LINE
  8
_0-0_LAYER001
  6
CONTINUOUS
 62
    4
 10
1294.3106
 20
1088.2731000000001
 11
1298.5129000000002
 21
1088.9643000000001
  0
LINE
  8
_0-0_LAYER001
  6
CONTINUOUS
 62
    4
 10
1290.1057000000001
 20
1087.5858000000001
 11
1294.3106
 21
1088.2731000000001
  0
LINE
  8
_0-0_LAYER001
  6
CONTINUOUS
 62
    4
 10
1287.6557
 20
1087.1876
 11
1290.1057000000001
 21
1087.5858000000001
  0
LINE
  8
_0-0_LAYER001
  6
CONTINUOUS
 62
    4
 10
1282.9286999999999
 20
1086.4260999999999
 11
1287.6557
 21
1087.1876
  0
LINE
  8
_0-0_LAYER001
  6
CONTINUOUS
 62
    4
 10
1274.7380000000001
 20
1085.1443999999999
 11
1282.9286999999999
 21
1086.4260999999999
  0
LINE
  8
_0-0_LAYER001
  6
CONTINUOUS
 62
    4
 10
1266.4535000000001
 20
1083.9278999999999
 11
1274.7380000000001
 21
1085.1443999999999
  0
LINE
  8
_0-0_LAYER001
  6
CONTINUOUS
 62
    4
 10
1258.0769
 20
1082.8157000000001
 11
1266.4535000000001
 21
1083.9278999999999
  0
LINE
  8
_0-0_LAYER001
  6
CONTINUOUS
 62
    4
 10
1249.6048000000001
 20
1081.847
 11
1258.0769
 21
1082.8157000000001
  0
LINE
  8
_0-0_LAYER001
  6
CONTINUOUS
 62
    4
 10
1241.0887
 20
1081.0669
 11
1249.6048000000001
 21
1081.847
  0
LINE
  8
_0-0_LAYER001
  6
CONTINUOUS
 62
    4
 10
1236.0608
 20
1080.7112999999999
 11
1241.0887
 21
1081.0669
  0
LINE
  8
_0-0_LAYER001
  6
CONTINUOUS
 62
    4
 10
1233.2855999999999
 20
1080.5513000000001
 11
1236.0608
 21
1080.7112999999999
  0
LINE
  8
_0-0_LAYER001
  6
CONTINUOUS
 62
    4
 10
1228.6003000000001
 20
1080.3489
 11
1233.2855999999999
 21
1080.5513000000001
  0
LINE
  8
_0-0_LAYER001
  6
CONTINUOUS
 62
    4
 10
1223.8173999999999
 20
1080.2445
 11
1228.6003000000001
 21
1080.3489
  0
LINE
  8
_0-0_LAYER001
  6
CONTINUOUS
 62
    4
 10
1218.9693
 20
1080.2597000000001
 11
1223.8173999999999
 21
1080.2445
  0
LINE
  8
_0-0_LAYER001
  6
CONTINUOUS
 62
    4
 10
1214.0591999999999
 20
1080.4156
 11
1218.9693
 21
1080.2597000000001
  0
LINE
  8
_0-0_LAYER001
  6
CONTINUOUS
 62
    4
 10
1209.1619000000001
 20
1080.7294999999999
 11
1214.0591999999999
 21
1080.4156
  0
LINE
  8
_0-0_LAYER001
  6
CONTINUOUS
 62
    4
 10
1206.1631
 20
1081.0060000000001
 11
1209.1619000000001
 21
1080.7294999999999
  0
LINE
  8
_0-0_LAYER001
  6
CONTINUOUS
 62
    4
 10
1202.2976000000001
 20
1081.4608000000001
 11
1206.1631
 21
1081.0060000000001
  0
LINE
  8
_0-0_LAYER001
  6
CONTINUOUS
 62
    4
 10
1195.8690999999999
 20
1082.47
 11
1202.2976000000001
 21
1081.4608000000001
  0
LINE
  8
_0-0_LAYER001
  6
CONTINUOUS
 62
    4
 10
1189.4157
 20
1083.8027999999999
 11
1195.8690999999999
 21
1082.47
  0
LINE
  8
_0-0_LAYER001
  6
CONTINUOUS
 62
    4
 10
1183.0435
 20
1085.4355
 11
1189.4157
 21
1083.8027999999999
  0
LINE
  8
_0-0_LAYER001
  6
CONTINUOUS
 62
    4
 10
1176.7662
 20
1087.3589999999999
 11
1183.0435
 21
1085.4355
  0
LINE
  8
_0-0_LAYER001
  6
CONTINUOUS
 62
    4
 10
1170.6791000000001
 20
1089.5362
 11
1176.7662
 21
1087.3589999999999
  0
LINE
  8
_0-0_LAYER001
  6
CONTINUOUS
 62
    4
 10
1167.0534
 20
1090.9836
 11
1170.6791000000001
 21
1089.5362
  0
LINE
  8
_0-0_LAYER001
  6
CONTINUOUS
 62
    4
 10
1162.7536
 20
1092.8481999999999
 11
1167.0534
 21
1090.9836
  0
LINE
  8
_0-0_LAYER001
  6
CONTINUOUS
 62
    4
 10
1155.7627
 20
1096.2254
 11
1162.7536
 21
1092.8481999999999
  0
LINE
  8
_0-0_LAYER001
  6
CONTINUOUS
 62
    4
 10
1148.9446
 20
1099.9146000000001
 11
1155.7627
 21
1096.2254
  0
LINE
  8
_0-0_LAYER001
  6
CONTINUOUS
 62
    4
 10
1142.3688
 20
1103.8118999999999
 11
1148.9446
 21
1099.9146000000001
  0
LINE
  8
_0-0_LAYER001
  6
CONTINUOUS
 62
    4
 10
1136.0079000000001
 20
1107.8635999999999
 11
1142.3688
 21
1103.8118999999999
  0
LINE
  8
_0-0_LAYER001
  6
CONTINUOUS
 62
    4
 10
1129.8572999999999
 20
1112.0030999999999
 11
1136.0079000000001
 21
1107.8635999999999
  0
LINE
  8
_0-0_LAYER001
  6
CONTINUOUS
 62
    4
 10
1126.3327999999999
 20
1114.4544000000001
 11
1129.8572999999999
 21
1112.0030999999999
  0
LINE
  8
_0-0_LAYER001
  6
CONTINUOUS
 62
    4
 10
1124.1035999999999
 20
1116.0257999999999
 11
1126.3327999999999
 21
1114.4544000000001
  0
LINE
  8
_0-0_LAYER001
  6
CONTINUOUS
 62
    4
 10
1120.4619
 20
1118.5777
 11
1124.1035999999999
 21
1116.0257999999999
  0
LINE
  8
_0-0_LAYER001
  6
CONTINUOUS
 62
    4
 10
1117.0447999999999
 20
1120.8751999999999
 11
1120.4619
 21
1118.5777
  0
LINE
  8
_0-0_LAYER001
  6
CONTINUOUS
 62
    4
 10
1113.8492000000001
 20
1122.8521000000001
 11
1117.0447999999999
 21
1120.8751999999999
  0
LINE
  8
_0-0_LAYER001
  6
CONTINUOUS
 62
    4
 10
1110.8652
 20
1124.4712
 11
1113.8492000000001
 21
1122.8521000000001
  0
LINE
  8
_0-0_LAYER001
  6
CONTINUOUS
 62
    4
 10
1107.8987
 20
1125.8003000000001
 11
1110.8652
 21
1124.4712
  0
LINE
  8
_0-0_LAYER001
  6
CONTINUOUS
 62
    4
 10
1107.1487
 20
1126.0731000000001
 11
1107.8987
 21
1125.8003000000001
  0
LINE
  8
_0-0_LAYER001
  6
CONTINUOUS
 62
    4
 10
1107.4818
 20
1146.1161999999999
 11
1107.3056999999999
 21
1125.9428
  0
LINE
  8
_0-0_LAYER001
  6
CONTINUOUS
 62
    4
 10
1307.8073999999997
 20
1080.6284000000001
 11
1305.5619999999999
 21
1089.2018
  0
ARC
  8
_0-0_LAYER001
  6
CONTINUOUS
 62
    4
 10
1310.7094999999999
 20
1081.3885
 40
3
 50
194.67639000000003
 51
270.00000000000006
  0
LINE
  8
_0-0_LAYER001
  6
CONTINUOUS
 62
    4
 10
1314.152
 20
1078.3842
 11
1310.7341999999999
 21
1078.3842
  0
LINE
  8
_0-0_LAYER001
  6
CONTINUOUS
 62
    4
 10
1317.1111999999998
 20
1080.8910000000001
 11
1319.0452
 21
1092.4951000000001
  0
ARC
  8
_0-0_LAYER001
  6
CONTINUOUS
 62
    4
 10
1314.152
 20
1081.3842
 40
3
 50
270
 51
350.53766999999999
  0
LINE
  8
_0-0_LAYER001
  6
CONTINUOUS
 62
    4
 10
1060.3856000000001
 20
1155.5064
 11
1061.1994999999999
 21
1155.8130000000001
  0
LINE
  8
_0-0_LAYER001
  6
CONTINUOUS
 62
    4
 10
1061.1994999999999
 20
1155.8130000000001
 11
1064.7488000000001
 21
1157.1525999999999
  0
LINE
  8
_0-0_LAYER001
  6
CONTINUOUS
 62
    4
 10
1064.7488000000001
 20
1157.1525999999999
 11
1068.3054
 21
1158.5015000000001
  0
LINE
  8
_0-0_LAYER001
  6
CONTINUOUS
 62
    4
 10
1068.3054
 20
1158.5015000000001
 11
1071.8741
 21
1159.8655000000001
  0
LINE
  8
_0-0_LAYER001
  6
CONTINUOUS
 62
    4
 10
1071.8741
 20
1159.8655000000001
 11
1075.4594
 21
1161.2506000000001
  0
LINE
  8
_0-0_LAYER001
  6
CONTINUOUS
 62
    4
 10
1075.4594
 20
1161.2506000000001
 11
1079.0661
 21
1162.6626000000001
  0
LINE
  8
_0-0_LAYER001
  6
CONTINUOUS
 62
    4
 10
1079.0661
 20
1162.6626000000001
 11
1081.1695999999999
 21
1163.4962
  0
LINE
  8
_0-0_LAYER001
  6
CONTINUOUS
 62
    4
 10
1081.1695999999999
 20
1163.4962
 11
1083.249
 21
1164.3251
  0
LINE
  8
_0-0_LAYER001
  6
CONTINUOUS
 62
    4
 10
1083.249
 20
1164.3251
 11
1086.8554999999999
 21
1165.7265
  0
LINE
  8
_0-0_LAYER001
  6
CONTINUOUS
 62
    4
 10
1086.8554999999999
 20
1165.7265
 11
1090.4883
 21
1167.0092
  0
LINE
  8
_0-0_LAYER001
  6
CONTINUOUS
 62
    4
 10
1090.4883
 20
1167.0092
 11
1094.1461999999999
 21
1168.0759
  0
LINE
  8
_0-0_LAYER001
  6
CONTINUOUS
 62
    4
 10
1094.1461999999999
 20
1168.0759
 11
1097.8282999999999
 21
1168.8290999999999
  0
LINE
  8
_0-0_LAYER001
  6
CONTINUOUS
 62
    4
 10
1097.8282999999999
 20
1168.8290999999999
 11
1101.5336
 21
1169.1715999999999
  0
LINE
  8
_0-0_LAYER001
  6
CONTINUOUS
 62
    4
 10
1101.5336
 20
1169.1715999999999
 11
1103.6929
 21
1169.1437000000001
  0
LINE
  8
_0-0_LAYER001
  6
CONTINUOUS
 62
    4
 10
1103.6929
 20
1169.1437000000001
 11
1104.5420999999999
 21
1169.0823
  0
LINE
  8
_0-0_LAYER001
  6
CONTINUOUS
 62
    4
 10
1104.5420999999999
 20
1169.0823
 11
1106.0064
 21
1168.9118000000001
  0
LINE
  8
_0-0_LAYER001
  6
CONTINUOUS
 62
    4
 10
1106.0064
 20
1168.9118000000001
 11
1107.4675
 21
1168.665
  0
LINE
  8
_0-0_LAYER001
  6
CONTINUOUS
 62
    4
 10
1107.4675
 20
1168.665
 11
1108.9212
 21
1168.3489999999999
  0
LINE
  8
_0-0_LAYER001
  6
CONTINUOUS
 62
    4
 10
1108.9212
 20
1168.3489999999999
 11
1110.3633
 21
1167.9704999999999
  0
LINE
  8
_0-0_LAYER001
  6
CONTINUOUS
 62
    4
 10
1110.3633
 20
1167.9704999999999
 11
1111.7897
 21
1167.5364
  0
LINE
  8
_0-0_LAYER001
  6
CONTINUOUS
 62
    4
 10
1111.7897
 20
1167.5364
 11
1112.6081999999999
 21
1167.2618
  0
LINE
  8
_0-0_LAYER001
  6
CONTINUOUS
 62
    4
 10
1112.6081999999999
 20
1167.2618
 11
1115.1065000000001
 21
1166.3135
  0
LINE
  8
_0-0_LAYER001
  6
CONTINUOUS
 62
    4
 10
1115.1065000000001
 20
1166.3135
 11
1119.2654
 21
1164.3800000000001
  0
LINE
  8
_0-0_LAYER001
  6
CONTINUOUS
 62
    4
 10
1119.2654
 20
1164.3800000000001
 11
1123.2692
 21
1162.1346000000001
  0
LINE
  8
_0-0_LAYER001
  6
CONTINUOUS
 62
    4
 10
1123.2692
 20
1162.1346000000001
 11
1127.1559999999999
 21
1159.6542999999999
  0
LINE
  8
_0-0_LAYER001
  6
CONTINUOUS
 62
    4
 10
1127.1559999999999
 20
1159.6542999999999
 11
1130.9639999999999
 21
1157.0162
  0
LINE
  8
_0-0_LAYER001
  6
CONTINUOUS
 62
    4
 10
1130.9639999999999
 20
1157.0162
 11
1134.7312999999999
 21
1154.2971
  0
LINE
  8
_0-0_LAYER001
  6
CONTINUOUS
 62
    4
 10
1134.7312999999999
 20
1154.2971
 11
1136.9126000000001
 21
1152.7132999999999
  0
LINE
  8
_0-0_LAYER001
  6
CONTINUOUS
 62
    4
 10
1136.9126000000001
 20
1152.7132999999999
 11
1140.2442000000001
 21
1150.3264999999999
  0
LINE
  8
_0-0_LAYER001
  6
CONTINUOUS
 62
    4
 10
1140.2442000000001
 20
1150.3264999999999
 11
1146.0364
 21
1146.3095000000001
  0
LINE
  8
_0-0_LAYER001
  6
CONTINUOUS
 62
    4
 10
1146.0364
 20
1146.3095000000001
 11
1151.9086
 21
1142.4529
  0
LINE
  8
_0-0_LAYER001
  6
CONTINUOUS
 62
    4
 10
1151.9086
 20
1142.4529
 11
1157.8828000000001
 21
1138.7983999999999
  0
LINE
  8
_0-0_LAYER001
  6
CONTINUOUS
 62
    4
 10
1157.8828000000001
 20
1138.7983999999999
 11
1163.981
 21
1135.3878999999999
  0
LINE
  8
_0-0_LAYER001
  6
CONTINUOUS
 62
    4
 10
1163.981
 20
1135.3878999999999
 11
1170.2252000000001
 21
1132.2630999999999
  0
LINE
  8
_0-0_LAYER001
  6
CONTINUOUS
 62
    4
 10
1170.2252000000001
 20
1132.2630999999999
 11
1173.9224999999999
 21
1130.5980999999999
  0
LINE
  8
_0-0_LAYER001
  6
CONTINUOUS
 62
    4
 10
1173.9224999999999
 20
1130.5980999999999
 11
1176.9818
 21
1129.327
  0
LINE
  8
_0-0_LAYER001
  6
CONTINUOUS
 62
    4
 10
1176.9818
 20
1129.327
 11
1182.3423
 21
1127.3248000000001
  0
LINE
  8
_0-0_LAYER001
  6
CONTINUOUS
 62
    4
 10
1182.3423
 20
1127.3248000000001
 11
1187.798
 21
1125.5694000000001
  0
LINE
  8
_0-0_LAYER001
  6
CONTINUOUS
 62
    4
 10
1187.798
 20
1125.5694000000001
 11
1193.3330000000001
 21
1124.0686000000001
  0
LINE
  8
_0-0_LAYER001
  6
CONTINUOUS
 62
    4
 10
1193.3330000000001
 20
1124.0686000000001
 11
1198.9313
 21
1122.8306
  0
LINE
  8
_0-0_LAYER001
  6
CONTINUOUS
 62
    4
 10
1198.9313
 20
1122.8306
 11
1204.577
 21
1121.8634
  0
LINE
  8
_0-0_LAYER001
  6
CONTINUOUS
 62
    4
 10
1204.577
 20
1121.8634
 11
1207.867
 21
1121.4295999999999
  0
LINE
  8
_0-0_LAYER001
  6
CONTINUOUS
 62
    4
 10
1207.867
 20
1121.4295999999999
 11
1210.3862999999999
 21
1121.1618000000001
  0
LINE
  8
_0-0_LAYER001
  6
CONTINUOUS
 62
    4
 10
1210.3862999999999
 20
1121.1618000000001
 11
1214.7384
 21
1120.8217
  0
LINE
  8
_0-0_LAYER001
  6
CONTINUOUS
 62
    4
 10
1214.7384
 20
1120.8217
 11
1219.0986
 21
1120.6223
  0
LINE
  8
_0-0_LAYER001
  6
CONTINUOUS
 62
    4
 10
1219.0986
 20
1120.6223
 11
1223.4638
 21
1120.5477000000001
  0
LINE
  8
_0-0_LAYER001
  6
CONTINUOUS
 62
    4
 10
1223.4638
 20
1120.5477000000001
 11
1227.8308999999999
 21
1120.5820000000001
  0
LINE
  8
_0-0_LAYER001
  6
CONTINUOUS
 62
    4
 10
1227.8308999999999
 20
1120.5820000000001
 11
1232.1967999999999
 21
1120.7095999999999
  0
LINE
  8
_0-0_LAYER001
  6
CONTINUOUS
 62
    4
 10
1232.1967999999999
 20
1120.7095999999999
 11
1234.7272
 21
1120.8200999999999
  0
LINE
  8
_0-0_LAYER001
  6
CONTINUOUS
 62
    4
 10
1234.7272
 20
1120.8200999999999
 11
1239.4563000000001
 21
1121.0882999999999
  0
LINE
  8
_0-0_LAYER001
  6
CONTINUOUS
 62
    4
 10
1239.4563000000001
 20
1121.0882999999999
 11
1247.5944999999999
 21
1121.7193
  0
LINE
  8
_0-0_LAYER001
  6
CONTINUOUS
 62
    4
 10
1247.5944999999999
 20
1121.7193
 11
1255.7153000000001
 21
1122.5331000000001
  0
LINE
  8
_0-0_LAYER001
  6
CONTINUOUS
 62
    4
 10
1255.7153000000001
 20
1122.5331000000001
 11
1263.8210999999999
 21
1123.4944
  0
LINE
  8
_0-0_LAYER001
  6
CONTINUOUS
 62
    4
 10
1263.8210999999999
 20
1123.4944
 11
1271.9146000000001
 21
1124.5676000000001
  0
LINE
  8
_0-0_LAYER001
  6
CONTINUOUS
 62
    4
 10
1271.9146000000001
 20
1124.5676000000001
 11
1279.9981
 21
1125.7172
  0
LINE
  8
_0-0_LAYER001
  6
CONTINUOUS
 62
    4
 10
1279.9981
 20
1125.7172
 11
1284.683
 21
1126.405
  0
LINE
  8
_0-0_LAYER001
  6
CONTINUOUS
 62
    4
 10
1284.683
 20
1126.405
 11
1287.1179000000002
 21
1126.7657999999999
  0
LINE
  8
_0-0_LAYER001
  6
CONTINUOUS
 62
    4
 10
1287.1179000000002
 20
1126.7657999999999
 11
1291.3149000000001
 21
1127.3918000000001
  0
LINE
  8
_0-0_LAYER001
  6
CONTINUOUS
 62
    4
 10
1291.3149000000001
 20
1127.3918000000001
 11
1295.5107
 21
1128.0219
  0
LINE
  8
_0-0_LAYER001
  6
CONTINUOUS
 62
    4
 10
1295.5107
 20
1128.0219
 11
1299.7055
 21
1128.6551999999999
  0
LINE
  8
_0-0_LAYER001
  6
CONTINUOUS
 62
    4
 10
1299.7055
 20
1128.6551999999999
 11
1303.8996999999999
 21
1129.2908
  0
LINE
  8
_0-0_LAYER001
  6
CONTINUOUS
 62
    4
 10
1303.8996999999999
 20
1129.2908
 11
1308.0934
 21
1129.9277999999999
  0
LINE
  8
_0-0_LAYER001
  6
CONTINUOUS
 62
    4
 10
1308.0934
 20
1129.9277999999999
 11
1310.5257000000001
 21
1130.2974999999999
  0
LINE
  8
_0-0_LAYER001
  6
CONTINUOUS
 62
    4
 10
1065.4888000000001
 20
1138.1939
 11
1067.5507
 21
1138.9708000000001
  0
LINE
  8
_0-0_LAYER001
  6
CONTINUOUS
 62
    4
 10
1067.5507
 20
1138.9708000000001
 11
1071.1183000000001
 21
1140.3172999999999
  0
LINE
  8
_0-0_LAYER001
  6
CONTINUOUS
 62
    4
 10
1071.1183000000001
 20
1140.3172999999999
 11
1074.7102
 21
1141.6795
  0
LINE
  8
_0-0_LAYER001
  6
CONTINUOUS
 62
    4
 10
1074.7102
 20
1141.6795
 11
1078.3306
 21
1143.0633
  0
LINE
  8
_0-0_LAYER001
  6
CONTINUOUS
 62
    4
 10
1078.3306
 20
1143.0633
 11
1081.9836
 21
1144.4745
  0
LINE
  8
_0-0_LAYER001
  6
CONTINUOUS
 62
    4
 10
1081.9836
 20
1144.4745
 11
1085.6628000000001
 21
1145.9149
  0
LINE
  8
_0-0_LAYER001
  6
CONTINUOUS
 62
    4
 10
1085.6628000000001
 20
1145.9149
 11
1087.818
 21
1146.7689
  0
LINE
  8
_0-0_LAYER001
  6
CONTINUOUS
 62
    4
 10
1087.818
 20
1146.7689
 11
1089.8415
 21
1147.5755999999999
  0
LINE
  8
_0-0_LAYER001
  6
CONTINUOUS
 62
    4
 10
1089.8415
 20
1147.5755999999999
 11
1093.1134
 21
1148.847
  0
LINE
  8
_0-0_LAYER001
  6
CONTINUOUS
 62
    4
 10
1093.1134
 20
1148.847
 11
1096.0084999999999
 21
1149.8693000000001
  0
LINE
  8
_0-0_LAYER001
  6
CONTINUOUS
 62
    4
 10
1096.0084999999999
 20
1149.8693000000001
 11
1098.4766999999999
 21
1150.5889999999999
  0
LINE
  8
_0-0_LAYER001
  6
CONTINUOUS
 62
    4
 10
1098.4766999999999
 20
1150.5889999999999
 11
1100.4684
 21
1150.9964
  0
LINE
  8
_0-0_LAYER001
  6
CONTINUOUS
 62
    4
 10
1100.4684
 20
1150.9964
 11
1102.2476999999999
 21
1151.1609000000001
  0
LINE
  8
_0-0_LAYER001
  6
CONTINUOUS
 62
    4
 10
1102.2476999999999
 20
1151.1609000000001
 11
1102.9272000000001
 21
1151.1521
  0
LINE
  8
_0-0_LAYER001
  6
CONTINUOUS
 62
    4
 10
1102.9272000000001
 20
1151.1521
 11
1102.8511000000001
 21
1151.1576
  0
LINE
  8
_0-0_LAYER001
  6
CONTINUOUS
 62
    4
 10
1102.8511000000001
 20
1151.1576
 11
1103.4648
 21
1151.0861
  0
LINE
  8
_0-0_LAYER001
  6
CONTINUOUS
 62
    4
 10
1103.4648
 20
1151.0861
 11
1104.0552
 21
1150.9864
  0
LINE
  8
_0-0_LAYER001
  6
CONTINUOUS
 62
    4
 10
1104.0552
 20
1150.9864
 11
1104.7226000000001
 21
1150.8413
  0
LINE
  8
_0-0_LAYER001
  6
CONTINUOUS
 62
    4
 10
1104.7226000000001
 20
1150.8413
 11
1105.4562000000001
 21
1150.6487999999999
  0
LINE
  8
_0-0_LAYER001
  6
CONTINUOUS
 62
    4
 10
1105.4562000000001
 20
1150.6487999999999
 11
1106.3053
 21
1150.3903
  0
LINE
  8
_0-0_LAYER001
  6
CONTINUOUS
 62
    4
 10
1106.3053
 20
1150.3903
 11
1106.5494000000001
 21
1150.3083999999999
  0
LINE
  8
_0-0_LAYER001
  6
CONTINUOUS
 62
    4
 10
1106.5494000000001
 20
1150.3083999999999
 11
1108.1093000000001
 21
1149.7164
  0
LINE
  8
_0-0_LAYER001
  6
CONTINUOUS
 62
    4
 10
1108.1093000000001
 20
1149.7164
 11
1111.057
 21
1148.3459
  0
LINE
  8
_0-0_LAYER001
  6
CONTINUOUS
 62
    4
 10
1111.057
 20
1148.3459
 11
1114.0181
 21
1146.6853000000001
  0
LINE
  8
_0-0_LAYER001
  6
CONTINUOUS
 62
    4
 10
1114.0181
 20
1146.6853000000001
 11
1117.1858
 21
1144.664
  0
LINE
  8
_0-0_LAYER001
  6
CONTINUOUS
 62
    4
 10
1117.1858
 20
1144.664
 11
1120.5705
 21
1142.3190999999999
  0
LINE
  8
_0-0_LAYER001
  6
CONTINUOUS
 62
    4
 10
1120.5705
 20
1142.3190999999999
 11
1124.1762000000001
 21
1139.7166
  0
LINE
  8
_0-0_LAYER001
  6
CONTINUOUS
 62
    4
 10
1124.1762000000001
 20
1139.7166
 11
1126.3832
 21
1138.1142
  0
LINE
  8
_0-0_LAYER001
  6
CONTINUOUS
 62
    4
 10
1126.3832
 20
1138.1142
 11
1129.8732
 21
1135.6138000000001
  0
LINE
  8
_0-0_LAYER001
  6
CONTINUOUS
 62
    4
 10
1129.8732
 20
1135.6138000000001
 11
1135.9654
 21
1131.3888999999999
  0
LINE
  8
_0-0_LAYER001
  6
CONTINUOUS
 62
    4
 10
1135.9654
 20
1131.3888999999999
 11
1142.2691
 21
1127.2488000000001
  0
LINE
  8
_0-0_LAYER001
  6
CONTINUOUS
 62
    4
 10
1142.2691
 20
1127.2488000000001
 11
1148.7898
 21
1123.26
  0
LINE
  8
_0-0_LAYER001
  6
CONTINUOUS
 62
    4
 10
1148.7898
 20
1123.26
 11
1155.5558000000001
 21
1119.4760000000001
  0
LINE
  8
_0-0_LAYER001
  6
CONTINUOUS
 62
    4
 10
1155.5558000000001
 20
1119.4760000000001
 11
1162.4988000000001
 21
1116.0015000000001
  0
LINE
  8
_0-0_LAYER001
  6
CONTINUOUS
 62
    4
 10
1162.4988000000001
 20
1116.0015000000001
 11
1166.7722000000001
 21
1114.0771
  0
LINE
  8
_0-0_LAYER001
  6
CONTINUOUS
 62
    4
 10
1166.7722000000001
 20
1114.0771
 11
1170.3773000000001
 21
1112.5791999999999
  0
LINE
  8
_0-0_LAYER001
  6
CONTINUOUS
 62
    4
 10
1170.3773000000001
 20
1112.5791999999999
 11
1176.4333999999999
 21
1110.3172999999999
  0
LINE
  8
_0-0_LAYER001
  6
CONTINUOUS
 62
    4
 10
1176.4333999999999
 20
1110.3172999999999
 11
1182.6832999999999
 21
1108.3063
  0
LINE
  8
_0-0_LAYER001
  6
CONTINUOUS
 62
    4
 10
1182.6832999999999
 20
1108.3063
 11
1189.0319999999999
 21
1106.5848000000001
  0
LINE
  8
_0-0_LAYER001
  6
CONTINUOUS
 62
    4
 10
1189.0319999999999
 20
1106.5848000000001
 11
1195.4662000000001
 21
1105.162
  0
LINE
  8
_0-0_LAYER001
  6
CONTINUOUS
 62
    4
 10
1195.4662000000001
 20
1105.162
 11
1201.8798999999999
 21
1104.0632000000001
  0
LINE
  8
_0-0_LAYER001
  6
CONTINUOUS
 62
    4
 10
1201.8798999999999
 20
1104.0632000000001
 11
1205.7388000000001
 21
1103.5545
  0
LINE
  8
_0-0_LAYER001
  6
CONTINUOUS
 62
    4
 10
1205.7388000000001
 20
1103.5545
 11
1208.7334000000001
 21
1103.2361000000001
  0
LINE
  8
_0-0_LAYER001
  6
CONTINUOUS
 62
    4
 10
1208.7334000000001
 20
1103.2361000000001
 11
1213.6258
 21
1102.8538000000001
  0
LINE
  8
_0-0_LAYER001
  6
CONTINUOUS
 62
    4
 10
1213.6258
 20
1102.8538000000001
 11
1218.5333000000001
 21
1102.6293000000001
  0
LINE
  8
_0-0_LAYER001
  6
CONTINUOUS
 62
    4
 10
1218.5333000000001
 20
1102.6293000000001
 11
1223.3806999999999
 21
1102.5464999999999
  0
LINE
  8
_0-0_LAYER001
  6
CONTINUOUS
 62
    4
 10
1223.3806999999999
 20
1102.5464999999999
 11
1228.1646000000001
 21
1102.5841
  0
LINE
  8
_0-0_LAYER001
  6
CONTINUOUS
 62
    4
 10
1228.1646000000001
 20
1102.5841
 11
1232.8523
 21
1102.7211
  0
LINE
  8
_0-0_LAYER001
  6
CONTINUOUS
 62
    4
 10
1232.8523
 20
1102.7211
 11
1235.6294
 21
1102.8423
  0
LINE
  8
_0-0_LAYER001
  6
CONTINUOUS
 62
    4
 10
1235.6294
 20
1102.8423
 11
1240.6618000000001
 21
1103.1277
  0
LINE
  8
_0-0_LAYER001
  6
CONTINUOUS
 62
    4
 10
1240.6618000000001
 20
1103.1277
 11
1249.1878999999999
 21
1103.7888
  0
LINE
  8
_0-0_LAYER001
  6
CONTINUOUS
 62
    4
 10
1249.1878999999999
 20
1103.7888
 11
1257.6728000000001
 21
1104.6392000000001
  0
LINE
  8
_0-0_LAYER001
  6
CONTINUOUS
 62
    4
 10
1257.6728000000001
 20
1104.6392000000001
 11
1266.0641000000001
 21
1105.6342999999999
  0
LINE
  8
_0-0_LAYER001
  6
CONTINUOUS
 62
    4
 10
1266.0641000000001
 20
1105.6342999999999
 11
1274.3648000000001
 21
1106.7348999999999
  0
LINE
  8
_0-0_LAYER001
  6
CONTINUOUS
 62
    4
 10
1274.3648000000001
 20
1106.7348999999999
 11
1282.5725
 21
1107.9022
  0
LINE
  8
_0-0_LAYER001
  6
CONTINUOUS
 62
    4
 10
1282.5725
 20
1107.9022
 11
1287.3097000000002
 21
1108.5976000000001
  0
LINE
  8
_0-0_LAYER001
  6
CONTINUOUS
 62
    4
 10
1287.3097000000002
 20
1108.5976000000001
 11
1289.7650000000001
 21
1108.9614999999999
  0
LINE
  8
_0-0_LAYER001
  6
CONTINUOUS
 62
    4
 10
1289.7650000000001
 20
1108.9614999999999
 11
1293.9792
 21
1109.5900999999999
  0
LINE
  8
_0-0_LAYER001
  6
CONTINUOUS
 62
    4
 10
1293.9792
 20
1109.5900999999999
 11
1298.1907000000001
 21
1110.2225000000001
  0
LINE
  8
_0-0_LAYER001
  6
CONTINUOUS
 62
    4
 10
1298.1907000000001
 20
1110.2225000000001
 11
1302.3974000000001
 21
1110.8576
  0
LINE
  8
_0-0_LAYER001
  6
CONTINUOUS
 62
    4
 10
1302.3974000000001
 20
1110.8576
 11
1306.5996
 21
1111.4944
  0
LINE
  8
_0-0_LAYER001
  6
CONTINUOUS
 62
    4
 10
1306.5996
 20
1111.4944
 11
1310.7974999999999
 21
1112.1320000000001
  0
LINE
  8
_0-0_LAYER001
  6
CONTINUOUS
 62
    4
 10
1310.7974999999999
 20
1112.1320000000001
 11
1312.4151999999999
 21
1112.3779999999999
  0
LINE
  8
_0-0_LAYER001
  6
CONTINUOUS
 62
    4
 10
1059.96
 20
1155.3440000000001
 11
1060.386
 21
1155.5071
  0
ARC
  8
_0-0_LAYER001
  6
CONTINUOUS
 62
    4
 10
1061.0326
 20
1152.5423000000001
 40
3
 50
110.94902000000002
 51
178.70000000000002
  0
LINE
  8
_0-0_LAYER001
  6
CONTINUOUS
 62
    4
 10
1057.924
 20
1136.7713000000001
 11
1057.924
 21
1152.4938
  0
LINE
  8
_0-0_LAYER001
  6
CONTINUOUS
 62
    4
 10
1059.278
 20
1135.8361
 11
1065.4529
 21
1138.1732
  0
ARC
  8
_0-0_LAYER001
  6
CONTINUOUS
 62
    4
 10
1058.924
 20
1136.7713000000001
 40
1
 50
180
 51
290.73165999999998
  0
LINE
  8
_0-0_LAYER001
  6
CONTINUOUS
 62
    4
 10
1322.924
 20
1115.4491
 11
1322.924
 21
1132.6465000000001
  0
LINE
  8
_0-0_LAYER001
  6
CONTINUOUS
 62
    4
 10
1310.6505999999999
 20
1130.3329000000001
 11
1355.1049
 21
1139.9808
  0
LINE
  8
_0-0_LAYER001
  6
CONTINUOUS
 62
    4
 10
1317.3957999999998
 20
1110.4992
 11
1356.0676000000001
 21
1119.5491
  0
LINE
  8
_0-0_LAYER001
  6
CONTINUOUS
 62
    4
 10
1356.0676000000001
 20
1120.5056
 11
1356.0676000000001
 21
1119.5491
  0
ARC
  8
_0-0_LAYER001
  6
CONTINUOUS
 62
    4
 10
1357.0676000000001
 20
1120.5056
 40
1
 50
102.72435
 51
180
  0
LINE
  8
_0-0_LAYER001
  6
CONTINUOUS
 62
    4
 10
1361.8846000000003
 20
1122.6185
 11
1356.8474000000001
 21
1121.4811
  0
ARC
  8
_0-0_LAYER001
  6
CONTINUOUS
 62
    4
 10
1362.1048999999998
 20
1121.6431
 40
1
 50
0
 51
102.72435
  0
LINE
  8
_0-0_LAYER001
  6
CONTINUOUS
 62
    4
 10
1362.317
 20
1123.127
 11
1312.183
 21
1112.2464
  0
ARC
  8
_0-0_LAYER001
  6
CONTINUOUS
 62
    4
 10
1362.1048999999998
 20
1124.1042
 40
1
 50
282.24497000000002
 51
0
  0
LINE
  8
_0-0_LAYER001
  6
CONTINUOUS
 62
    4
 10
1362.3226999999999
 20
1102.3862999999999
 11
1312.7388000000001
 21
1091.3184000000001
  0
LINE
  8
_0-0_LAYER001
  6
CONTINUOUS
 62
    4
 10
1363.1049000000003
 20
1103.3622
 11
1363.1049000000003
 21
1121.6431
  0
ARC
  8
_0-0_LAYER001
  6
CONTINUOUS
 62
    4
 10
1362.1048999999998
 20
1103.3622
 40
1
 50
282.58296000000001
 51
0.0000000000000254
  0
LINE
  8
_0-0_LAYER001
  6
CONTINUOUS
 62
    4
 10
1355.1049
 20
1141.4377999999999
 11
1355.1049
 21
1139.9808
  0
ARC
  8
_0-0_LAYER001
  6
CONTINUOUS
 62
    4
 10
1356.1049
 20
1141.4377999999999
 40
1
 50
101.73308
 51
180
  0
LINE
  8
_0-0_LAYER001
  6
CONTINUOUS
 62
    4
 10
1361.9014999999999
 20
1143.6631
 11
1355.9014999999999
 21
1142.4168999999999
  0
LINE
  8
_0-0_LAYER001
  6
CONTINUOUS
 62
    4
 10
1363.1049000000003
 20
1142.684
 11
1363.1049000000003
 21
1124.1042
  0
ARC
  8
_0-0_LAYER001
  6
CONTINUOUS
 62
    4
 10
1362.1048999999998
 20
1142.684
 40
1
 50
0
 51
101.73308
  0
LINE
  8
_0-0_LAYER001
  6
DASHED1
 62
    2
 10
1162.3158000000001
 20
1115.2021999999999
 11
1178.3158000000001
 21
1115.2021999999999
  0
LINE
  8
_0-0_LAYER001
  6
DASHED1
 62
    2
 10
1178.3158000000001
 20
1115.2021999999999
 11
1178.3158000000001
 21
1112.2021999999999
  0
LINE
  8
_0-0_LAYER001
  6
DASHED1
 62
    2
 10
1162.3158000000001
 20
1115.2021999999999
 11
1162.3158000000001
 21
1112.2021999999999
  0
LINE
  8
_0-0_LAYER001
  6
DASHED1
 62
    2
 10
1162.3158000000001
 20
1112.2021999999999
 11
1178.3158000000001
 21
1112.2021999999999
  0
LINE
  8
_0-0_LAYER001
  6
DASHED1
 62
    2
 10
1173.3158000000001
 20
1057.3061
 11
1170.2655999999999
 21
1042.7972
  0
LINE
  8
_0-0_LAYER001
  6
DASHED1
 62
    2
 10
1173.3158000000001
 20
1112.2021999999999
 11
1173.3158000000001
 21
1057.3061
  0
LINE
  8
_0-0_LAYER001
  6
DASHED1
 62
    2
 10
1170.2655999999999
 20
1042.7972
 11
1167.3158000000001
 21
1057.0546999999999
  0
LINE
  8
_0-0_LAYER001
  6
DASHED1
 62
    2
 10
1167.3158000000001
 20
1112.2021999999999
 11
1167.3158000000001
 21
1057.0546999999999
  0
LINE
  8
_0-0_LAYER001
  6
DASHED1
 62
    2
 10
1427.3219999999997
 20
1112.4709
 11
1443.3220000000001
 21
1112.4709
  0
LINE
  8
_0-0_LAYER001
  6
DASHED1
 62
    2
 10
1443.3220000000001
 20
1112.4709
 11
1443.3220000000001
 21
1109.4709
  0
LINE
  8
_0-0_LAYER001
  6
DASHED1
 62
    2
 10
1427.3219999999997
 20
1112.4709
 11
1427.3219999999997
 21
1109.4709
  0
LINE
  8
_0-0_LAYER001
  6
DASHED1
 62
    2
 10
1427.3219999999997
 20
1109.4709
 11
1443.3220000000001
 21
1109.4709
  0
LINE
  8
_0-0_LAYER001
  6
DASHED1
 62
    2
 10
1438.3220000000001
 20
1054.5749000000001
 11
1435.2718
 21
1040.0659000000001
  0
LINE
  8
_0-0_LAYER001
  6
DASHED1
 62
    2
 10
1438.3220000000001
 20
1109.4709
 11
1438.3220000000001
 21
1054.5749000000001
  0
LINE
  8
_0-0_LAYER001
  6
DASHED1
 62
    2
 10
1435.2718
 20
1040.0659000000001
 11
1432.3220000000001
 21
1054.3234
  0
LINE
  8
_0-0_LAYER001
  6
DASHED1
 62
    2
 10
1432.3220000000001
 20
1109.4709
 11
1432.3220000000001
 21
1054.3234
  0
LINE
  8
_0-0_LAYER001
  6
CONTINUOUS
 62
    4
 10
1845.8114999999998
 20
1116.749
 11
1848.2282
 21
1117.2163
  0
LINE
  8
_0-0_LAYER001
  6
CONTINUOUS
 62
    4
 10
1841.6421
 20
1115.9432999999999
 11
1845.8114999999998
 21
1116.749
  0
LINE
  8
_0-0_LAYER001
  6
CONTINUOUS
 62
    4
 10
1837.4679000000001
 20
1115.1382000000001
 11
1841.6421
 21
1115.9432999999999
  0
LINE
  8
_0-0_LAYER001
  6
CONTINUOUS
 62
    4
 10
1833.2887999999998
 20
1114.3345999999999
 11
1837.4679000000001
 21
1115.1382000000001
  0
LINE
  8
_0-0_LAYER001
  6
CONTINUOUS
 62
    4
 10
1829.1043
 20
1113.5333000000001
 11
1833.2887999999998
 21
1114.3345999999999
  0
LINE
  8
_0-0_LAYER001
  6
CONTINUOUS
 62
    4
 10
1824.9169000000002
 20
1112.7357
 11
1829.1043
 21
1113.5333000000001
  0
LINE
  8
_0-0_LAYER001
  6
CONTINUOUS
 62
    4
 10
1822.4758000000002
 20
1112.2732000000001
 11
1824.9169000000002
 21
1112.7357
  0
LINE
  8
_0-0_LAYER001
  6
CONTINUOUS
 62
    4
 10
1817.7647000000002
 20
1111.3870999999999
 11
1822.4758000000002
 21
1112.2732000000001
  0
LINE
  8
_0-0_LAYER001
  6
CONTINUOUS
 62
    4
 10
1809.5967000000001
 20
1109.8888999999999
 11
1817.7647000000002
 21
1111.3870999999999
  0
LINE
  8
_0-0_LAYER001
  6
CONTINUOUS
 62
    4
 10
1801.3238999999999
 20
1108.452
 11
1809.5967000000001
 21
1109.8888999999999
  0
LINE
  8
_0-0_LAYER001
  6
CONTINUOUS
 62
    4
 10
1792.9477999999999
 20
1107.1159
 11
1801.3238999999999
 21
1108.452
  0
LINE
  8
_0-0_LAYER001
  6
CONTINUOUS
 62
    4
 10
1784.4636999999998
 20
1105.9200000000001
 11
1792.9477999999999
 21
1107.1159
  0
LINE
  8
_0-0_LAYER001
  6
CONTINUOUS
 62
    4
 10
1775.9279999999999
 20
1104.9123
 11
1784.4636999999998
 21
1105.9200000000001
  0
LINE
  8
_0-0_LAYER001
  6
CONTINUOUS
 62
    4
 10
1770.8775999999998
 20
1104.4219000000001
 11
1775.9279999999999
 21
1104.9123
  0
LINE
  8
_0-0_LAYER001
  6
CONTINUOUS
 62
    4
 10
1768.0801999999999
 20
1104.1869999999999
 11
1770.8775999999998
 21
1104.4219000000001
  0
LINE
  8
_0-0_LAYER001
  6
CONTINUOUS
 62
    4
 10
1763.3661000000002
 20
1103.8595
 11
1768.0801999999999
 21
1104.1869999999999
  0
LINE
  8
_0-0_LAYER001
  6
CONTINUOUS
 62
    4
 10
1758.5412999999999
 20
1103.6277
 11
1763.3661000000002
 21
1103.8595
  0
LINE
  8
_0-0_LAYER001
  6
CONTINUOUS
 62
    4
 10
1753.6410000000001
 20
1103.5146999999999
 11
1758.5412999999999
 21
1103.6277
  0
LINE
  8
_0-0_LAYER001
  6
CONTINUOUS
 62
    4
 10
1748.6675
 20
1103.5424
 11
1753.6410000000001
 21
1103.5146999999999
  0
LINE
  8
_0-0_LAYER001
  6
CONTINUOUS
 62
    4
 10
1743.7035000000001
 20
1103.7302999999999
 11
1748.6675
 21
1103.5424
  0
LINE
  8
_0-0_LAYER001
  6
CONTINUOUS
 62
    4
 10
1740.6455000000001
 20
1103.9317000000001
 11
1743.7035000000001
 21
1103.7302999999999
  0
LINE
  8
_0-0_LAYER001
  6
CONTINUOUS
 62
    4
 10
1736.7058999999999
 20
1104.2909999999999
 11
1740.6455000000001
 21
1103.9317000000001
  0
LINE
  8
_0-0_LAYER001
  6
CONTINUOUS
 62
    4
 10
1730.1673999999998
 20
1105.1427000000001
 11
1736.7058999999999
 21
1104.2909999999999
  0
LINE
  8
_0-0_LAYER001
  6
CONTINUOUS
 62
    4
 10
1723.5875999999998
 20
1106.3230000000001
 11
1730.1673999999998
 21
1105.1427000000001
  0
LINE
  8
_0-0_LAYER001
  6
CONTINUOUS
 62
    4
 10
1717.0835999999999
 20
1107.8090999999999
 11
1723.5875999999998
 21
1106.3230000000001
  0
LINE
  8
_0-0_LAYER001
  6
CONTINUOUS
 62
    4
 10
1710.6687999999999
 20
1109.5925
 11
1717.0835999999999
 21
1107.8090999999999
  0
LINE
  8
_0-0_LAYER001
  6
CONTINUOUS
 62
    4
 10
1704.4484000000002
 20
1111.6352999999999
 11
1710.6687999999999
 21
1109.5925
  0
LINE
  8
_0-0_LAYER001
  6
CONTINUOUS
 62
    4
 10
1700.7244999999998
 20
1113.0101
 11
1704.4484000000002
 21
1111.6352999999999
  0
LINE
  8
_0-0_LAYER001
  6
CONTINUOUS
 62
    4
 10
1696.3121999999998
 20
1114.7877000000001
 11
1700.7244999999998
 21
1113.0101
  0
LINE
  8
_0-0_LAYER001
  6
CONTINUOUS
 62
    4
 10
1689.1561000000002
 20
1118.0165
 11
1696.3121999999998
 21
1114.7877000000001
  0
LINE
  8
_0-0_LAYER001
  6
CONTINUOUS
 62
    4
 10
1682.1680000000001
 20
1121.5644
 11
1689.1561000000002
 21
1118.0165
  0
LINE
  8
_0-0_LAYER001
  6
CONTINUOUS
 62
    4
 10
1675.4303
 20
1125.3228999999999
 11
1682.1680000000001
 21
1121.5644
  0
LINE
  8
_0-0_LAYER001
  6
CONTINUOUS
 62
    4
 10
1668.9162999999999
 20
1129.2362000000001
 11
1675.4303
 21
1125.3228999999999
  0
LINE
  8
_0-0_LAYER001
  6
CONTINUOUS
 62
    4
 10
1662.6251999999999
 20
1133.2349999999999
 11
1668.9162999999999
 21
1129.2362000000001
  0
LINE
  8
_0-0_LAYER001
  6
CONTINUOUS
 62
    4
 10
1659.0196000000001
 20
1135.6052
 11
1662.6251999999999
 21
1133.2349999999999
  0
LINE
  8
_0-0_LAYER001
  6
CONTINUOUS
 62
    4
 10
1656.7471999999998
 20
1137.1197
 11
1659.0196000000001
 21
1135.6052
  0
LINE
  8
_0-0_LAYER001
  6
CONTINUOUS
 62
    4
 10
1653.0583999999999
 20
1139.5632000000001
 11
1656.7471999999998
 21
1137.1197
  0
LINE
  8
_0-0_LAYER001
  6
CONTINUOUS
 62
    4
 10
1649.6306
 20
1141.7397000000001
 11
1653.0583999999999
 21
1139.5632000000001
  0
LINE
  8
_0-0_LAYER001
  6
CONTINUOUS
 62
    4
 10
1646.4661999999998
 20
1143.5844999999999
 11
1649.6306
 21
1141.7397000000001
  0
LINE
  8
_0-0_LAYER001
  6
CONTINUOUS
 62
    4
 10
1643.5592999999999
 20
1145.0646999999999
 11
1646.4661999999998
 21
1143.5844999999999
  0
LINE
  8
_0-0_LAYER001
  6
CONTINUOUS
 62
    4
 10
1640.6959000000002
 20
1146.2585999999999
 11
1643.5592999999999
 21
1145.0646999999999
  0
LINE
  8
_0-0_LAYER001
  6
CONTINUOUS
 62
    4
 10
1639.2193000000002
 20
1146.7521999999999
 11
1640.6959000000002
 21
1146.2585999999999
  0
LINE
  8
_0-0_LAYER001
  6
CONTINUOUS
 62
    4
 10
1639.0367000000001
 20
1146.8054
 11
1639.2193000000002
 21
1146.7521999999999
  0
LINE
  8
_0-0_LAYER001
  6
CONTINUOUS
 62
    4
 10
1638.2426999999998
 20
1147.0127
 11
1639.0367000000001
 21
1146.8054
  0
LINE
  8
_0-0_LAYER001
  6
CONTINUOUS
 62
    4
 10
1637.5816
 20
1147.1581000000001
 11
1638.2426999999998
 21
1147.0127
  0
LINE
  8
_0-0_LAYER001
  6
CONTINUOUS
 62
    4
 10
1636.9969000000001
 20
1147.2608
 11
1637.5816
 21
1147.1581000000001
  0
LINE
  8
_0-0_LAYER001
  6
CONTINUOUS
 62
    4
 10
1636.9567000000002
 20
1147.2660000000001
 11
1636.9969000000001
 21
1147.2608
  0
LINE
  8
_0-0_LAYER001
  6
CONTINUOUS
 62
    4
 10
1842.3045000000002
 20
1097.4630999999999
 11
1843.9110000000001
 21
1097.7737
  0
LINE
  8
_0-0_LAYER001
  6
CONTINUOUS
 62
    4
 10
1838.1356000000001
 20
1096.6575
 11
1842.3045000000002
 21
1097.4630999999999
  0
LINE
  8
_0-0_LAYER001
  6
CONTINUOUS
 62
    4
 10
1833.9623000000001
 20
1095.8525999999999
 11
1838.1356000000001
 21
1096.6575
  0
LINE
  8
_0-0_LAYER001
  6
CONTINUOUS
 62
    4
 10
1829.7844
 20
1095.0491999999999
 11
1833.9623000000001
 21
1095.8525999999999
  0
LINE
  8
_0-0_LAYER001
  6
CONTINUOUS
 62
    4
 10
1825.6017000000002
 20
1094.2482
 11
1829.7844
 21
1095.0491999999999
  0
LINE
  8
_0-0_LAYER001
  6
CONTINUOUS
 62
    4
 10
1821.4162000000001
 20
1093.4511
 11
1825.6017000000002
 21
1094.2482
  0
LINE
  8
_0-0_LAYER001
  6
CONTINUOUS
 62
    4
 10
1818.9774000000002
 20
1092.9889000000001
 11
1821.4162000000001
 21
1093.4511
  0
LINE
  8
_0-0_LAYER001
  6
CONTINUOUS
 62
    4
 10
1814.2719999999999
 20
1092.1039000000001
 11
1818.9774000000002
 21
1092.9889000000001
  0
LINE
  8
_0-0_LAYER001
  6
CONTINUOUS
 62
    4
 10
1806.1176999999998
 20
1090.6081999999999
 11
1814.2719999999999
 21
1092.1039000000001
  0
LINE
  8
_0-0_LAYER001
  6
CONTINUOUS
 62
    4
 10
1797.8679000000002
 20
1089.1753000000001
 11
1806.1176999999998
 21
1090.6081999999999
  0
LINE
  8
_0-0_LAYER001
  6
CONTINUOUS
 62
    4
 10
1789.5232999999998
 20
1087.8443
 11
1797.8679000000002
 21
1089.1753000000001
  0
LINE
  8
_0-0_LAYER001
  6
CONTINUOUS
 62
    4
 10
1781.0794000000001
 20
1086.6541
 11
1789.5232999999998
 21
1087.8443
  0
LINE
  8
_0-0_LAYER001
  6
CONTINUOUS
 62
    4
 10
1772.5866999999998
 20
1085.6513
 11
1781.0794000000001
 21
1086.6541
  0
LINE
  8
_0-0_LAYER001
  6
CONTINUOUS
 62
    4
 10
1767.5698000000002
 20
1085.1641999999999
 11
1772.5866999999998
 21
1085.6513
  0
LINE
  8
_0-0_LAYER001
  6
CONTINUOUS
 62
    4
 10
1764.7997999999998
 20
1084.9315999999999
 11
1767.5698000000002
 21
1085.1641999999999
  0
LINE
  8
_0-0_LAYER001
  6
CONTINUOUS
 62
    4
 10
1760.1214
 20
1084.6066000000001
 11
1764.7997999999998
 21
1084.9315999999999
  0
LINE
  8
_0-0_LAYER001
  6
CONTINUOUS
 62
    4
 10
1755.3429000000001
 20
1084.377
 11
1760.1214
 21
1084.6066000000001
  0
LINE
  8
_0-0_LAYER001
  6
CONTINUOUS
 62
    4
 10
1750.4960999999998
 20
1084.2653
 11
1755.3429000000001
 21
1084.377
  0
LINE
  8
_0-0_LAYER001
  6
CONTINUOUS
 62
    4
 10
1745.5835000000002
 20
1084.2927
 11
1750.4960999999998
 21
1084.2653
  0
LINE
  8
_0-0_LAYER001
  6
CONTINUOUS
 62
    4
 10
1740.6795999999999
 20
1084.4783
 11
1745.5835000000002
 21
1084.2927
  0
LINE
  8
_0-0_LAYER001
  6
CONTINUOUS
 62
    4
 10
1737.6747
 20
1084.6762000000001
 11
1740.6795999999999
 21
1084.4783
  0
LINE
  8
_0-0_LAYER001
  6
CONTINUOUS
 62
    4
 10
1733.7986000000001
 20
1085.0297
 11
1737.6747
 21
1084.6762000000001
  0
LINE
  8
_0-0_LAYER001
  6
CONTINUOUS
 62
    4
 10
1727.3458999999998
 20
1085.8702000000001
 11
1733.7986000000001
 21
1085.0297
  0
LINE
  8
_0-0_LAYER001
  6
CONTINUOUS
 62
    4
 10
1720.8598000000002
 20
1087.0337
 11
1727.3458999999998
 21
1085.8702000000001
  0
LINE
  8
_0-0_LAYER001
  6
CONTINUOUS
 62
    4
 10
1714.4470000000001
 20
1088.4989
 11
1720.8598000000002
 21
1087.0337
  0
LINE
  8
_0-0_LAYER001
  6
CONTINUOUS
 62
    4
 10
1708.1215000000002
 20
1090.2574999999999
 11
1714.4470000000001
 21
1088.4989
  0
LINE
  8
_0-0_LAYER001
  6
CONTINUOUS
 62
    4
 10
1701.9794999999999
 20
1092.2746
 11
1708.1215000000002
 21
1090.2574999999999
  0
LINE
  8
_0-0_LAYER001
  6
CONTINUOUS
 62
    4
 10
1698.3172
 20
1093.6266000000001
 11
1701.9794999999999
 21
1092.2746
  0
LINE
  8
_0-0_LAYER001
  6
CONTINUOUS
 62
    4
 10
1693.9699999999998
 20
1095.3779999999999
 11
1698.3172
 21
1093.6266000000001
  0
LINE
  8
_0-0_LAYER001
  6
CONTINUOUS
 62
    4
 10
1686.8930999999998
 20
1098.5709999999999
 11
1693.9699999999998
 21
1095.3779999999999
  0
LINE
  8
_0-0_LAYER001
  6
CONTINUOUS
 62
    4
 10
1679.9807999999998
 20
1102.0805
 11
1686.8930999999998
 21
1098.5709999999999
  0
LINE
  8
_0-0_LAYER001
  6
CONTINUOUS
 62
    4
 10
1673.3053
 20
1105.8044
 11
1679.9807999999998
 21
1102.0805
  0
LINE
  8
_0-0_LAYER001
  6
CONTINUOUS
 62
    4
 10
1666.8404
 20
1109.6881000000001
 11
1673.3053
 21
1105.8044
  0
LINE
  8
_0-0_LAYER001
  6
CONTINUOUS
 62
    4
 10
1660.5835999999999
 20
1113.6651999999999
 11
1666.8404
 21
1109.6881000000001
  0
LINE
  8
_0-0_LAYER001
  6
CONTINUOUS
 62
    4
 10
1656.9960999999998
 20
1116.0234
 11
1660.5835999999999
 21
1113.6651999999999
  0
LINE
  8
_0-0_LAYER001
  6
CONTINUOUS
 62
    4
 10
1654.7266
 20
1117.5360000000001
 11
1656.9960999999998
 21
1116.0234
  0
LINE
  8
_0-0_LAYER001
  6
CONTINUOUS
 62
    4
 10
1651.0194000000001
 20
1119.9916000000001
 11
1654.7266
 21
1117.5360000000001
  0
LINE
  8
_0-0_LAYER001
  6
CONTINUOUS
 62
    4
 10
1647.5432999999998
 20
1122.1987999999999
 11
1651.0194000000001
 21
1119.9916000000001
  0
LINE
  8
_0-0_LAYER001
  6
CONTINUOUS
 62
    4
 10
1644.297
 20
1124.0914
 11
1647.5432999999998
 21
1122.1987999999999
  0
LINE
  8
_0-0_LAYER001
  6
CONTINUOUS
 62
    4
 10
1641.2716999999998
 20
1125.6319000000001
 11
1644.297
 21
1124.0914
  0
LINE
  8
_0-0_LAYER001
  6
CONTINUOUS
 62
    4
 10
1638.2712999999999
 20
1126.8829000000001
 11
1641.2716999999998
 21
1125.6319000000001
  0
LINE
  8
_0-0_LAYER001
  6
CONTINUOUS
 62
    4
 10
1637.5145000000002
 20
1127.1359
 11
1638.2712999999999
 21
1126.8829000000001
  0
LINE
  8
_0-0_LAYER001
  6
CONTINUOUS
 62
    4
 10
1637.3227999999999
 20
1147.1809000000001
 11
1637.6749
 21
1127.0098
  0
LINE
  8
_0-0_LAYER001
  6
CONTINUOUS
 62
    4
 10
1589.9969000000001
 20
1155.335
 11
1590.8026
 21
1155.6629
  0
LINE
  8
_0-0_LAYER001
  6
CONTINUOUS
 62
    4
 10
1590.8026
 20
1155.6629
 11
1594.3155000000002
 21
1157.0949000000001
  0
LINE
  8
_0-0_LAYER001
  6
CONTINUOUS
 62
    4
 10
1594.3155000000002
 20
1157.0949000000001
 11
1597.8355999999999
 21
1158.5364
  0
LINE
  8
_0-0_LAYER001
  6
CONTINUOUS
 62
    4
 10
1597.8355999999999
 20
1158.5364
 11
1601.3672999999999
 21
1159.9934000000001
  0
LINE
  8
_0-0_LAYER001
  6
CONTINUOUS
 62
    4
 10
1601.3672999999999
 20
1159.9934000000001
 11
1604.9151999999999
 21
1161.4719
  0
LINE
  8
_0-0_LAYER001
  6
CONTINUOUS
 62
    4
 10
1604.9151999999999
 20
1161.4719
 11
1608.4837000000002
 21
1162.9777999999999
  0
LINE
  8
_0-0_LAYER001
  6
CONTINUOUS
 62
    4
 10
1608.4837000000002
 20
1162.9777999999999
 11
1610.5646999999999
 21
1163.8661
  0
LINE
  8
_0-0_LAYER001
  6
CONTINUOUS
 62
    4
 10
1610.5646999999999
 20
1163.8661
 11
1612.6217000000001
 21
1164.7492
  0
LINE
  8
_0-0_LAYER001
  6
CONTINUOUS
 62
    4
 10
1612.6217000000001
 20
1164.7492
 11
1616.1903000000002
 21
1166.2446
  0
LINE
  8
_0-0_LAYER001
  6
CONTINUOUS
 62
    4
 10
1616.1903000000002
 20
1166.2446
 11
1619.7882
 21
1167.6219000000001
  0
LINE
  8
_0-0_LAYER001
  6
CONTINUOUS
 62
    4
 10
1619.7882
 20
1167.6219000000001
 11
1623.4169000000002
 21
1168.7838999999999
  0
LINE
  8
_0-0_LAYER001
  6
CONTINUOUS
 62
    4
 10
1623.4169000000002
 20
1168.7838999999999
 11
1627.0781000000002
 21
1169.6333
  0
LINE
  8
_0-0_LAYER001
  6
CONTINUOUS
 62
    4
 10
1627.0781000000002
 20
1169.6333
 11
1630.7730999999999
 21
1170.0726999999999
  0
LINE
  8
_0-0_LAYER001
  6
CONTINUOUS
 62
    4
 10
1630.7730999999999
 20
1170.0726999999999
 11
1632.9324000000001
 21
1170.1013
  0
LINE
  8
_0-0_LAYER001
  6
CONTINUOUS
 62
    4
 10
1632.9324000000001
 20
1170.1013
 11
1633.7829000000002
 21
1170.0622000000001
  0
LINE
  8
_0-0_LAYER001
  6
CONTINUOUS
 62
    4
 10
1633.7829000000002
 20
1170.0622000000001
 11
1635.2512000000002
 21
1169.9300000000001
  0
LINE
  8
_0-0_LAYER001
  6
CONTINUOUS
 62
    4
 10
1635.2512000000002
 20
1169.9300000000001
 11
1636.7181999999998
 21
1169.7216000000001
  0
LINE
  8
_0-0_LAYER001
  6
CONTINUOUS
 62
    4
 10
1636.7181999999998
 20
1169.7216000000001
 11
1638.1797000000001
 21
1169.4438
  0
LINE
  8
_0-0_LAYER001
  6
CONTINUOUS
 62
    4
 10
1638.1797000000001
 20
1169.4438
 11
1639.6311999999998
 21
1169.1031
  0
LINE
  8
_0-0_LAYER001
  6
CONTINUOUS
 62
    4
 10
1639.6311999999998
 20
1169.1031
 11
1641.0684999999999
 21
1168.7065
  0
LINE
  8
_0-0_LAYER001
  6
CONTINUOUS
 62
    4
 10
1641.0684999999999
 20
1168.7065
 11
1641.8939
 21
1168.4534000000001
  0
LINE
  8
_0-0_LAYER001
  6
CONTINUOUS
 62
    4
 10
1641.8939
 20
1168.4534000000001
 11
1644.4160999999999
 21
1167.5708999999999
  0
LINE
  8
_0-0_LAYER001
  6
CONTINUOUS
 62
    4
 10
1644.4160999999999
 20
1167.5708999999999
 11
1648.6242000000002
 21
1165.7469000000001
  0
LINE
  8
_0-0_LAYER001
  6
CONTINUOUS
 62
    4
 10
1648.6242000000002
 20
1165.7469000000001
 11
1652.6855
 21
1163.6070999999999
  0
LINE
  8
_0-0_LAYER001
  6
CONTINUOUS
 62
    4
 10
1652.6855
 20
1163.6070999999999
 11
1656.6359000000002
 21
1161.2293999999999
  0
LINE
  8
_0-0_LAYER001
  6
CONTINUOUS
 62
    4
 10
1656.6359000000002
 20
1161.2293999999999
 11
1660.5117
 21
1158.6918000000001
  0
LINE
  8
_0-0_LAYER001
  6
CONTINUOUS
 62
    4
 10
1660.5117
 20
1158.6918000000001
 11
1664.3488000000002
 21
1156.0723
  0
LINE
  8
_0-0_LAYER001
  6
CONTINUOUS
 62
    4
 10
1664.3488000000002
 20
1156.0723
 11
1666.5709000000002
 21
1154.5461
  0
LINE
  8
_0-0_LAYER001
  6
CONTINUOUS
 62
    4
 10
1666.5709000000002
 20
1154.5461
 11
1669.9638
 21
1152.2473
  0
LINE
  8
_0-0_LAYER001
  6
CONTINUOUS
 62
    4
 10
1669.9638
 20
1152.2473
 11
1675.8591999999999
 21
1148.3833999999999
  0
LINE
  8
_0-0_LAYER001
  6
CONTINUOUS
 62
    4
 10
1675.8591999999999
 20
1148.3833999999999
 11
1681.8303000000001
 21
1144.6818000000001
  0
LINE
  8
_0-0_LAYER001
  6
CONTINUOUS
 62
    4
 10
1681.8303000000001
 20
1144.6818000000001
 11
1687.8980999999999
 21
1141.1849999999999
  0
LINE
  8
_0-0_LAYER001
  6
CONTINUOUS
 62
    4
 10
1687.8980999999999
 20
1141.1849999999999
 11
1694.0834
 21
1137.9351999999999
  0
LINE
  8
_0-0_LAYER001
  6
CONTINUOUS
 62
    4
 10
1694.0834
 20
1137.9351999999999
 11
1700.4074000000001
 21
1134.9749999999999
  0
LINE
  8
_0-0_LAYER001
  6
CONTINUOUS
 62
    4
 10
1700.4074000000001
 20
1134.9749999999999
 11
1704.1469999999999
 21
1133.4073000000001
  0
LINE
  8
_0-0_LAYER001
  6
CONTINUOUS
 62
    4
 10
1704.1469999999999
 20
1133.4073000000001
 11
1707.2384000000002
 21
1132.2166999999999
  0
LINE
  8
_0-0_LAYER001
  6
CONTINUOUS
 62
    4
 10
1707.2384000000002
 20
1132.2166999999999
 11
1712.6495
 21
1130.3556000000001
  0
LINE
  8
_0-0_LAYER001
  6
CONTINUOUS
 62
    4
 10
1712.6495
 20
1130.3556000000001
 11
1718.1493
 21
1128.7435
  0
LINE
  8
_0-0_LAYER001
  6
CONTINUOUS
 62
    4
 10
1718.1493
 20
1128.7435
 11
1723.7217000000001
 21
1127.3882000000001
  0
LINE
  8
_0-0_LAYER001
  6
CONTINUOUS
 62
    4
 10
1723.7217000000001
 20
1127.3882000000001
 11
1729.3505
 21
1126.2971
  0
LINE
  8
_0-0_LAYER001
  6
CONTINUOUS
 62
    4
 10
1729.3505
 20
1126.2971
 11
1735.0196000000001
 21
1125.4780000000001
  0
LINE
  8
_0-0_LAYER001
  6
CONTINUOUS
 62
    4
 10
1735.0196000000001
 20
1125.4780000000001
 11
1738.3198000000002
 21
1125.1306
  0
LINE
  8
_0-0_LAYER001
  6
CONTINUOUS
 62
    4
 10
1738.3198000000002
 20
1125.1306
 11
1740.8452000000002
 21
1124.9286999999999
  0
LINE
  8
_0-0_LAYER001
  6
CONTINUOUS
 62
    4
 10
1740.8452000000002
 20
1124.9286999999999
 11
1745.2046999999998
 21
1124.7028
  0
LINE
  8
_0-0_LAYER001
  6
CONTINUOUS
 62
    4
 10
1745.2046999999998
 20
1124.7028
 11
1749.5686999999998
 21
1124.6175000000001
  0
LINE
  8
_0-0_LAYER001
  6
CONTINUOUS
 62
    4
 10
1749.5686999999998
 20
1124.6175000000001
 11
1753.9342999999999
 21
1124.6572000000001
  0
LINE
  8
_0-0_LAYER001
  6
CONTINUOUS
 62
    4
 10
1753.9342999999999
 20
1124.6572000000001
 11
1758.299
 21
1124.8058000000001
  0
LINE
  8
_0-0_LAYER001
  6
CONTINUOUS
 62
    4
 10
1758.299
 20
1124.8058000000001
 11
1762.6601000000001
 21
1125.0477000000001
  0
LINE
  8
_0-0_LAYER001
  6
CONTINUOUS
 62
    4
 10
1762.6601000000001
 20
1125.0477000000001
 11
1765.1867999999999
 21
1125.2243000000001
  0
LINE
  8
_0-0_LAYER001
  6
CONTINUOUS
 62
    4
 10
1765.1867999999999
 20
1125.2243000000001
 11
1769.9072999999999
 21
1125.6161999999999
  0
LINE
  8
_0-0_LAYER001
  6
CONTINUOUS
 62
    4
 10
1769.9072999999999
 20
1125.6161999999999
 11
1778.0261
 21
1126.46
  0
LINE
  8
_0-0_LAYER001
  6
CONTINUOUS
 62
    4
 10
1778.0261
 20
1126.46
 11
1786.1228000000001
 21
1127.4862000000001
  0
LINE
  8
_0-0_LAYER001
  6
CONTINUOUS
 62
    4
 10
1786.1228000000001
 20
1127.4862000000001
 11
1794.2006000000001
 21
1128.6593
  0
LINE
  8
_0-0_LAYER001
  6
CONTINUOUS
 62
    4
 10
1794.2006000000001
 20
1128.6593
 11
1802.2631999999999
 21
1129.944
  0
LINE
  8
_0-0_LAYER001
  6
CONTINUOUS
 62
    4
 10
1802.2631999999999
 20
1129.944
 11
1810.3139000000001
 21
1131.3047999999999
  0
LINE
  8
_0-0_LAYER001
  6
CONTINUOUS
 62
    4
 10
1810.3139000000001
 20
1131.3047999999999
 11
1814.9792000000002
 21
1132.115
  0
LINE
  8
_0-0_LAYER001
  6
CONTINUOUS
 62
    4
 10
1814.9792000000002
 20
1132.115
 11
1817.4038
 21
1132.5395000000001
  0
LINE
  8
_0-0_LAYER001
  6
CONTINUOUS
 62
    4
 10
1817.4038
 20
1132.5395000000001
 11
1821.5828999999999
 21
1133.2751000000001
  0
LINE
  8
_0-0_LAYER001
  6
CONTINUOUS
 62
    4
 10
1821.5828999999999
 20
1133.2751000000001
 11
1825.7608
 21
1134.0147999999999
  0
LINE
  8
_0-0_LAYER001
  6
CONTINUOUS
 62
    4
 10
1825.7608
 20
1134.0147999999999
 11
1829.9376000000002
 21
1134.7577000000001
  0
LINE
  8
_0-0_LAYER001
  6
CONTINUOUS
 62
    4
 10
1829.9376000000002
 20
1134.7577000000001
 11
1834.1136999999999
 21
1135.5028
  0
LINE
  8
_0-0_LAYER001
  6
CONTINUOUS
 62
    4
 10
1834.1136999999999
 20
1135.5028
 11
1838.2892999999999
 21
1136.2493999999999
  0
LINE
  8
_0-0_LAYER001
  6
CONTINUOUS
 62
    4
 10
1838.2892999999999
 20
1136.2493999999999
 11
1840.7111
 21
1136.6827000000001
  0
LINE
  8
_0-0_LAYER001
  6
CONTINUOUS
 62
    4
 10
1595.5515999999998
 20
1138.1621
 11
1597.5925000000002
 21
1138.9926
  0
LINE
  8
_0-0_LAYER001
  6
CONTINUOUS
 62
    4
 10
1597.5925000000002
 20
1138.9926
 11
1601.1235999999999
 21
1140.4321
  0
LINE
  8
_0-0_LAYER001
  6
CONTINUOUS
 62
    4
 10
1601.1235999999999
 20
1140.4321
 11
1604.6786000000002
 21
1141.8878999999999
  0
LINE
  8
_0-0_LAYER001
  6
CONTINUOUS
 62
    4
 10
1604.6786000000002
 20
1141.8878999999999
 11
1608.2615000000001
 21
1143.366
  0
LINE
  8
_0-0_LAYER001
  6
CONTINUOUS
 62
    4
 10
1608.2615000000001
 20
1143.366
 11
1611.8762999999999
 21
1144.8723
  0
LINE
  8
_0-0_LAYER001
  6
CONTINUOUS
 62
    4
 10
1611.8762999999999
 20
1144.8723
 11
1615.5165000000002
 21
1146.4085
  0
LINE
  8
_0-0_LAYER001
  6
CONTINUOUS
 62
    4
 10
1615.5165000000002
 20
1146.4085
 11
1617.6486
 21
1147.3187
  0
LINE
  8
_0-0_LAYER001
  6
CONTINUOUS
 62
    4
 10
1617.6486
 20
1147.3187
 11
1619.6504
 21
1148.1780000000001
  0
LINE
  8
_0-0_LAYER001
  6
CONTINUOUS
 62
    4
 10
1619.6504
 20
1148.1780000000001
 11
1622.8879000000002
 21
1149.5346
  0
LINE
  8
_0-0_LAYER001
  6
CONTINUOUS
 62
    4
 10
1622.8879000000002
 20
1149.5346
 11
1625.7552000000001
 21
1150.6323
  0
LINE
  8
_0-0_LAYER001
  6
CONTINUOUS
 62
    4
 10
1625.7552000000001
 20
1150.6323
 11
1628.2037
 21
1151.4164000000001
  0
LINE
  8
_0-0_LAYER001
  6
CONTINUOUS
 62
    4
 10
1628.2037
 20
1151.4164000000001
 11
1630.1840999999999
 21
1151.8758
  0
LINE
  8
_0-0_LAYER001
  6
CONTINUOUS
 62
    4
 10
1630.1840999999999
 20
1151.8758
 11
1631.9584
 21
1152.0868
  0
LINE
  8
_0-0_LAYER001
  6
CONTINUOUS
 62
    4
 10
1631.9584
 20
1152.0868
 11
1632.6379999999999
 21
1152.0958000000001
  0
LINE
  8
_0-0_LAYER001
  6
CONTINUOUS
 62
    4
 10
1632.6379999999999
 20
1152.0958000000001
 11
1632.5617999999999
 21
1152.0993000000001
  0
LINE
  8
_0-0_LAYER001
  6
CONTINUOUS
 62
    4
 10
1632.5617999999999
 20
1152.0993000000001
 11
1633.1770999999999
 21
1152.0438999999999
  0
LINE
  8
_0-0_LAYER001
  6
CONTINUOUS
 62
    4
 10
1633.1770999999999
 20
1152.0438999999999
 11
1633.7698999999998
 21
1151.9597000000001
  0
LINE
  8
_0-0_LAYER001
  6
CONTINUOUS
 62
    4
 10
1633.7698999999998
 20
1151.9597000000001
 11
1634.4409000000001
 21
1151.8322000000001
  0
LINE
  8
_0-0_LAYER001
  6
CONTINUOUS
 62
    4
 10
1634.4409000000001
 20
1151.8322000000001
 11
1635.1792
 21
1151.6588999999999
  0
LINE
  8
_0-0_LAYER001
  6
CONTINUOUS
 62
    4
 10
1635.1792
 20
1151.6588999999999
 11
1636.0349000000001
 21
1151.4228000000001
  0
LINE
  8
_0-0_LAYER001
  6
CONTINUOUS
 62
    4
 10
1636.0349000000001
 20
1151.4228000000001
 11
1636.2809999999999
 21
1151.3472999999999
  0
LINE
  8
_0-0_LAYER001
  6
CONTINUOUS
 62
    4
 10
1636.2809999999999
 20
1151.3472999999999
 11
1637.8559
 21
1150.7963
  0
LINE
  8
_0-0_LAYER001
  6
CONTINUOUS
 62
    4
 10
1637.8559
 20
1150.7963
 11
1640.8384000000001
 21
1149.5035
  0
LINE
  8
_0-0_LAYER001
  6
CONTINUOUS
 62
    4
 10
1640.8384000000001
 20
1149.5035
 11
1643.8420000000001
 21
1147.9209000000001
  0
LINE
  8
_0-0_LAYER001
  6
CONTINUOUS
 62
    4
 10
1643.8420000000001
 20
1147.9209000000001
 11
1647.0614999999998
 21
1145.9831999999999
  0
LINE
  8
_0-0_LAYER001
  6
CONTINUOUS
 62
    4
 10
1647.0614999999998
 20
1145.9831999999999
 11
1650.5064000000002
 21
1143.7276999999999
  0
LINE
  8
_0-0_LAYER001
  6
CONTINUOUS
 62
    4
 10
1650.5064000000002
 20
1143.7276999999999
 11
1654.1790000000001
 21
1141.2204999999999
  0
LINE
  8
_0-0_LAYER001
  6
CONTINUOUS
 62
    4
 10
1654.1790000000001
 20
1141.2204999999999
 11
1656.4272000000001
 21
1139.6764000000001
  0
LINE
  8
_0-0_LAYER001
  6
CONTINUOUS
 62
    4
 10
1656.4272000000001
 20
1139.6764000000001
 11
1659.9814000000001
 21
1137.2683
  0
LINE
  8
_0-0_LAYER001
  6
CONTINUOUS
 62
    4
 10
1659.9814000000001
 20
1137.2683
 11
1666.1821
 21
1133.2041999999999
  0
LINE
  8
_0-0_LAYER001
  6
CONTINUOUS
 62
    4
 10
1666.1821
 20
1133.2041999999999
 11
1672.5920999999998
 21
1129.2306000000001
  0
LINE
  8
_0-0_LAYER001
  6
CONTINUOUS
 62
    4
 10
1672.5920999999998
 20
1129.2306000000001
 11
1679.2150000000001
 21
1125.4139
  0
LINE
  8
_0-0_LAYER001
  6
CONTINUOUS
 62
    4
 10
1679.2150000000001
 20
1125.4139
 11
1686.0776999999998
 21
1121.8082999999999
  0
LINE
  8
_0-0_LAYER001
  6
CONTINUOUS
 62
    4
 10
1686.0776999999998
 20
1121.8082999999999
 11
1693.1093000000001
 21
1118.5166999999999
  0
LINE
  8
_0-0_LAYER001
  6
CONTINUOUS
 62
    4
 10
1693.1093000000001
 20
1118.5166999999999
 11
1697.4315999999999
 21
1116.7048
  0
LINE
  8
_0-0_LAYER001
  6
CONTINUOUS
 62
    4
 10
1697.4315999999999
 20
1116.7048
 11
1701.0747000000001
 21
1115.3018
  0
LINE
  8
_0-0_LAYER001
  6
CONTINUOUS
 62
    4
 10
1701.0747000000001
 20
1115.3018
 11
1707.1878999999999
 21
1113.1992
  0
LINE
  8
_0-0_LAYER001
  6
CONTINUOUS
 62
    4
 10
1707.1878999999999
 20
1113.1992
 11
1713.4881999999998
 21
1111.3524
  0
LINE
  8
_0-0_LAYER001
  6
CONTINUOUS
 62
    4
 10
1713.4881999999998
 20
1111.3524
 11
1719.8798999999999
 21
1109.7978000000001
  0
LINE
  8
_0-0_LAYER001
  6
CONTINUOUS
 62
    4
 10
1719.8798999999999
 20
1109.7978000000001
 11
1726.3492000000001
 21
1108.5437999999999
  0
LINE
  8
_0-0_LAYER001
  6
CONTINUOUS
 62
    4
 10
1726.3492000000001
 20
1108.5437999999999
 11
1732.7894000000001
 21
1107.6133
  0
LINE
  8
_0-0_LAYER001
  6
CONTINUOUS
 62
    4
 10
1732.7894000000001
 20
1107.6133
 11
1736.6601999999998
 21
1107.2058
  0
LINE
  8
_0-0_LAYER001
  6
CONTINUOUS
 62
    4
 10
1736.6601999999998
 20
1107.2058
 11
1739.6621
 21
1106.9658999999999
  0
LINE
  8
_0-0_LAYER001
  6
CONTINUOUS
 62
    4
 10
1739.6621
 20
1106.9658999999999
 11
1744.5628999999999
 21
1106.7119
  0
LINE
  8
_0-0_LAYER001
  6
CONTINUOUS
 62
    4
 10
1744.5628999999999
 20
1106.7119
 11
1749.4746
 21
1106.6159
  0
LINE
  8
_0-0_LAYER001
  6
CONTINUOUS
 62
    4
 10
1749.4746
 20
1106.6159
 11
1754.3225000000002
 21
1106.6600000000001
  0
LINE
  8
_0-0_LAYER001
  6
CONTINUOUS
 62
    4
 10
1754.3225000000002
 20
1106.6600000000001
 11
1759.1037999999999
 21
1106.8227999999999
  0
LINE
  8
_0-0_LAYER001
  6
CONTINUOUS
 62
    4
 10
1759.1037999999999
 20
1106.8227999999999
 11
1763.7863000000002
 21
1107.0825
  0
LINE
  8
_0-0_LAYER001
  6
CONTINUOUS
 62
    4
 10
1763.7863000000002
 20
1107.0825
 11
1766.5592999999999
 21
1107.2764
  0
LINE
  8
_0-0_LAYER001
  6
CONTINUOUS
 62
    4
 10
1766.5592999999999
 20
1107.2764
 11
1771.5823999999998
 21
1107.6934000000001
  0
LINE
  8
_0-0_LAYER001
  6
CONTINUOUS
 62
    4
 10
1771.5823999999998
 20
1107.6934000000001
 11
1780.0884000000001
 21
1108.5773999999999
  0
LINE
  8
_0-0_LAYER001
  6
CONTINUOUS
 62
    4
 10
1780.0884000000001
 20
1108.5773999999999
 11
1788.5481
 21
1109.6496
  0
LINE
  8
_0-0_LAYER001
  6
CONTINUOUS
 62
    4
 10
1788.5481
 20
1109.6496
 11
1796.9104000000002
 21
1110.8641
  0
LINE
  8
_0-0_LAYER001
  6
CONTINUOUS
 62
    4
 10
1796.9104000000002
 20
1110.8641
 11
1805.1794
 21
1112.1815999999999
  0
LINE
  8
_0-0_LAYER001
  6
CONTINUOUS
 62
    4
 10
1805.1794
 20
1112.1815999999999
 11
1813.3537999999999
 21
1113.5633
  0
LINE
  8
_0-0_LAYER001
  6
CONTINUOUS
 62
    4
 10
1813.3537999999999
 20
1113.5633
 11
1818.0711000000001
 21
1114.3824999999999
  0
LINE
  8
_0-0_LAYER001
  6
CONTINUOUS
 62
    4
 10
1818.0711000000001
 20
1114.3824999999999
 11
1820.5160999999998
 21
1114.8106
  0
LINE
  8
_0-0_LAYER001
  6
CONTINUOUS
 62
    4
 10
1820.5160999999998
 20
1114.8106
 11
1824.7123000000001
 21
1115.5491999999999
  0
LINE
  8
_0-0_LAYER001
  6
CONTINUOUS
 62
    4
 10
1824.7123000000001
 20
1115.5491999999999
 11
1828.9058
 21
1116.2917
  0
LINE
  8
_0-0_LAYER001
  6
CONTINUOUS
 62
    4
 10
1828.9058
 20
1116.2917
 11
1833.0945000000002
 21
1117.0367000000001
  0
LINE
  8
_0-0_LAYER001
  6
CONTINUOUS
 62
    4
 10
1833.0945000000002
 20
1117.0367000000001
 11
1837.2786000000001
 21
1117.7833000000001
  0
LINE
  8
_0-0_LAYER001
  6
CONTINUOUS
 62
    4
 10
1837.2786000000001
 20
1117.7833000000001
 11
1841.4584
 21
1118.5306
  0
LINE
  8
_0-0_LAYER001
  6
CONTINUOUS
 62
    4
 10
1841.4584
 20
1118.5306
 11
1843.0691000000002
 21
1118.8188
  0
LINE
  8
_0-0_LAYER001
  6
CONTINUOUS
 62
    4
 10
1589.5756999999999
 20
1155.1615999999999
 11
1589.9973
 21
1155.3358000000001
  0
ARC
  8
_0-0_LAYER001
  6
CONTINUOUS
 62
    4
 10
1590.7213000000002
 20
1152.3888999999999
 40
3
 50
112.44902
 51
165.96481
  0
LINE
  8
_0-0_LAYER001
  6
CONTINUOUS
 62
    4
 10
1589.1891999999998
 20
1135.5544
 11
1595.5162
 21
1138.1405
  0
LINE
  8
_0-0_LAYER001
  6
CONTINUOUS
 62
    4
 10
1587.8108999999999
 20
1136.48
 11
1587.8108999999999
 21
1153.1165000000001
  0
ARC
  8
_0-0_LAYER001
  6
CONTINUOUS
 62
    4
 10
1588.8108999999999
 20
1136.48
 40
1
 50
180
 51
292.23165999999998
  0
LINE
  8
_0-0_LAYER001
  6
CONTINUOUS
 62
    4
 10
1884.9627
 20
1128.9845
 11
1842.8404
 21
1118.6812
  0
ARC
  8
_0-0_LAYER001
  6
CONTINUOUS
 62
    4
 10
1888.4324000000001
 20
1108.1618000000001
 40
21.109891999999995
 50
78.282284000000018
 51
99.460192000000021
  0
LINE
  8
_0-0_LAYER001
  6
CONTINUOUS
 62
    4
 10
1892.8108000000002
 20
1149.4349
 11
1892.8108000000002
 21
1071.0539000000001
  0
LINE
  8
_0-0_LAYER001
  6
CONTINUOUS
 62
    4
 10
1840.8350999999998
 20
1136.7212999999999
 11
1892.8108000000002
 21
1149.4349
  0
LINE
  8
_0-0_LAYER001
  6
CONTINUOUS
 62
    4
 10
1892.9081999999999
 20
1129.037
 11
1896.5369999999998
 21
1130.1043
  0
LINE
  8
_0-0_LAYER001
  6
CONTINUOUS
 62
    4
 10
1896.5369999999998
 20
1130.1043
 11
1892.9081999999999
 21
1071.404
  0
LINE
  8
_0-0_LAYER001
  6
CONTINUOUS
 62
    4
 10
1848.0972000000002
 20
1117.0709999999999
 11
1875.8108000000002
 21
1124.3267000000001
  0
LINE
  8
_0-0_LAYER001
  6
CONTINUOUS
 62
    4
 10
1875.8108000000002
 20
1105.7692
 11
1843.9438
 21
1097.7748999999999
  0
LINE
  8
_0-0_LAYER001
  6
CONTINUOUS
 62
    4
 10
1892.8108000000002
 20
1071.0539000000001
 11
1875.8108000000002
 21
1071.0539000000001
  0
LINE
  8
_0-0_LAYER001
  6
CONTINUOUS
 62
    4
 10
1875.8108000000002
 20
1126.6890000000001
 11
1875.8108000000002
 21
1071.0539000000001
  0
LINE
  8
_0-0_LAYER001
  6
CONTINUOUS
 62
    4
 10
1875.8317999999999
 20
1124.1276
 11
1892.2678000000001
 21
1128.8235999999999
  0
LINE
  8
_0-0_LAYER001
  6
CONTINUOUS
 62
    4
 10
1875.4047999999998
 20
1105.9838
 11
1895.0428000000002
 21
1111.5337
  0
LINE
  8
_0-0_LAYER001
  6
DASHED1
 62
    2
 10
1686.1828
 20
1117.3094000000001
 11
1702.1828
 21
1117.3094000000001
  0
LINE
  8
_0-0_LAYER001
  6
DASHED1
 62
    2
 10
1702.1828
 20
1117.3094000000001
 11
1702.1828
 21
1114.3094000000001
  0
LINE
  8
_0-0_LAYER001
  6
DASHED1
 62
    2
 10
1686.1828
 20
1117.3094000000001
 11
1686.1828
 21
1114.3094000000001
  0
LINE
  8
_0-0_LAYER001
  6
DASHED1
 62
    2
 10
1686.1828
 20
1114.3094000000001
 11
1702.1828
 21
1114.3094000000001
  0
LINE
  8
_0-0_LAYER001
  6
DASHED1
 62
    2
 10
1697.1828
 20
1059.4132999999999
 11
1694.1325999999999
 21
1044.9043999999999
  0
LINE
  8
_0-0_LAYER001
  6
DASHED1
 62
    2
 10
1697.1828
 20
1114.3094000000001
 11
1697.1828
 21
1059.4132999999999
  0
LINE
  8
_0-0_LAYER001
  6
DASHED1
 62
    2
 10
1694.1325999999999
 20
1044.9043999999999
 11
1691.1828
 21
1059.1619000000001
  0
LINE
  8
_0-0_LAYER001
  6
DASHED1
 62
    2
 10
1691.1828
 20
1114.3094000000001
 11
1691.1828
 21
1059.1619000000001
  0
LINE
  8
_0-0_LAYER001
  6
CONTINUOUS
 62
    2
 10
1958.8243000000002
 20
1057.1412
 11
1916.3243000000002
 21
1057.1412
  0
CIRCLE
  8
_0-0_LAYER001
  6
CONTINUOUS
 62
    2
 10
1956.3243000000002
 20
1057.1412
 40
1.6999999999999997
  0
LINE
  8
_0-0_LAYER001
  6
CONTINUOUS
 62
    2
 10
1956.3243000000002
 20
1057.1412
 11
1956.3243000000002
 21
1093.1412
  0
CIRCLE
  8
_0-0_LAYER001
  6
CONTINUOUS
 62
    2
 10
1956.3243000000002
 20
1093.1412
 40
1.6999999999999997
  0
LINE
  8
_0-0_LAYER001
  6
CONTINUOUS
 62
    2
 10
1958.8243000000002
 20
1093.1412
 11
1916.3243000000002
 21
1093.1412
  0
LINE
  8
_0-0_LAYER001
  6
CONTINUOUS
 62
    2
 10
1867.9027000000001
 20
890.5761
 11
1867.9027000000001
 21
918.0761
  0
CIRCLE
  8
_0-0_LAYER001
  6
CONTINUOUS
 62
    2
 10
1867.9027000000001
 20
893.0761
 40
1.6999999999999997
  0
LINE
  8
_0-0_LAYER001
  6
CONTINUOUS
 62
    2
 10
1867.9027000000001
 20
893.0761
 11
1892.8108000000002
 21
893.0761
  0
CIRCLE
  8
_0-0_LAYER001
  6
CONTINUOUS
 62
    2
 10
1892.8108000000002
 20
893.0761
 40
1.6999999999999997
  0
LINE
  8
_0-0_LAYER001
  6
CONTINUOUS
 62
    2
 10
1892.8108000000002
 20
890.5761
 11
1892.8108000000002
 21
918.0761
  0
LINE
  8
_0-0_LAYER001
  6
CONTINUOUS
 62
    2
 10
1057.4629
 20
1289.7686000000001
 11
1057.4629
 21
1237.2686000000001
  0
CIRCLE
  8
_0-0_LAYER001
  6
CONTINUOUS
 62
    2
 10
1057.4629
 20
1287.2686000000001
 40
1.6999999999999997
  0
LINE
  8
_0-0_LAYER001
  6
CONTINUOUS
 62
    2
 10
1057.4629
 20
1287.2686000000001
 11
1322.4629
 21
1287.2686000000001
  0
CIRCLE
  8
_0-0_LAYER001
  6
CONTINUOUS
 62
    2
 10
1322.4629
 20
1287.2686000000001
 40
1.6999999999999997
  0
LINE
  8
_0-0_LAYER001
  6
CONTINUOUS
 62
    2
 10
1322.4629
 20
1289.7686000000001
 11
1322.4629
 21
1237.2686000000001
  0
CIRCLE
  8
_0-0_LAYER001
  6
CONTINUOUS
 62
    2
 10
1322.4629
 20
1287.2686000000001
 40
1.6999999999999997
  0
LINE
  8
_0-0_LAYER001
  6
CONTINUOUS
 62
    2
 10
1322.4629
 20
1287.2686000000001
 11
1587.4629
 21
1287.2686000000001
  0
CIRCLE
  8
_0-0_LAYER001
  6
CONTINUOUS
 62
    2
 10
1587.4629
 20
1287.2686000000001
 40
1.6999999999999997
  0
LINE
  8
_0-0_LAYER001
  6
CONTINUOUS
 62
    2
 10
1587.4629
 20
1289.7686000000001
 11
1587.4629
 21
1237.2686000000001
  0
CIRCLE
  8
_0-0_LAYER001
  6
CONTINUOUS
 62
    2
 10
1587.4629
 20
1287.2686000000001
 40
1.6999999999999997
  0
LINE
  8
_0-0_LAYER001
  6
CONTINUOUS
 62
    2
 10
1587.4629
 20
1287.2686000000001
 11
1892.4629
 21
1287.2686000000001
  0
CIRCLE
  8
_0-0_LAYER001
  6
CONTINUOUS
 62
    2
 10
1892.4629
 20
1287.2686000000001
 40
1.6999999999999997
  0
LINE
  8
_0-0_LAYER001
  6
CONTINUOUS
 62
    2
 10
1892.4629
 20
1289.7686000000001
 11
1892.4629
 21
1237.2686000000001
  0
LINE
  8
_0-1_LAYER004
  6
CONTINUOUS
 62
    2
 10
1730.4191000000001
 20
1106.3587
 11
1726.6691000000001
 21
1099.8634999999999
  0
LINE
  8
_0-1_LAYER004
  6
CONTINUOUS
 62
    2
 10
1726.6691000000001
 20
1099.8634999999999
 11
1726.6691000000001
 21
1107.3634999999999
  0
LINE
  8
_0-1_LAYER004
  6
CONTINUOUS
 62
    2
 10
1726.6691000000001
 20
1099.8634999999999
 11
1757.4306000000001
 21
1214.6669999999999
  0
LINE
  8
_0-1_LAYER004
  6
CONTINUOUS
 62
    2
 10
1757.4306000000001
 20
1214.6669999999999
 11
1805.4306000000001
 21
1214.6669999999999
  0
LINE
  8
_0-1_LAYER004
  6
CONTINUOUS
 62
    7
 10
1057.4629
 20
1288.9686000000002
 11
1057.4629
 21
1237.2686000000001
  0
LINE
  8
_0-1_LAYER004
  6
CONTINUOUS
 62
    7
 10
1057.4629
 20
1287.2686000000001
 11
1892.4629
 21
1287.2686000000001
  0
LINE
  8
_0-1_LAYER004
  6
CONTINUOUS
 62
    7
 10
1892.4629
 20
1237.2686000000001
 11
1892.4629
 21
1287.2686000000001
  0
LINE
  8
_0-1_LAYER004
  6
CONTINUOUS
 62
    7
 10
1892.4629
 20
1285.5686000000001
 11
1892.4629
 21
1288.9686000000002
  0
LINE
  8
_0-1_LAYER004
  6
CONTINUOUS
 62
    7
 10
1587.4629
 20
1237.2686000000001
 11
1587.4629
 21
1288.9686000000002
  0
LINE
  8
_0-1_LAYER004
  6
CONTINUOUS
 62
    7
 10
1322.4629
 20
1237.2686000000001
 11
1322.4629
 21
1288.9686000000002
  0
LINE
  8
_0-1_LAYER004
  6
CONTINUOUS
 62
    7
 10
1245.4680000000001
 20
1195.7225000000001
 11
1285.9680000000001
 21
1195.7225000000001
  0
LINE
  8
_0-1_LAYER004
  6
CONTINUOUS
 62
    7
 10
998.67560000000003
 20
1077.6202000000001
 11
1843.9027000000001
 21
1077.6202000000001
  0
LINE
  8
_0-1_LAYER004
  6
CONTINUOUS
 62
    7
 10
1843.9027000000001
 20
1062.6202000000001
 11
998.67560000000003
 21
1062.6202000000001
  0
LINE
  8
_0-1_LAYER004
  6
CONTINUOUS
 62
    7
 10
998.67560000000003
 20
1060.1412
 11
1843.9027000000001
 21
1060.1412
  0
LINE
  8
_0-1_LAYER004
  6
CONTINUOUS
 62
    7
 10
1843.9027000000001
 20
1061.6412
 11
998.67560000000003
 21
1061.6412
  0
LINE
  8
_0-1_LAYER004
  6
CONTINUOUS
 62
    7
 10
998.67560000000003
 20
1045.1412
 11
1843.9027000000001
 21
1045.1412
  0
LINE
  8
_0-1_LAYER004
  6
CONTINUOUS
 62
    7
 10
1783.9027000000001
 20
1045.1412
 11
1783.9027000000001
 21
985.14120000000003
  0
LINE
  8
_0-1_LAYER004
  6
CONTINUOUS
 62
    7
 10
1783.9027000000001
 20
985.14120000000003
 11
1843.9027000000001
 21
985.14120000000003
  0
LINE
  8
_0-1_LAYER004
  6
CONTINUOUS
 62
    7
 10
1915.8243000000002
 20
985.14120000000003
 11
1957.5243000000003
 21
985.14120000000003
  0
LINE
  8
_0-1_LAYER004
  6
CONTINUOUS
 62
    7
 10
1955.8243000000002
 20
985.14120000000003
 11
1955.8243000000002
 21
1093.1412
  0
LINE
  8
_0-1_LAYER004
  6
CONTINUOUS
 62
    7
 10
1958.0243
 20
1093.1412
 11
1916.3243000000002
 21
1093.1412
  0
LINE
  8
_0-1_LAYER004
  6
CONTINUOUS
 62
    7
 10
1915.8243000000002
 20
1057.1412
 11
1957.5243000000003
 21
1057.1412
  0
LINE
  8
_0-1_LAYER004
  6
CONTINUOUS
 62
    7
 10
1915.8243000000002
 20
1045.1412
 11
1957.5243000000003
 21
1045.1412
  0
LINE
  8
_0-1_LAYER004
  6
CONTINUOUS
 62
    7
 10
1867.9027000000001
 20
918.0761
 11
1867.9027000000001
 21
891.37609999999995
  0
LINE
  8
_0-1_LAYER004
  6
CONTINUOUS
 62
    7
 10
1867.9027000000001
 20
893.0761
 11
1892.8108000000002
 21
893.0761
  0
LINE
  8
_0-1_LAYER004
  6
CONTINUOUS
 62
    7
 10
1892.8108000000002
 20
890.5761
 11
1892.8108000000002
 21
918.0761
  0
LINE
  8
_0-1_LAYER004
  6
CONTINUOUS
 62
    7
 10
1807.0030999999999
 20
810.32989999999995
 11
1725.6637999999998
 21
810.32989999999995
  0
LINE
  8
_0-1_LAYER004
  6
CONTINUOUS
 62
    7
 10
1297.2326
 20
797.23129999999992
 11
1360.5740000000001
 21
797.23129999999992
  0
LINE
  8
_0-1_LAYER004
  6
CONTINUOUS
 62
    7
 10
1366.9175999999998
 20
827.09789999999998
 11
1203.4176
 21
827.09789999999998
  0
LINE
  8
_0-1_LAYER004
  6
CONTINUOUS
 62
    7
 10
1145.0479
 20
857.19319999999993
 11
1376.4607000000001
 21
857.19319999999993
  0
LINE
  8
_0-1_LAYER004
  6
CONTINUOUS
 62
    7
 10
1385.0902000000001
 20
887.28850000000011
 11
1180.2674
 21
887.28850000000011
  0
LINE
  8
_0-1_LAYER004
  6
CONTINUOUS
 62
    7
 10
1177.9027000000001
 20
1045.1412
 11
1177.9027000000001
 21
985.14120000000003
  0
LINE
  8
_0-1_LAYER004
  6
CONTINUOUS
 62
    7
 10
1177.9027000000001
 20
985.14120000000003
 11
1237.9027000000001
 21
985.14120000000003
  0
LINE
  8
_0-1_LAYER004
  6
CONTINUOUS
 62
    7
 10
1237.9027000000001
 20
985.14120000000003
 11
1237.9027000000001
 21
1045.1412
  0
LINE
  8
_0-1_LAYER004
  6
CONTINUOUS
 62
    7
 10
1480.9027000000001
 20
1045.1412
 11
1480.9027000000001
 21
985.14120000000003
  0
LINE
  8
_0-1_LAYER004
  6
CONTINUOUS
 62
    7
 10
1480.9027000000001
 20
985.14120000000003
 11
1540.9027000000001
 21
985.14120000000003
  0
LINE
  8
_0-1_LAYER004
  6
CONTINUOUS
 62
    7
 10
1540.9027000000001
 20
985.14120000000003
 11
1540.9027000000001
 21
1045.1412
  0
LINE
  8
_0-1_LAYER004
  6
CONTINUOUS
 62
    7
 10
1245.4680000000001
 20
1195.7225000000001
 11
1216.8053
 21
1088.752
  0
LINE
  8
_0-1_LAYER004
  6
CONTINUOUS
 62
    7
 10
1216.8053
 20
1088.752
 11
1222.617
 21
1099.4201
  0
LINE
  8
_0-1_LAYER004
  6
CONTINUOUS
 62
    7
 10
1216.8053
 20
1088.752
 11
1217.646
 21
1099.578
  0
LINE
  8
_0-1_LAYER004
  6
CONTINUOUS
 62
    7
 10
1177.9027000000001
 20
1045.1412
 11
1237.9027000000001
 21
985.14120000000003
  0
LINE
  8
_0-1_LAYER004
  6
CONTINUOUS
 62
    7
 10
1360.5740000000001
 20
797.23129999999992
 11
1430.1791000000001
 21
1057.0011
  0
LINE
  8
_0-1_LAYER004
  6
CONTINUOUS
 62
    7
 10
1430.1791000000001
 20
1057.0011
 11
1426.4291000000001
 21
1050.5059000000001
  0
LINE
  8
_0-1_LAYER004
  6
CONTINUOUS
 62
    7
 10
1430.1791000000001
 20
1057.0011
 11
1430.1791000000001
 21
1049.5011
  0
LINE
  8
_0-1_LAYER004
  6
CONTINUOUS
 62
    7
 10
1480.9027000000001
 20
1045.1412
 11
1540.9027000000001
 21
985.14120000000003
  0
LINE
  8
_0-1_LAYER004
  6
CONTINUOUS
 62
    7
 10
1757.4306000000001
 20
1214.6669999999999
 11
1805.4306000000001
 21
1214.6669999999999
  0
LINE
  8
_0-1_LAYER004
  6
CONTINUOUS
 62
    7
 10
1757.4306000000001
 20
1214.6669999999999
 11
1726.6691000000001
 21
1099.8634999999999
  0
LINE
  8
_0-1_LAYER004
  6
CONTINUOUS
 62
    7
 10
1726.6691000000001
 20
1099.8634999999999
 11
1730.4191000000001
 21
1106.3587
  0
LINE
  8
_0-1_LAYER004
  6
CONTINUOUS
 62
    7
 10
1726.6691000000001
 20
1099.8634999999999
 11
1726.6691000000001
 21
1107.3634999999999
  0
LINE
  8
_0-1_LAYER004
  6
CONTINUOUS
 62
    7
 10
1783.9027000000001
 20
1045.1412
 11
1843.9027000000001
 21
984.77119999999991
  0
LINE
  8
_0-1_LAYER004
  6
CONTINUOUS
 62
    7
 10
1849.3638000000001
 20
968.4221
 11
1845.6138000000001
 21
961.92689999999993
  0
LINE
  8
_0-1_LAYER004
  6
CONTINUOUS
 62
    7
 10
1849.3638000000001
 20
968.4221
 11
1849.3638000000001
 21
960.9221
  0
LINE
  8
_0-1_LAYER004
  6
CONTINUOUS
 62
    7
 10
1849.3638000000001
 20
968.4221
 11
1807.0030999999999
 21
810.32989999999995
  0
TEXT
  8
_0-0_LAYER001
 62
    7
 10
1295.2445
 20
799.73129999999946
 40
20
 41
1
 50
0
  1
　垂木　
  0
TEXT
  8
_0-1_LAYER004
 62
    7
 10
1757.4306000000001
 20
1217.1670000000004
 40
20
 41
1
 50
0
  1
右袖瓦
  0
TEXT
  8
_0-1_LAYER004
 62
    7
 10
1238.0572172712918
 20
1200.4896514546285
 40
20
 41
1
 50
0
  1
桟　瓦
  0
TEXT
  8
_0-1_LAYER004
 62
    7
 10
1739.4584084547362
 20
813.99289991739033
 40
20
 41
1
 50
0
  1
破風板　
  0
TEXT
  8
_0-0_LAYER001
 62
    7
 10
1182.2483505362179
 20
1305.0979605383213
 40
20
 41
1
 50
0
  1
265
  0
TEXT
  8
_0-0_LAYER001
 62
    7
 10
1443.7258085572607
 20
1308.3869851675163
 40
20
 41
1
 50
0
  1
265
  0
TEXT
  8
_0-0_LAYER001
 62
    7
 10
1729.87095129727
 20
1308.3869851675163
 40
20
 41
1
 50
0
  1
305
  0
TEXT
  8
_0-0_LAYER001
 62
    7
 10
1979.9479120058959
 20
1067.8854900108365
 40
20
 41
1
 50
90
  1
36
  0
TEXT
  8
_0-0_LAYER001
 62
    7
 10
1979.3729111854793
 20
1017.4688683475206
 40
20
 41
1
 50
90
  1
6015
  0
TEXT
  8
_0-0_LAYER001
 62
    7
 10
1872.0429091680858
 20
863.59103799774948
 40
20
 41
1
 50
0
  1
25
  0
TEXT
  8
_0-0_LAYER001
 62
    7
 10
1131.697165641524
 20
895.67637617166497
 40
20
 41
1
 50
0
  1
　瓦桟：１５ｘ３０以上　
  0
TEXT
  8
_0-0_LAYER001
 62
    7
 10
1144.6883648069484
 20
861.57447836242545
 40
20
 41
1
 50
0
  1
　下葺材：ルーフィング
  0
TEXT
  8
_0-0_LAYER001
 62
    7
 10
1147.9361645983047
 20
827.47258055318582
 40
20
 41
1
 50
0
  1
　野地板：杉ｔ＝１２　
  0
ENDSEC
  0
EOF
