  0
SECTION
  2
HEADER
  9
$ACADVER
  1
AC1009
  9
$INSBASE
 10
0
 20
0
 30
0
  9
$EXTMIN
 10
0
 20
0
  9
$EXTMAX
 10
2970
 20
2100
  9
$LIMMIN
 10
0
 20
0
  9
$LIMMAX
 10
2970
 20
2100
  9
$LTSCALE
 40
10
  0
ENDSEC
  0
SECTION
  2
TABLES
  0
TABLE
  2
LTYPE
 70
     9
  0
LTYPE
  2
CONTINUOUS
 70
    64
  3
実線
 72
    65
 73
     0
 40
0.0
  0
LTYPE
  2
DASHED1
 70
    64
  3
--  --  --  --  --  --  --  --  
 72
    65
 73
     2
 40
2.5
 49
1.25
 49
-1.25
  0
LTYPE
  2
DASHED2
 70
    64
  3
----    ----    ----    ----    
 72
    65
 73
     2
 40
5.0
 49
2.5
 49
-2.5
  0
LTYPE
  2
DASHED3
 70
    64
  3
------  ------  ------  ------  
 72
    65
 73
     2
 40
5.0
 49
3.75
 49
-1.25
  0
LTYPE
  2
CENTER1
 70
    64
  3
----- - ----- - ----- - ----- - 
 72
    65
 73
     4
 40
10.0
 49
6.25
 49
-1.25
 49
1.25
 49
-1.25
  0
LTYPE
  2
CENTER2
 70
    64
  3
----------  --  ----------  --  
 72
    65
 73
     4
 40
20.0
 49
12.5
 49
-2.5
 49
2.5
 49
-2.5
  0
LTYPE
  2
PHANTOM1
 70
    64
  3
--- - - --- - - --- - - --- - - 
 72
    65
 73
     6
 40
10.0
 49
3.25
 49
-1.25
 49
1.25
 49
-1.25
 49
1.25
 49
-1.25
  0
LTYPE
  2
PHANTOM2
 70
    64
  3
--------  -  -  --------  -  -  
 72
    65
 73
     6
 40
20.0
 49
10.0
 49
-2.5
 49
1.25
 49
-2.5
 49
1.25
 49
-2.5
  0
LTYPE
  2
DOT
 70
    64
  3
-   -   -   -   -   -   -   -   
 72
    65
 73
     2
 40
2.5
 49
0.625
 49
-1.875
  0
LTYPE
  2
DUMMY
 70
    64
  3
ダミー
 72
    65
 73
     0
 40
0.0
  0
LTYPE
  2
RAND1
 70
    64
  3
ランダム線1
 72
    65
 73
     4
 40
10.0
 49
1.0
 49
-2.0
 49
3.0
 49
-4.0
  0
LTYPE
  2
RAND2
 70
    64
  3
ランダム線2
 72
    65
 73
     4
 40
14.0
 49
2.0
 49
-3.0
 49
4.0
 49
-5.0
  0
LTYPE
  2
RAND3
 70
    64
  3
ランダム線3
 72
    65
 73
     4
 40
18.0
 49
3.0
 49
-4.0
 49
5.0
 49
-6.0
  0
LTYPE
  2
RAND4
 70
    64
  3
ランダム線4
 72
    65
 73
     4
 40
22.0
 49
4.0
 49
-5.0
 49
6.0
 49
-7.0
  0
LTYPE
  2
RAND5
 70
    64
  3
ランダム線5
 72
    65
 73
     4
 40
26.0
 49
5.0
 49
-6.0
 49
7.0
 49
-8.0
  0
LTYPE
  2
LONG1
 70
    64
  3
----------  --  ----------  --  
 72
    65
 73
     4
 40
40.0
 49
32.5
 49
-2.5
 49
2.5
 49
-2.5
  0
LTYPE
  2
LONG2
 70
    64
  3
--------  -  -  --------  -  -  
 72
    65
 73
     6
 40
40.0
 49
30.0
 49
-2.5
 49
1.25
 49
-2.5
 49
1.25
 49
-2.5
  0
LTYPE
  2
LONG3
 70
    64
  3
+++++++++++++++..+++++++++++++++
 72
    65
 73
     2
 40
40.0
 49
37.5
 49
-2.5
  0
LTYPE
  2
LONG4
 70
    64
  3
+++++++++++++++..+++++++++++++++
 72
    65
 73
     2
 40
80.0
 49
75.0
 49
-5.0
  0
LTYPE
  2
LONG5
 70
    64
  3
----------  --  ----------  --  
 72
    65
 73
     4
 40
60.0
 49
37.5
 49
-7.5
 49
7.5
 49
-7.5
  0
LTYPE
  2
dashed
 70
   64
  3
-------   -------------   ------
 72
   65
 73
    2
 40
7.5
 49
6
 49
-1.5
  0
LTYPE
  2
dashed_spaced
 70
   64
  3
----        --------        ----
 72
   65
 73
    2
 40
12
 49
6
 49
-6
  0
LTYPE
  2
long_dashed_dotted
 70
   64
  3
------------- --- --------------
 72
   65
 73
    4
 40
15.25
 49
12
 49
-1.5
 49
0.25
 49
-1.5
  0
LTYPE
  2
long_dashed_double-dotted
 70
   64
  3
----------- --- --- ------------
 72
   65
 73
    6
 40
17
 49
12
 49
-1.5
 49
0.25
 49
-1.5
 49
0.25
 49
-1.5
  0
LTYPE
  2
long_dashed_triplicate-dotted
 70
   64
  3
--------- --- --- --- ----------
 72
   65
 73
    8
 40
18.75
 49
12
 49
-1.5
 49
0.25
 49
-1.5
 49
0.25
 49
-1.5
 49
0.25
 49
-1.5
  0
LTYPE
  2
dotted
 70
   64
  3
   -       -       -       -    
 72
   65
 73
    2
 40
1.75
 49
0.25
 49
-1.5
  0
LTYPE
  2
chain
 70
   64
  3
-------------- -- --------------
 72
   65
 73
    4
 40
18.5
 49
12
 49
-1.5
 49
3.5
 49
-1.5
  0
LTYPE
  2
chain_double_dash
 70
   64
  3
------------ -- -- -------------
 72
   65
 73
    6
 40
23.5
 49
12
 49
-1.5
 49
3.5
 49
-1.5
 49
3.5
 49
-1.5
  0
LTYPE
  2
dashed_dotted
 70
   64
  3
-----------     -     ----------
 72
   65
 73
    4
 40
9.25
 49
6
 49
-1.5
 49
0.25
 49
-1.5
  0
LTYPE
  2
double-dashed_dotted
 70
   64
  3
------   -----------   -   -----
 72
   65
 73
    6
 40
16.75
 49
6
 49
-1.5
 49
6
 49
-1.5
 49
0.25
 49
-1.5
  0
LTYPE
  2
dashed_double-dotted
 70
   64
  3
---------    -    -    ---------
 72
   65
 73
    6
 40
11
 49
6
 49
-1.5
 49
0.25
 49
-1.5
 49
0.25
 49
-1.5
  0
LTYPE
  2
double-dashed_double-dotted
 70
   64
  3
-----   ---------   -   -   ----
 72
   65
 73
    8
 40
18.5
 49
6
 49
-1.5
 49
6
 49
-1.5
 49
0.25
 49
-1.5
 49
0.25
 49
-1.5
  0
LTYPE
  2
dashed_triplicate-dotted
 70
   64
  3
-------    -    -    -    ------
 72
   65
 73
    8
 40
12.75
 49
6
 49
-1.5
 49
0.25
 49
-1.5
 49
0.25
 49
-1.5
 49
0.25
 49
-1.5
  0
LTYPE
  2
double-dashed_triplicate-dotted
 70
   64
  3
-----  ---------  -  -  -  -----
 72
   65
 73
   10
 40
20.25
 49
6
 49
-1.5
 49
6
 49
-1.5
 49
0.25
 49
-1.5
 49
0.25
 49
-1.5
 49
0.25
 49
-1.5
  0
LTYPE
  2
undefined
 70
   64
  3
--------------------------------
 72
   65
 73
    0
 40
0
  0
ENDTAB
  0
TABLE
  2
STYLE
  5
3
100
AcDbSymbolTable
 70
     1
  0
STYLE
  5
10
100
AcDbSymbolTableRecord
100
AcDbTextStyleTableRecord
  2
STANDARD
 70
     0
 40
0.0
 41
1.0
 50
0.0
 71
     0
 42
0.2
  3
txt
  4
bigfont.shx
  0
STYLE
  5
26
100
AcDbSymbolTableRecord
100
AcDbTextStyleTableRecord
  2
TATEGAKI
 70
    68
 40
0.0
 41
1.0
 50
0.0
 71
     0
 42
1.0
  3
txt
  4
bigfont.shx
  0
ENDTAB
  0
TABLE
  2
LAYER
 70
    4
  0
LAYER
  2
_0-0_LAYER001
 70
   64
 62
    7
  6
CONTINUOUS
  0
LAYER
  2
_0-1_LAYER003
 70
   64
 62
    7
  6
CONTINUOUS
  0
LAYER
  2
_0-2_LAYER004
 70
   64
 62
    7
  6
CONTINUOUS
  0
LAYER
  2
ADD_LINE
 70
   64
 62
    7
  6
CONTINUOUS
  0
ENDTAB
  0
ENDSEC
  0
SECTION
  2
BLOCKS
  0
ENDSEC
  0
SECTION
  2
ENTITIES
  0
LINE
  8
_0-0_LAYER001
  6
CONTINUOUS
 62
    2
 10
1060.0148999999999
 20
802.3282999999999
 11
1084.1539
 21
747.39630000000011
  0
LINE
  8
_0-0_LAYER001
  6
CONTINUOUS
 62
    2
 10
929.35529999999994
 20
677.7367999999999
 11
977.23109999999997
 21
699.28099999999995
  0
CIRCLE
  8
_0-0_LAYER001
  6
CONTINUOUS
 62
    2
 10
931.63509999999997
 20
678.7627
 40
1.6999999999999997
  0
LINE
  8
_0-0_LAYER001
  6
CONTINUOUS
 62
    2
 10
931.63509999999997
 20
678.7627
 11
907.01340000000005
 21
733.47749999999996
  0
CIRCLE
  8
_0-0_LAYER001
  6
CONTINUOUS
 62
    2
 10
907.01340000000005
 20
733.47749999999996
 40
1.6999999999999997
  0
LINE
  8
_0-0_LAYER001
  6
CONTINUOUS
 62
    2
 10
904.73360000000002
 20
732.4516000000001
 11
952.60940000000005
 21
753.99579999999992
  0
CIRCLE
  8
_0-0_LAYER001
  6
CONTINUOUS
 62
    2
 10
907.01340000000005
 20
733.47749999999996
 40
1.6999999999999997
  0
LINE
  8
_0-0_LAYER001
  6
CONTINUOUS
 62
    2
 10
907.01340000000005
 20
733.47749999999996
 11
894.7025000000001
 21
760.83510000000001
  0
CIRCLE
  8
_0-0_LAYER001
  6
CONTINUOUS
 62
    2
 10
894.7025000000001
 20
760.83510000000001
 40
1.6999999999999997
  0
LINE
  8
_0-0_LAYER001
  6
CONTINUOUS
 62
    2
 10
892.42270000000008
 20
759.80919999999992
 11
940.2985000000001
 21
781.35329999999999
  0
CIRCLE
  8
_0-0_LAYER001
  6
CONTINUOUS
 62
    2
 10
894.7025000000001
 20
760.83510000000001
 40
1.6999999999999997
  0
LINE
  8
_0-0_LAYER001
  6
CONTINUOUS
 62
    2
 10
894.7025000000001
 20
760.83510000000001
 11
884.73219999999992
 21
782.99109999999996
  0
CIRCLE
  8
_0-0_LAYER001
  6
CONTINUOUS
 62
    2
 10
884.73219999999992
 20
782.99109999999996
 40
1.6999999999999997
  0
LINE
  8
_0-0_LAYER001
  6
CONTINUOUS
 62
    2
 10
882.4523999999999
 20
781.9652000000001
 11
930.3282999999999
 21
803.50939999999991
  0
LINE
  8
_0-0_LAYER001
  6
CONTINUOUS
 62
    3
 10
1129.027
 20
881.42110000000002
 11
1030.3770999999999
 21
844.91660000000002
  0
LINE
  8
_0-0_LAYER001
  6
CONTINUOUS
 62
    2
 10
1229.9973
 20
900.41350000000011
 11
1257.3543
 21
912.72579999999994
  0
LINE
  8
_0-0_LAYER001
  6
CONTINUOUS
 62
    2
 10
1257.3543
 20
912.72579999999994
 11
1251.1981000000001
 21
926.40429999999992
  0
LINE
  8
_0-0_LAYER001
  6
CONTINUOUS
 62
    2
 10
1251.1981000000001
 20
926.40429999999992
 11
1223.8411000000001
 21
914.0920000000001
  0
LINE
  8
_0-0_LAYER001
  6
CONTINUOUS
 62
    2
 10
1223.8411000000001
 20
914.0920000000001
 11
1229.9973
 21
900.41350000000011
  0
LINE
  8
_0-0_LAYER001
  6
CONTINUOUS
 62
    2
 10
1251.1981000000001
 20
926.40429999999992
 11
1229.9973
 21
900.41350000000011
  0
LINE
  8
_0-0_LAYER001
  6
CONTINUOUS
 62
    4
 10
1265.7873
 20
918.78569999999991
 11
1255.4421
 21
947.11599999999999
  0
LINE
  8
_0-0_LAYER001
  6
CONTINUOUS
 62
    2
 10
1445.2057
 20
997.27089999999998
 11
1472.5626999999999
 21
1009.5832
  0
LINE
  8
_0-0_LAYER001
  6
CONTINUOUS
 62
    2
 10
1472.5626999999999
 20
1009.5832
 11
1466.4065000000001
 21
1023.2617
  0
LINE
  8
_0-0_LAYER001
  6
CONTINUOUS
 62
    2
 10
1466.4065000000001
 20
1023.2617
 11
1439.0495000000001
 21
1010.9493
  0
LINE
  8
_0-0_LAYER001
  6
CONTINUOUS
 62
    2
 10
1439.0495000000001
 20
1010.9493
 11
1445.2057
 21
997.27089999999998
  0
LINE
  8
_0-0_LAYER001
  6
CONTINUOUS
 62
    2
 10
1466.4065000000001
 20
1023.2617
 11
1445.2057
 21
997.27089999999998
  0
LINE
  8
_0-0_LAYER001
  6
CONTINUOUS
 62
    4
 10
1480.6338999999998
 20
1015.5402999999999
 11
1470.2885999999999
 21
1043.8706
  0
LINE
  8
_0-0_LAYER001
  6
CONTINUOUS
 62
    2
 10
1660.4141
 20
1094.1282000000001
 11
1687.7710999999999
 21
1106.4405999999999
  0
LINE
  8
_0-0_LAYER001
  6
CONTINUOUS
 62
    2
 10
1687.7710999999999
 20
1106.4405999999999
 11
1681.6149
 21
1120.1190999999999
  0
LINE
  8
_0-0_LAYER001
  6
CONTINUOUS
 62
    2
 10
1681.6149
 20
1120.1190999999999
 11
1654.2579000000001
 21
1107.8067000000001
  0
LINE
  8
_0-0_LAYER001
  6
CONTINUOUS
 62
    2
 10
1654.2579000000001
 20
1107.8067000000001
 11
1660.4141
 21
1094.1282000000001
  0
LINE
  8
_0-0_LAYER001
  6
CONTINUOUS
 62
    2
 10
1681.6149
 20
1120.1190999999999
 11
1660.4141
 21
1094.1282000000001
  0
LINE
  8
_0-0_LAYER001
  6
CONTINUOUS
 62
    4
 10
1695.4803999999999
 20
1112.2947999999999
 11
1685.1352000000002
 21
1140.6251
  0
LINE
  8
_0-0_LAYER001
  6
CONTINUOUS
 62
    2
 10
1875.6224999999999
 20
1190.9856
 11
1902.9794999999999
 21
1203.298
  0
LINE
  8
_0-0_LAYER001
  6
CONTINUOUS
 62
    2
 10
1902.9794999999999
 20
1203.298
 11
1896.8233
 21
1216.9765
  0
LINE
  8
_0-0_LAYER001
  6
CONTINUOUS
 62
    2
 10
1896.8233
 20
1216.9765
 11
1869.4663
 21
1204.6641
  0
LINE
  8
_0-0_LAYER001
  6
CONTINUOUS
 62
    2
 10
1869.4663
 20
1204.6641
 11
1875.6224999999999
 21
1190.9856
  0
LINE
  8
_0-0_LAYER001
  6
CONTINUOUS
 62
    2
 10
1896.8233
 20
1216.9765
 11
1875.6224999999999
 21
1190.9856
  0
LINE
  8
_0-0_LAYER001
  6
CONTINUOUS
 62
    4
 10
1910.3270000000002
 20
1209.0494000000001
 11
1899.9816999999998
 21
1237.3797
  0
LINE
  8
_0-0_LAYER001
  6
CONTINUOUS
 62
    4
 10
1910.3270000000002
 20
1209.0494000000001
 11
1902.5270999999998
 21
1206.2195999999999
  0
LINE
  8
_0-0_LAYER001
  6
CONTINUOUS
 62
    4
 10
1898.2707999999998
 20
1217.9513999999999
 11
1902.5270999999998
 21
1206.2195999999999
  0
LINE
  8
_0-0_LAYER001
  6
CONTINUOUS
 62
    4
 10
1695.4803999999999
 20
1112.2947999999999
 11
1687.3279000000002
 21
1109.3371
  0
LINE
  8
_0-0_LAYER001
  6
CONTINUOUS
 62
    4
 10
1683.0716000000002
 20
1121.0688
 11
1687.3279000000002
 21
1109.3371
  0
LINE
  8
_0-0_LAYER001
  6
CONTINUOUS
 62
    4
 10
1480.6338999999998
 20
1015.5402999999999
 11
1472.1286
 21
1012.4546
  0
LINE
  8
_0-0_LAYER001
  6
CONTINUOUS
 62
    4
 10
1467.8723
 20
1024.1863000000001
 11
1472.1286
 21
1012.4546
  0
LINE
  8
_0-0_LAYER001
  6
CONTINUOUS
 62
    4
 10
1837.9504000000002
 20
1233.6822
 11
2039.0706
 21
1306.6491999999998
  0
LINE
  8
_0-0_LAYER001
  6
CONTINUOUS
 62
    4
 10
1820.6306
 20
1281.4213
 11
2018.1723000000002
 21
1353.0899999999999
  0
LINE
  8
_0-0_LAYER001
  6
CONTINUOUS
 62
    4
 10
1012.2991999999999
 20
840.0954999999999
 11
1252.673
 21
927.30379999999991
  0
LINE
  8
_0-0_LAYER001
  6
CONTINUOUS
 62
    4
 10
1265.7873
 20
918.78569999999991
 11
1256.9293
 21
915.57199999999989
  0
LINE
  8
_0-0_LAYER001
  6
CONTINUOUS
 62
    4
 10
1252.673
 20
927.30379999999991
 11
1256.9293
 21
915.57199999999989
  0
ARC
  8
_0-0_LAYER001
  6
CONTINUOUS
 62
    4
 10
1411.7788999999998
 20
1030.3874000000001
 40
10.4
 50
109.94091000000002
 51
199.94091
  0
ARC
  8
_0-0_LAYER001
  6
CONTINUOUS
 62
    4
 10
1626.6255000000001
 20
1127.1420000000001
 40
10.4
 50
109.94091000000002
 51
199.94091
  0
ARC
  8
_0-0_LAYER001
  6
CONTINUOUS
 62
    4
 10
1841.4720000000002
 20
1223.8965000000001
 40
10.4
 50
109.94091000000002
 51
199.94091
  0
ARC
  8
_0-0_LAYER001
  6
CONTINUOUS
 62
    4
 10
1196.9323999999999
 20
933.63290000000006
 40
10.4
 50
109.94091000000002
 51
199.94091
  0
ARC
  8
_0-0_LAYER001
  6
CONTINUOUS
 62
    4
 10
946.2016000000001
 20
1004.3992000000001
 40
108.38132
 50
268.69240000000002
 51
288.42793999999998
  0
LINE
  8
_0-0_LAYER001
  6
CONTINUOUS
 62
    4
 10
999.1848
 20
815.61670000000004
 11
1004.6787999999999
 21
793.07760000000007
  0
ARC
  8
_0-0_LAYER001
  6
CONTINUOUS
 62
    4
 10
1019.3931
 20
820.54259999999999
 40
20.800000000000001
 50
109.94091000000002
 51
193.69899000000001
  0
LINE
  8
_0-0_LAYER001
  6
CONTINUOUS
 62
    4
 10
1173.383
 20
968.04860000000008
 11
1189.6387999999999
 21
923.24240000000009
  0
ARC
  8
_0-0_LAYER001
  6
CONTINUOUS
 62
    4
 10
1192.9358999999999
 20
975.14249999999993
 40
20.800000000000001
 50
109.94091000000002
 51
199.94091
  0
LINE
  8
_0-0_LAYER001
  6
CONTINUOUS
 62
    4
 10
1685.1352000000002
 20
1140.6251
 11
1898.2707999999998
 21
1217.9513999999999
  0
LINE
  8
_0-0_LAYER001
  6
CONTINUOUS
 62
    4
 10
980.52960000000007
 20
901.38969999999995
 11
1172.2225000000001
 21
970.93640000000005
  0
LINE
  8
_0-0_LAYER001
  6
CONTINUOUS
 62
    4
 10
1185.8420000000001
 20
994.69540000000006
 11
1387.0658000000001
 21
1067.6999000000001
  0
ARC
  8
_0-0_LAYER001
  6
CONTINUOUS
 62
    4
 10
1394.4589999999998
 20
1078.1266000000001
 40
10.4
 50
109.94091000000002
 51
199.94091
  0
LINE
  8
_0-0_LAYER001
  6
CONTINUOUS
 62
    4
 10
1384.6826000000001
 20
1074.5796
 11
1404.4853000000001
 21
1019.9970000000001
  0
LINE
  8
_0-0_LAYER001
  6
CONTINUOUS
 62
    4
 10
1394.2592999999999
 20
1048.1831999999999
 11
1404.4853000000001
 21
1019.9970000000001
  0
LINE
  8
_0-0_LAYER001
  6
CONTINUOUS
 62
    4
 10
1193.3855000000001
 20
943.40930000000003
 11
1683.0716000000002
 21
1121.0688
  0
LINE
  8
_0-0_LAYER001
  6
CONTINUOUS
 62
    4
 10
1390.9121
 20
1087.903
 11
1601.9123
 21
1164.4545000000001
  0
ARC
  8
_0-0_LAYER001
  6
CONTINUOUS
 62
    4
 10
1609.3056000000001
 20
1174.8811000000001
 40
10.4
 50
109.94091000000002
 51
199.94091
  0
LINE
  8
_0-0_LAYER001
  6
CONTINUOUS
 62
    4
 10
1599.5291000000002
 20
1171.3342
 11
1619.3319000000001
 21
1116.7515000000001
  0
LINE
  8
_0-0_LAYER001
  6
CONTINUOUS
 62
    4
 10
1599.5291000000002
 20
1171.3342
 11
1619.3319000000001
 21
1116.7515000000001
  0
LINE
  8
_0-0_LAYER001
  6
CONTINUOUS
 62
    4
 10
1408.232
 20
1040.1639
 11
1685.1352000000002
 21
1140.6251
  0
LINE
  8
_0-0_LAYER001
  6
CONTINUOUS
 62
    4
 10
1606.6898999999999
 20
1184.9954
 11
1816.7588999999998
 21
1261.2091
  0
LINE
  8
_0-0_LAYER001
  6
CONTINUOUS
 62
    4
 10
1820.4054000000001
 20
1251.4686999999999
 11
1834.1783999999998
 21
1213.5061000000001
  0
LINE
  8
_0-0_LAYER001
  6
CONTINUOUS
 62
    4
 10
1623.0785999999998
 20
1136.9184
 11
2046.3462
 21
1290.4811999999997
  0
LINE
  8
_0-0_LAYER001
  6
CONTINUOUS
 62
    4
 10
1814.3757000000001
 20
1268.0887
 11
1834.1783999999998
 21
1213.5061000000001
  0
ARC
  8
_0-0_LAYER001
  6
CONTINUOUS
 62
    4
 10
1824.1520999999998
 20
1271.6357
 40
10.4
 50
109.94091000000002
 51
199.94091
  0
LINE
  8
_0-0_LAYER001
  6
CONTINUOUS
 62
    4
 10
943.91370000000006
 20
895.86750000000006
 11
973.98430000000008
 21
799.45540000000005
  0
ARC
  8
_0-0_LAYER001
  6
CONTINUOUS
 62
    4
 10
1131.5940000000001
 20
902.28629999999998
 40
188.27051
 50
181.81043
 51
212.85045999999997
  0
LINE
  8
_0-0_LAYER001
  6
CONTINUOUS
 62
    4
 10
972.55929999999989
 20
844.55040000000008
 11
972.48109999999997
 21
843.87670000000003
  0
LINE
  8
_0-0_LAYER001
  6
CONTINUOUS
 62
    4
 10
1467.8723
 20
1024.1863000000001
 11
972.34519999999998
 21
844.40769999999998
  0
LINE
  8
_0-0_LAYER001
  6
CONTINUOUS
 62
    4
 10
973.98430000000008
 20
799.45540000000005
 11
984.41889999999989
 21
803.24119999999994
  0
LINE
  8
_0-0_LAYER001
  6
CONTINUOUS
 62
    4
 10
972.34519999999998
 20
844.40769999999998
 11
989.0616
 21
787.41159999999991
  0
LINE
  8
_0-0_LAYER001
  6
CONTINUOUS
 62
    4
 10
1004.6787999999999
 20
793.07760000000007
 11
989.0616
 21
787.41159999999991
  0
LINE
  8
_0-0_LAYER001
  6
CONTINUOUS
 62
    2
 10
894.11680000000001
 20
1047.1066000000001
 11
912.125
 21
997.79179999999997
  0
CIRCLE
  8
_0-0_LAYER001
  6
CONTINUOUS
 62
    2
 10
894.97440000000006
 20
1044.7583
 40
1.6999999999999997
  0
LINE
  8
_0-0_LAYER001
  6
CONTINUOUS
 62
    2
 10
894.97440000000006
 20
1044.7583
 11
1115.7171000000001
 21
1125.3661999999999
  0
CIRCLE
  8
_0-0_LAYER001
  6
CONTINUOUS
 62
    2
 10
1115.7171000000001
 20
1125.3661999999999
 40
1.6999999999999997
  0
LINE
  8
_0-0_LAYER001
  6
CONTINUOUS
 62
    2
 10
1114.8596
 20
1127.7145
 11
1132.8678
 21
1078.3996999999999
  0
LINE
  8
_0-0_LAYER001
  6
CONTINUOUS
 62
    2
 10
1101.1391000000001
 20
1165.2878000000001
 11
1119.1473000000001
 21
1115.9729
  0
CIRCLE
  8
_0-0_LAYER001
  6
CONTINUOUS
 62
    2
 10
1101.9966999999999
 20
1162.9394
 40
1.6999999999999997
  0
LINE
  8
_0-0_LAYER001
  6
CONTINUOUS
 62
    2
 10
1101.9966999999999
 20
1162.9394
 11
1322.7393999999999
 21
1243.5473
  0
CIRCLE
  8
_0-0_LAYER001
  6
CONTINUOUS
 62
    2
 10
1322.7393999999999
 20
1243.5473
 40
1.6999999999999997
  0
LINE
  8
_0-0_LAYER001
  6
CONTINUOUS
 62
    2
 10
1321.8819000000003
 20
1245.8957
 11
1339.8900000000001
 21
1196.5808
  0
LINE
  8
_0-0_LAYER001
  6
CONTINUOUS
 62
    2
 10
1308.1614
 20
1283.4689000000001
 11
1326.1695
 21
1234.154
  0
CIRCLE
  8
_0-0_LAYER001
  6
CONTINUOUS
 62
    2
 10
1309.0189
 20
1281.1205999999997
 40
1.6999999999999997
  0
LINE
  8
_0-0_LAYER001
  6
CONTINUOUS
 62
    2
 10
1309.0189
 20
1281.1205999999997
 11
1529.7617
 21
1361.7284999999997
  0
CIRCLE
  8
_0-0_LAYER001
  6
CONTINUOUS
 62
    2
 10
1529.7617
 20
1361.7284999999997
 40
1.6999999999999997
  0
LINE
  8
_0-0_LAYER001
  6
CONTINUOUS
 62
    2
 10
1528.9041999999999
 20
1364.0768
 11
1546.9123
 21
1314.7619
  0
LINE
  8
_0-0_LAYER001
  6
CONTINUOUS
 62
    2
 10
1515.1837
 20
1401.6500000000001
 11
1533.1918000000001
 21
1352.3352
  0
CIRCLE
  8
_0-0_LAYER001
  6
CONTINUOUS
 62
    2
 10
1516.0412000000001
 20
1399.3017
 40
1.6999999999999997
  0
LINE
  8
_0-0_LAYER001
  6
CONTINUOUS
 62
    2
 10
1516.0412000000001
 20
1399.3017
 11
1736.7840000000001
 21
1479.9096
  0
CIRCLE
  8
_0-0_LAYER001
  6
CONTINUOUS
 62
    2
 10
1736.7840000000001
 20
1479.9096
 40
1.6999999999999997
  0
LINE
  8
_0-0_LAYER001
  6
CONTINUOUS
 62
    2
 10
1735.9263999999998
 20
1482.2579000000001
 11
1753.9346
 21
1432.943
  0
LINE
  8
_0-0_LAYER001
  6
CONTINUOUS
 62
    2
 10
1728.7012
 20
1171.8771999999999
 11
1730.6424000000002
 21
1164.6327000000001
  0
LINE
  8
_0-0_LAYER001
  6
CONTINUOUS
 62
    2
 10
1730.6424000000002
 20
1164.6327000000001
 11
1725.3391000000001
 21
1169.9359999999999
  0
LINE
  8
_0-0_LAYER001
  6
CONTINUOUS
 62
    2
 10
1730.6424000000002
 20
1164.6327000000001
 11
1671.0500999999999
 21
1267.8495
  0
LINE
  8
_0-0_LAYER001
  6
CONTINUOUS
 62
    2
 10
1671.0500999999999
 20
1267.8495
 11
1630.5500999999999
 21
1267.8495
  0
LINE
  8
_0-0_LAYER001
  6
CONTINUOUS
 62
    2
 10
1080.0355999999999
 20
888.27119999999991
 11
1081.9767999999999
 21
881.02669999999989
  0
LINE
  8
_0-0_LAYER001
  6
CONTINUOUS
 62
    2
 10
1081.9767999999999
 20
881.02669999999989
 11
1076.6735000000001
 21
886.32999999999993
  0
LINE
  8
_0-0_LAYER001
  6
CONTINUOUS
 62
    2
 10
1081.9767999999999
 20
881.02669999999989
 11
1009.1899000000001
 21
1007.0972999999999
  0
LINE
  8
_0-0_LAYER001
  6
CONTINUOUS
 62
    2
 10
1009.1899000000001
 20
1007.0972999999999
 11
944.68990000000008
 21
1007.0972999999999
  0
LINE
  8
_0-0_LAYER001
  6
CONTINUOUS
 62
    2
 10
1045.9404999999999
 20
661.01379999999995
 11
1024.3963000000001
 21
708.88969999999995
  0
CIRCLE
  8
_0-0_LAYER001
  6
CONTINUOUS
 62
    2
 10
1044.9146000000001
 20
663.29359999999997
 40
1.6999999999999997
  0
LINE
  8
_0-0_LAYER001
  6
CONTINUOUS
 62
    2
 10
1044.9146000000001
 20
663.29359999999997
 11
1100.6233999999999
 21
688.36259999999993
  0
CIRCLE
  8
_0-0_LAYER001
  6
CONTINUOUS
 62
    2
 10
1100.6233999999999
 20
688.36259999999993
 40
1.6999999999999997
  0
LINE
  8
_0-0_LAYER001
  6
CONTINUOUS
 62
    2
 10
1101.6494
 20
686.08279999999991
 11
1080.1052
 21
733.95869999999991
  0
CIRCLE
  8
_0-0_LAYER001
  6
CONTINUOUS
 62
    2
 10
1100.6233999999999
 20
688.36259999999993
 40
1.6999999999999997
  0
LINE
  8
_0-0_LAYER001
  6
CONTINUOUS
 62
    2
 10
1100.6233999999999
 20
688.36259999999993
 11
1109.5017
 21
692.35789999999997
  0
CIRCLE
  8
_0-0_LAYER001
  6
CONTINUOUS
 62
    2
 10
1109.5017
 20
692.35789999999997
 40
1.6999999999999997
  0
LINE
  8
_0-0_LAYER001
  6
CONTINUOUS
 62
    2
 10
1110.5275999999999
 20
690.07799999999997
 11
1088.9834000000001
 21
737.95389999999998
  0
LINE
  8
_0-0_LAYER001
  6
CONTINUOUS
 62
    2
 10
1119.1219000000001
 20
647.25500000000011
 11
1097.5777
 21
695.13090000000011
  0
CIRCLE
  8
_0-0_LAYER001
  6
CONTINUOUS
 62
    2
 10
1118.096
 20
649.5347999999999
 40
1.6999999999999997
  0
LINE
  8
_0-0_LAYER001
  6
CONTINUOUS
 62
    2
 10
1118.096
 20
649.5347999999999
 11
1332.3948
 21
745.96949999999993
  0
CIRCLE
  8
_0-0_LAYER001
  6
CONTINUOUS
 62
    2
 10
1332.3948
 20
745.96949999999993
 40
1.6999999999999997
  0
LINE
  8
_0-0_LAYER001
  6
CONTINUOUS
 62
    2
 10
1333.4206999999997
 20
743.6896999999999
 11
1311.8766000000001
 21
791.5655999999999
  0
CIRCLE
  8
_0-0_LAYER001
  6
CONTINUOUS
 62
    2
 10
1332.3948
 20
745.96949999999993
 40
1.6999999999999997
  0
LINE
  8
_0-0_LAYER001
  6
CONTINUOUS
 62
    2
 10
1332.3948
 20
745.96949999999993
 11
1547.6082000000001
 21
842.81570000000011
  0
CIRCLE
  8
_0-0_LAYER001
  6
CONTINUOUS
 62
    2
 10
1547.6082000000001
 20
842.81570000000011
 40
1.6999999999999997
  0
LINE
  8
_0-0_LAYER001
  6
CONTINUOUS
 62
    2
 10
1548.6341000000002
 20
840.53590000000008
 11
1527.0900000000001
 21
888.41180000000008
  0
CIRCLE
  8
_0-0_LAYER001
  6
CONTINUOUS
 62
    2
 10
1547.6082000000001
 20
842.81570000000011
 40
1.6999999999999997
  0
LINE
  8
_0-0_LAYER001
  6
CONTINUOUS
 62
    2
 10
1547.6082000000001
 20
842.81570000000011
 11
1762.8216000000002
 21
939.66200000000003
  0
CIRCLE
  8
_0-0_LAYER001
  6
CONTINUOUS
 62
    2
 10
1762.8216000000002
 20
939.66200000000003
 40
1.6999999999999997
  0
LINE
  8
_0-0_LAYER001
  6
CONTINUOUS
 62
    2
 10
1763.8474999999999
 20
937.38220000000001
 11
1742.3033999999998
 21
985.25800000000004
  0
CIRCLE
  8
_0-0_LAYER001
  6
CONTINUOUS
 62
    2
 10
1762.8216000000002
 20
939.66200000000003
 40
1.6999999999999997
  0
LINE
  8
_0-0_LAYER001
  6
CONTINUOUS
 62
    2
 10
1762.8216000000002
 20
939.66200000000003
 11
1978.0349999999999
 21
1036.5082
  0
CIRCLE
  8
_0-0_LAYER001
  6
CONTINUOUS
 62
    2
 10
1978.0349999999999
 20
1036.5082
 40
1.6999999999999997
  0
LINE
  8
_0-0_LAYER001
  6
CONTINUOUS
 62
    2
 10
1979.0610000000001
 20
1034.2284
 11
1957.5167999999999
 21
1082.1042
  0
LINE
  8
_0-1_LAYER003
  6
CONTINUOUS
 62
    2
 10
1163.2955999999999
 20
865.25299999999993
 11
2056.7698999999998
 21
1267.3173999999999
  0
LINE
  8
_0-2_LAYER004
  6
DASHED3
 62
    2
 10
1165.3501000000001
 20
868.45389999999998
 11
2055.9184
 21
1269.2094999999999
  0
LINE
  8
_0-1_LAYER003
  6
CONTINUOUS
 62
    2
 10
1159.6016
 20
873.46100000000001
 11
1163.2955999999999
 21
865.25299999999993
  0
LINE
  8
_0-1_LAYER003
  6
CONTINUOUS
 62
    3
 10
1038.8255999999999
 20
825.69100000000003
 11
1157.1396
 21
878.93200000000002
  0
LINE
  8
_0-1_LAYER003
  6
CONTINUOUS
 62
    3
 10
1030.3770999999999
 20
844.91660000000002
 11
1038.8255999999999
 21
825.69100000000003
  0
LINE
  8
_0-1_LAYER003
  6
CONTINUOUS
 62
    3
 10
1163.2955999999999
 20
865.25299999999993
 11
1151.4386
 21
859.91799999999989
  0
LINE
  8
_0-1_LAYER003
  6
CONTINUOUS
 62
    3
 10
1151.4386
 20
859.91799999999989
 11
1157.5945999999999
 21
846.23900000000003
  0
LINE
  8
_0-1_LAYER003
  6
CONTINUOUS
 62
    3
 10
1157.1396
 20
878.93200000000002
 11
1163.2955999999999
 21
865.25299999999993
  0
LINE
  8
_0-1_LAYER003
  6
CONTINUOUS
 62
    3
 10
1063.4485999999999
 20
836.77099999999996
 11
1075.5175999999999
 21
809.30500000000006
  0
LINE
  8
_0-1_LAYER003
  6
CONTINUOUS
 62
    3
 10
1129.027
 20
881.42110000000002
 11
1134.5816
 21
868.78099999999995
  0
LINE
  8
_0-1_LAYER003
  6
CONTINUOUS
 62
    2
 10
1084.1539
 20
747.39630000000011
 11
2087.5475000000001
 21
1198.9226000000001
  0
LINE
  8
_0-1_LAYER003
  6
CONTINUOUS
 62
    2
 10
1060.0148999999999
 20
802.3282999999999
 11
2062.9254000000001
 21
1253.6384
  0
LINE
  8
_0-1_LAYER003
  6
CONTINUOUS
 62
    2
 10
1122.0696
 20
863.15100000000007
 11
1132.4806000000001
 21
873.5619999999999
  0
LINE
  8
_0-1_LAYER003
  6
CONTINUOUS
 62
    2
 10
1101.4985999999999
 20
853.89400000000001
 11
1129.0265999999999
 21
881.42100000000005
  0
LINE
  8
_0-1_LAYER003
  6
CONTINUOUS
 62
    2
 10
1080.9286
 20
844.63699999999994
 11
1111.0667000000001
 21
874.77510000000007
  0
LINE
  8
_0-1_LAYER003
  6
CONTINUOUS
 62
    2
 10
1060.3586
 20
835.38100000000009
 11
1093.1068
 21
868.12920000000008
  0
LINE
  8
_0-1_LAYER003
  6
CONTINUOUS
 62
    2
 10
1039.7876000000001
 20
826.12400000000002
 11
1075.1479999999999
 21
861.4837
  0
LINE
  8
_0-1_LAYER003
  6
CONTINUOUS
 62
    2
 10
1035.5336
 20
833.18299999999999
 11
1057.1885
 21
854.83789999999999
  0
LINE
  8
_0-1_LAYER003
  6
CONTINUOUS
 62
    2
 10
1032.0796
 20
841.04299999999989
 11
1039.2285999999999
 21
848.19200000000001
  0
LINE
  8
_0-1_LAYER003
  6
CONTINUOUS
 62
    2
 10
1074.4315999999999
 20
811.77800000000002
 11
1076.4736
 21
809.7349999999999
  0
LINE
  8
_0-1_LAYER003
  6
CONTINUOUS
 62
    2
 10
1065.5626
 20
831.96000000000004
 11
1084.2765999999999
 21
813.24600000000009
  0
LINE
  8
_0-1_LAYER003
  6
CONTINUOUS
 62
    2
 10
1069.3915999999999
 20
839.44499999999994
 11
1092.0796
 21
816.75700000000006
  0
LINE
  8
_0-1_LAYER003
  6
CONTINUOUS
 62
    2
 10
1077.1936000000001
 20
842.95700000000011
 11
1099.8815999999999
 21
820.26900000000001
  0
LINE
  8
_0-1_LAYER003
  6
CONTINUOUS
 62
    2
 10
1084.9965999999999
 20
846.46800000000007
 11
1107.6846
 21
823.77999999999997
  0
LINE
  8
_0-1_LAYER003
  6
CONTINUOUS
 62
    2
 10
1092.7986000000001
 20
849.97900000000004
 11
1115.4866
 21
827.29099999999994
  0
LINE
  8
_0-1_LAYER003
  6
CONTINUOUS
 62
    2
 10
1100.6016
 20
853.49000000000001
 11
1123.2896000000001
 21
830.80199999999991
  0
LINE
  8
_0-1_LAYER003
  6
CONTINUOUS
 62
    2
 10
1108.4036000000001
 20
857.00099999999998
 11
1131.0916
 21
834.3130000000001
  0
LINE
  8
_0-1_LAYER003
  6
CONTINUOUS
 62
    2
 10
1116.2066
 20
860.51199999999994
 11
1138.8946000000001
 21
837.82400000000007
  0
LINE
  8
_0-1_LAYER003
  6
CONTINUOUS
 62
    2
 10
1124.0085999999999
 20
864.02299999999991
 11
1146.6966
 21
841.33500000000004
  0
LINE
  8
_0-1_LAYER003
  6
CONTINUOUS
 62
    2
 10
1131.8116
 20
867.53500000000008
 11
1154.4996000000001
 21
844.84699999999998
  0
LINE
  8
_0-1_LAYER003
  6
CONTINUOUS
 62
    2
 10
1139.6135999999999
 20
871.04600000000005
 11
1152.2426
 21
858.41699999999992
  0
LINE
  8
_0-1_LAYER003
  6
CONTINUOUS
 62
    2
 10
1147.4166
 20
874.55700000000002
 11
1158.7606000000001
 21
863.21299999999997
  0
LINE
  8
_0-1_LAYER003
  6
CONTINUOUS
 62
    2
 10
1155.2185999999999
 20
878.06799999999998
 11
1159.4186
 21
873.86899999999991
  0
LINE
  8
_0-0_LAYER001
  6
CONTINUOUS
 62
    3
 10
1157.5944999999999
 20
846.23919999999998
 11
1075.5175999999999
 21
809.30500000000006
  0
LINE
  8
_0-0_LAYER001
  6
DASHED3
 62
    2
 10
1157.1222
 20
880.02070000000003
 11
1077.3139000000001
 21
844.10719999999992
  0
LINE
  8
_0-0_LAYER001
  6
DASHED3
 62
    2
 10
1157.1222
 20
880.02070000000003
 11
1165.3501000000001
 21
868.45389999999998
  0
LINE
  8
_0-0_LAYER001
  6
CONTINUOUS
 62
    2
 10
1051.2773999999999
 20
846.79909999999995
 11
1053.2184999999999
 21
839.55459999999994
  0
LINE
  8
_0-0_LAYER001
  6
CONTINUOUS
 62
    2
 10
1053.2184999999999
 20
839.55459999999994
 11
1047.9151999999999
 21
844.85789999999997
  0
LINE
  8
_0-0_LAYER001
  6
CONTINUOUS
 62
    2
 10
1053.2184999999999
 20
839.55459999999994
 11
988.27320000000009
 21
952.04310000000009
  0
LINE
  8
_0-0_LAYER001
  6
CONTINUOUS
 62
    2
 10
988.27320000000009
 20
952.04310000000009
 11
934.79240000000004
 21
952.04310000000009
  0
LINE
  8
_0-0_LAYER001
  6
CONTINUOUS
 62
    2
 10
1102.3641
 20
823.7971
 11
1100.423
 21
831.04160000000002
  0
LINE
  8
_0-0_LAYER001
  6
CONTINUOUS
 62
    2
 10
1100.423
 20
831.04160000000002
 11
1105.7263
 21
825.73829999999998
  0
LINE
  8
_0-0_LAYER001
  6
CONTINUOUS
 62
    2
 10
1100.423
 20
831.04160000000002
 11
1223.5715
 21
617.74199999999996
  0
LINE
  8
_0-0_LAYER001
  6
CONTINUOUS
 62
    2
 10
1223.5715
 20
617.74199999999996
 11
1307.8809000000001
 21
617.74199999999996
  0
LINE
  8
_0-0_LAYER001
  6
CONTINUOUS
 62
    2
 10
1811.5122000000001
 20
844.8608999999999
 11
2050.0174999999999
 21
844.8608999999999
  0
LINE
  8
_0-0_LAYER001
  6
CONTINUOUS
 62
    2
 10
1828.8878
 20
814.76559999999995
 11
2000.5590999999999
 21
814.76559999999995
  0
LINE
  8
_0-0_LAYER001
  6
CONTINUOUS
 62
    2
 10
1666.8321999999998
 20
1091.5717999999999
 11
1664.8910000000001
 21
1098.8163
  0
LINE
  8
_0-0_LAYER001
  6
CONTINUOUS
 62
    2
 10
1664.8910000000001
 20
1098.8163
 11
1670.1943999999999
 21
1093.5129999999999
  0
LINE
  8
_0-0_LAYER001
  6
CONTINUOUS
 62
    2
 10
1664.8910000000001
 20
1098.8163
 11
1846.1311999999998
 21
784.89899999999989
  0
LINE
  8
_0-0_LAYER001
  6
CONTINUOUS
 62
    2
 10
1794.2026999999998
 20
874.8418999999999
 11
1999.0254
 21
874.8418999999999
  0
LINE
  8
_0-0_LAYER001
  6
CONTINUOUS
 62
    2
 10
1846.1311999999998
 20
784.89899999999989
 11
1940.2856000000002
 21
784.89899999999989
  0
LINE
  8
_0-1_LAYER003
  6
CONTINUOUS
 62
    7
 10
1794.2026999999998
 20
874.8418999999999
 11
1999.0254
 21
874.8418999999999
  0
LINE
  8
_0-1_LAYER003
  6
CONTINUOUS
 62
    7
 10
1811.5122000000001
 20
844.8608999999999
 11
2050.0174999999999
 21
844.8608999999999
  0
LINE
  8
_0-1_LAYER003
  6
CONTINUOUS
 62
    7
 10
1828.8878
 20
814.76559999999995
 11
2000.5590999999999
 21
814.76559999999995
  0
LINE
  8
_0-1_LAYER003
  6
CONTINUOUS
 62
    7
 10
1846.1311999999998
 20
784.89899999999989
 11
1940.2856000000002
 21
784.89899999999989
  0
LINE
  8
_0-1_LAYER003
  6
CONTINUOUS
 62
    7
 10
1630.5500999999999
 20
1267.8495
 11
1671.0500999999999
 21
1267.8495
  0
LINE
  8
_0-1_LAYER003
  6
CONTINUOUS
 62
    7
 10
944.68990000000008
 20
1007.0972999999999
 11
1009.1899000000001
 21
1007.0972999999999
  0
LINE
  8
_0-1_LAYER003
  6
CONTINUOUS
 62
    7
 10
934.79240000000004
 20
952.04310000000009
 11
988.27320000000009
 21
952.04310000000009
  0
LINE
  8
_0-1_LAYER003
  6
CONTINUOUS
 62
    7
 10
1223.5715
 20
617.74199999999996
 11
1307.8809000000001
 21
617.74199999999996
  0
LINE
  8
_0-1_LAYER003
  6
CONTINUOUS
 62
    7
 10
894.39121028592604
 20
1046.3551374235965
 11
912.125
 21
997.79179999999997
  0
LINE
  8
_0-1_LAYER003
  6
CONTINUOUS
 62
    7
 10
894.97440000000006
 20
1044.7583
 11
1115.7171000000001
 21
1125.3661999999999
  0
LINE
  8
_0-1_LAYER003
  6
CONTINUOUS
 62
    7
 10
1132.8678
 20
1078.3996999999999
 11
1101.413542014843
 21
1164.5362490111302
  0
LINE
  8
_0-1_LAYER003
  6
CONTINUOUS
 62
    7
 10
1101.9966999999999
 20
1162.9394
 11
1322.7393999999999
 21
1243.5473
  0
LINE
  8
_0-1_LAYER003
  6
CONTINUOUS
 62
    7
 10
1339.8900000000001
 20
1196.5808
 11
1308.4357966842153
 21
1282.7174689749384
  0
LINE
  8
_0-1_LAYER003
  6
CONTINUOUS
 62
    7
 10
1309.0189
 20
1281.1205999999997
 11
1529.7617
 21
1361.7284999999997
  0
LINE
  8
_0-1_LAYER003
  6
CONTINUOUS
 62
    7
 10
1546.9123
 20
1314.7619
 11
1515.4580971751693
 21
1400.8985691542123
  0
LINE
  8
_0-1_LAYER003
  6
CONTINUOUS
 62
    7
 10
1516.0412000000001
 20
1399.3017
 11
1736.7840000000001
 21
1479.9096
  0
LINE
  8
_0-1_LAYER003
  6
CONTINUOUS
 62
    7
 10
1753.9346
 20
1432.943
 11
1736.2008097949588
 21
1481.5064372442873
  0
LINE
  8
_0-1_LAYER003
  6
CONTINUOUS
 62
    7
 10
1671.0500999999999
 20
1267.8495
 11
1730.6424000000002
 21
1164.6327000000001
  0
LINE
  8
_0-1_LAYER003
  6
CONTINUOUS
 62
    7
 10
1730.6424000000002
 20
1164.6327000000001
 11
1728.7012
 21
1171.8771999999999
  0
LINE
  8
_0-1_LAYER003
  6
CONTINUOUS
 62
    7
 10
1730.6424000000002
 20
1164.6327000000001
 11
1725.3391000000001
 21
1169.9359999999999
  0
LINE
  8
_0-1_LAYER003
  6
CONTINUOUS
 62
    7
 10
1869.4663
 20
1204.6641
 11
1896.8233
 21
1216.9765
  0
LINE
  8
_0-1_LAYER003
  6
CONTINUOUS
 62
    7
 10
1896.8233
 20
1216.9765
 11
1902.9794999999999
 21
1203.298
  0
LINE
  8
_0-1_LAYER003
  6
CONTINUOUS
 62
    7
 10
1902.9794999999999
 20
1203.298
 11
1875.6224999999999
 21
1190.9856
  0
LINE
  8
_0-1_LAYER003
  6
CONTINUOUS
 62
    7
 10
1875.6224999999999
 20
1190.9856
 11
1869.4663
 21
1204.6641
  0
LINE
  8
_0-1_LAYER003
  6
CONTINUOUS
 62
    7
 10
1875.6224999999999
 20
1190.9856
 11
1896.8233
 21
1216.9765
  0
LINE
  8
_0-1_LAYER003
  6
CONTINUOUS
 62
    7
 10
2055.9184
 20
1269.2094999999999
 11
1165.3501000000001
 21
868.45389999999998
  0
LINE
  8
_0-1_LAYER003
  6
CONTINUOUS
 62
    7
 10
1165.3501000000001
 20
868.45389999999998
 11
1157.1222
 21
880.02070000000003
  0
LINE
  8
_0-1_LAYER003
  6
CONTINUOUS
 62
    7
 10
1157.1222
 20
880.02070000000003
 11
1077.3139000000001
 21
844.10719999999992
  0
LINE
  8
_0-1_LAYER003
  6
CONTINUOUS
 62
    7
 10
1047.9151999999999
 20
844.85789999999997
 11
1053.2184999999999
 21
839.55459999999994
  0
LINE
  8
_0-1_LAYER003
  6
CONTINUOUS
 62
    7
 10
1053.2184999999999
 20
839.55459999999994
 11
1051.2773999999999
 21
846.79909999999995
  0
LINE
  8
_0-1_LAYER003
  6
CONTINUOUS
 62
    7
 10
1076.6735000000001
 20
886.32999999999993
 11
1081.9767999999999
 21
881.02669999999989
  0
LINE
  8
_0-1_LAYER003
  6
CONTINUOUS
 62
    7
 10
1081.9767999999999
 20
881.02669999999989
 11
1080.0355999999999
 21
888.27119999999991
  0
LINE
  8
_0-1_LAYER003
  6
CONTINUOUS
 62
    7
 10
1081.9767999999999
 20
881.02669999999989
 11
1009.1899000000001
 21
1007.0972999999999
  0
LINE
  8
_0-1_LAYER003
  6
CONTINUOUS
 62
    7
 10
988.27320000000009
 20
952.04310000000009
 11
1053.2184927897761
 21
839.55462690972513
  0
LINE
  8
_0-1_LAYER003
  6
CONTINUOUS
 62
    7
 10
1100.423
 20
831.04160000000002
 11
1102.3641
 21
823.7971
  0
LINE
  8
_0-1_LAYER003
  6
CONTINUOUS
 62
    7
 10
1100.423
 20
831.04160000000002
 11
1105.7263
 21
825.73829999999998
  0
LINE
  8
_0-1_LAYER003
  6
CONTINUOUS
 62
    7
 10
1100.423
 20
831.04160000000002
 11
1223.5715
 21
617.74199999999996
  0
LINE
  8
_0-1_LAYER003
  6
CONTINUOUS
 62
    7
 10
883.18192944241844
 20
782.29348893479505
 11
930.3282999999999
 21
803.50939999999991
  0
LINE
  8
_0-1_LAYER003
  6
CONTINUOUS
 62
    7
 10
884.73219999999992
 20
782.99109999999996
 11
931.63509999999997
 21
678.7627
  0
LINE
  8
_0-1_LAYER003
  6
CONTINUOUS
 62
    7
 10
929.35529999999994
 20
677.7367999999999
 11
977.23109999999997
 21
699.28099999999995
  0
LINE
  8
_0-1_LAYER003
  6
CONTINUOUS
 62
    7
 10
905.46312918581577
 20
732.77988950503288
 11
952.60940000000005
 21
753.99579999999992
  0
LINE
  8
_0-1_LAYER003
  6
CONTINUOUS
 62
    7
 10
893.15222975604388
 20
760.13748823783999
 11
940.2985000000001
 21
781.35329999999999
  0
LINE
  8
_0-1_LAYER003
  6
CONTINUOUS
 62
    7
 10
1075.5175999999999
 20
809.30500000000006
 11
1060.0148999999999
 21
802.3282999999999
  0
LINE
  8
_0-1_LAYER003
  6
CONTINUOUS
 62
    7
 10
1060.0148999999999
 20
802.3282999999999
 11
1084.1539
 21
747.39630000000011
  0
LINE
  8
_0-1_LAYER003
  6
CONTINUOUS
 62
    7
 10
1084.1539
 20
747.39630000000011
 11
2087.5475000000001
 21
1198.9226000000001
  0
LINE
  8
_0-1_LAYER003
  6
CONTINUOUS
 62
    7
 10
2062.9254000000001
 20
1253.6384
 11
1157.5944999999999
 21
846.23919999999998
  0
LINE
  8
_0-1_LAYER003
  6
CONTINUOUS
 62
    7
 10
2062.9254000000001
 20
1253.6384
 11
1157.5944999999999
 21
846.23919999999998
  0
LINE
  8
_0-1_LAYER003
  6
CONTINUOUS
 62
    7
 10
1024.3963000000001
 20
708.88969999999995
 11
1044.9146000000001
 21
663.29359999999997
  0
LINE
  8
_0-1_LAYER003
  6
CONTINUOUS
 62
    7
 10
1044.9146000000001
 20
663.29359999999997
 11
1109.5017
 21
692.35789999999997
  0
LINE
  8
_0-1_LAYER003
  6
CONTINUOUS
 62
    7
 10
1110.1992736428026
 20
690.80761260313864
 11
1088.9834000000001
 21
737.95389999999998
  0
LINE
  8
_0-1_LAYER003
  6
CONTINUOUS
 62
    7
 10
1080.1052
 20
733.95869999999991
 11
1119.1219000000001
 21
647.25500000000011
  0
LINE
  8
_0-1_LAYER003
  6
CONTINUOUS
 62
    7
 10
1118.096
 20
649.5347999999999
 11
1978.0349999999999
 21
1036.5082
  0
LINE
  8
_0-1_LAYER003
  6
CONTINUOUS
 62
    7
 10
1978.7326936542167
 20
1034.9579666095501
 11
1957.5167999999999
 21
1082.1042
  0
LINE
  8
_0-1_LAYER003
  6
CONTINUOUS
 62
    7
 10
1762.8216080689244
 20
939.66196090501671
 11
1742.3033999999998
 21
985.25800000000004
  0
LINE
  8
_0-1_LAYER003
  6
CONTINUOUS
 62
    7
 10
1846.1311999999998
 20
784.89899999999989
 11
1664.8910000000001
 21
1098.8163
  0
LINE
  8
_0-1_LAYER003
  6
CONTINUOUS
 62
    7
 10
1664.8910000000001
 20
1098.8163
 11
1666.2226860329174
 21
1093.8464877882395
  0
LINE
  8
_0-1_LAYER003
  6
CONTINUOUS
 62
    7
 10
1664.8910000000001
 20
1098.8163
 11
1668.7317887780541
 21
1094.9755836431998
  0
LINE
  8
_0-1_LAYER003
  6
CONTINUOUS
 62
    7
 10
1660.4141
 20
1094.1282000000001
 11
1654.2579000000001
 21
1107.8067000000001
  0
LINE
  8
_0-1_LAYER003
  6
CONTINUOUS
 62
    7
 10
1654.2579000000001
 20
1107.8067000000001
 11
1681.6149
 21
1120.1190999999999
  0
LINE
  8
_0-1_LAYER003
  6
CONTINUOUS
 62
    7
 10
1681.6149
 20
1120.1190999999999
 11
1687.7710999999999
 21
1106.4405999999999
  0
LINE
  8
_0-1_LAYER003
  6
CONTINUOUS
 62
    7
 10
1687.7710999999999
 20
1106.4405999999999
 11
1660.4141
 21
1094.1282000000001
  0
LINE
  8
_0-1_LAYER003
  6
CONTINUOUS
 62
    7
 10
1660.4141
 20
1094.1282000000001
 11
1681.6149
 21
1120.1190999999999
  0
LINE
  8
_0-1_LAYER003
  6
CONTINUOUS
 62
    7
 10
2056.7698999999998
 20
1267.3173999999999
 11
1163.2955999999999
 21
865.25299999999993
  0
LINE
  8
_0-1_LAYER003
  6
CONTINUOUS
 62
    7
 10
1229.9973
 20
900.41350000000011
 11
1223.8411000000001
 21
914.0920000000001
  0
LINE
  8
_0-1_LAYER003
  6
CONTINUOUS
 62
    7
 10
1223.8411000000001
 20
914.0920000000001
 11
1251.1981000000001
 21
926.40429999999992
  0
LINE
  8
_0-1_LAYER003
  6
CONTINUOUS
 62
    7
 10
1251.1981000000001
 20
926.40429999999992
 11
1257.3543
 21
912.72579999999994
  0
LINE
  8
_0-1_LAYER003
  6
CONTINUOUS
 62
    7
 10
1257.3543
 20
912.72579999999994
 11
1229.9973
 21
900.41350000000011
  0
LINE
  8
_0-1_LAYER003
  6
CONTINUOUS
 62
    7
 10
1229.9973
 20
900.41350000000011
 11
1251.1981000000001
 21
926.40429999999992
  0
LINE
  8
_0-1_LAYER003
  6
CONTINUOUS
 62
    7
 10
1445.2057
 20
997.27089999999998
 11
1439.0495000000001
 21
1010.9493
  0
LINE
  8
_0-1_LAYER003
  6
CONTINUOUS
 62
    7
 10
1439.0495000000001
 20
1010.9493
 11
1466.4065000000001
 21
1023.2617
  0
LINE
  8
_0-1_LAYER003
  6
CONTINUOUS
 62
    7
 10
1466.4065000000001
 20
1023.2617
 11
1472.5626999999999
 21
1009.5832
  0
LINE
  8
_0-1_LAYER003
  6
CONTINUOUS
 62
    7
 10
1472.5626999999999
 20
1009.5832
 11
1445.2057
 21
997.27089999999998
  0
LINE
  8
_0-1_LAYER003
  6
CONTINUOUS
 62
    7
 10
1445.2057
 20
997.27089999999998
 11
1466.4065000000001
 21
1023.2617
  0
LINE
  8
_0-1_LAYER003
  6
CONTINUOUS
 62
    7
 10
1548.305812332396
 20
841.26543001264645
 11
1527.0900000000001
 21
888.41180000000008
  0
LINE
  8
_0-1_LAYER003
  6
CONTINUOUS
 62
    7
 10
1527.0900000000001
 20
888.41180000000008
 11
1547.6082000000001
 21
842.81570000000011
  0
LINE
  8
_0-1_LAYER003
  6
CONTINUOUS
 62
    7
 10
1333.0924123323957
 20
744.41923001264627
 11
1311.8766000000001
 21
791.5655999999999
  0
TEXT
  8
_0-0_LAYER001
 62
    7
 10
1647.0501000000004
 20
1270.3495000000005
 40
20
 41
1
 50
0
  1
　
  0
TEXT
  8
_0-0_LAYER001
 62
    7
 10
1223.5715000000005
 20
620.24199999999951
 40
20
 41
1
 50
0
  1
　広小舞　
  0
TEXT
  8
_0-0_LAYER001
 62
    7
 10
1794.2026999999994
 20
877.3418999999999
 40
20
 41
1
 50
0
  1
　瓦桟：１５ｘ３０以上
  0
TEXT
  8
_0-0_LAYER001
 62
    7
 10
1846.1311999999996
 20
787.39899999999943
 40
20
 41
1
 50
0
  1
　化粧垂木
  0
TEXT
  8
_0-0_LAYER001
 62
    7
 10
1628.0692337537894
 20
1274.8387370897426
 40
20
 41
1
 50
0
  1
桟　瓦
  0
TEXT
  8
_0-0_LAYER001
 62
    7
 10
957.77051301116921
 20
955.8104851919893
 40
20
 41
1
 50
0
  1
淀　
  0
TEXT
  8
_0-0_LAYER001
 62
    7
 10
945.89180150433731
 20
1010.1131663660749
 40
20
 41
1
 50
0
  1
万十軒瓦
  0
TEXT
  8
_0-0_LAYER001
 62
    7
 10
990.40995003240732
 20
1089.2409602547825
 40
20
 41
1
 50
20.060507000000005
  1
235
  0
TEXT
  8
_0-0_LAYER001
 62
    7
 10
1199.3316256436424
 20
1212.3044130120845
 40
20
 41
1
 50
20.060506999999973
  1
235
  0
TEXT
  8
_0-0_LAYER001
 62
    7
 10
1405.3913604930785
 20
1328.2130138648927
 40
20
 41
1
 50
20.060506999999969
  1
235
  0
TEXT
  8
_0-0_LAYER001
 62
    7
 10
1611.4510953425154
 20
1451.2764666221947
 40
20
 41
1
 50
20.060507000000037
  1
235
  0
TEXT
  8
_0-0_LAYER001
 62
    7
 10
891.67299375038635
 20
698.58604626939257
 40
20
 41
1
 50
-65.772212999999965
  1
60
  0
TEXT
  8
_0-0_LAYER001
 62
    7
 10
864.48455651330733
 20
765.84165417163854
 40
20
 41
1
 50
-65.772199999999927
  1
21
  0
TEXT
  8
_0-0_LAYER001
 62
    7
 10
873.07037879870131
 20
735.79127617276254
 40
20
 41
1
 50
-65.772212999999994
  1
30
  0
TEXT
  8
_0-0_LAYER001
 62
    7
 10
1079.1301136481375
 20
649.9330533188305
 40
20
 41
1
 50
24.227800000000073
  1
60
  0
TEXT
  8
_0-0_LAYER001
 62
    7
 10
1113.4734027897105
 20
665.67372750871857
 40
20
 41
1
 50
24.227800000000073
  1
10
  0
TEXT
  8
_0-0_LAYER001
 62
    7
 10
1210.7793886908323
 20
702.87895741208854
 40
20
 41
1
 50
24.227799999999952
  1
229
  0
TEXT
  8
_0-0_LAYER001
 62
    7
 10
1423.9939754447637
 20
803.04688407500953
 40
20
 41
1
 50
24.227787000000021
  1
236
  0
TEXT
  8
_0-0_LAYER001
 62
    7
 10
1637.2085621986944
 20
901.78384035703084
 40
20
 41
1
 50
24.227786999999996
  1
236
  0
TEXT
  8
_0-0_LAYER001
 62
    7
 10
1853.2850897144235
 20
994.79691511545707
 40
20
 41
1
 50
24.227786999999982
  1
236
  0
TEXT
  8
_0-0_LAYER001
 62
    7
 10
1830.0803882609325
 20
818.10111735154248
 40
20
 41
1
 50
0
  1
　野地板：杉ｔ＝１２
  0
TEXT
  8
_0-0_LAYER001
 62
    7
 10
1811.5122000000006
 20
847.36089999999945
 40
20
 41
1
 50
0
  1
　下葺材：ルーフィング
  0
ENDSEC
  0
EOF
