  0
SECTION
  2
HEADER
  9
$ACADVER
  1
AC1009
  9
$INSBASE
 10
0
 20
0
 30
0
  9
$EXTMIN
 10
0
 20
0
  9
$EXTMAX
 10
2970
 20
2100
  9
$LIMMIN
 10
0
 20
0
  9
$LIMMAX
 10
2970
 20
2100
  9
$LTSCALE
 40
10
  0
ENDSEC
  0
SECTION
  2
TABLES
  0
TABLE
  2
LTYPE
 70
     9
  0
LTYPE
  2
CONTINUOUS
 70
    64
  3
実線
 72
    65
 73
     0
 40
0.0
  0
LTYPE
  2
DASHED1
 70
    64
  3
--  --  --  --  --  --  --  --  
 72
    65
 73
     2
 40
2.5
 49
1.25
 49
-1.25
  0
LTYPE
  2
DASHED2
 70
    64
  3
----    ----    ----    ----    
 72
    65
 73
     2
 40
5.0
 49
2.5
 49
-2.5
  0
LTYPE
  2
DASHED3
 70
    64
  3
------  ------  ------  ------  
 72
    65
 73
     2
 40
5.0
 49
3.75
 49
-1.25
  0
LTYPE
  2
CENTER1
 70
    64
  3
----- - ----- - ----- - ----- - 
 72
    65
 73
     4
 40
10.0
 49
6.25
 49
-1.25
 49
1.25
 49
-1.25
  0
LTYPE
  2
CENTER2
 70
    64
  3
----------  --  ----------  --  
 72
    65
 73
     4
 40
20.0
 49
12.5
 49
-2.5
 49
2.5
 49
-2.5
  0
LTYPE
  2
PHANTOM1
 70
    64
  3
--- - - --- - - --- - - --- - - 
 72
    65
 73
     6
 40
10.0
 49
3.25
 49
-1.25
 49
1.25
 49
-1.25
 49
1.25
 49
-1.25
  0
LTYPE
  2
PHANTOM2
 70
    64
  3
--------  -  -  --------  -  -  
 72
    65
 73
     6
 40
20.0
 49
10.0
 49
-2.5
 49
1.25
 49
-2.5
 49
1.25
 49
-2.5
  0
LTYPE
  2
DOT
 70
    64
  3
-   -   -   -   -   -   -   -   
 72
    65
 73
     2
 40
2.5
 49
0.625
 49
-1.875
  0
LTYPE
  2
DUMMY
 70
    64
  3
ダミー
 72
    65
 73
     0
 40
0.0
  0
LTYPE
  2
RAND1
 70
    64
  3
ランダム線1
 72
    65
 73
     4
 40
10.0
 49
1.0
 49
-2.0
 49
3.0
 49
-4.0
  0
LTYPE
  2
RAND2
 70
    64
  3
ランダム線2
 72
    65
 73
     4
 40
14.0
 49
2.0
 49
-3.0
 49
4.0
 49
-5.0
  0
LTYPE
  2
RAND3
 70
    64
  3
ランダム線3
 72
    65
 73
     4
 40
18.0
 49
3.0
 49
-4.0
 49
5.0
 49
-6.0
  0
LTYPE
  2
RAND4
 70
    64
  3
ランダム線4
 72
    65
 73
     4
 40
22.0
 49
4.0
 49
-5.0
 49
6.0
 49
-7.0
  0
LTYPE
  2
RAND5
 70
    64
  3
ランダム線5
 72
    65
 73
     4
 40
26.0
 49
5.0
 49
-6.0
 49
7.0
 49
-8.0
  0
LTYPE
  2
LONG1
 70
    64
  3
----------  --  ----------  --  
 72
    65
 73
     4
 40
40.0
 49
32.5
 49
-2.5
 49
2.5
 49
-2.5
  0
LTYPE
  2
LONG2
 70
    64
  3
--------  -  -  --------  -  -  
 72
    65
 73
     6
 40
40.0
 49
30.0
 49
-2.5
 49
1.25
 49
-2.5
 49
1.25
 49
-2.5
  0
LTYPE
  2
LONG3
 70
    64
  3
+++++++++++++++..+++++++++++++++
 72
    65
 73
     2
 40
40.0
 49
37.5
 49
-2.5
  0
LTYPE
  2
LONG4
 70
    64
  3
+++++++++++++++..+++++++++++++++
 72
    65
 73
     2
 40
80.0
 49
75.0
 49
-5.0
  0
LTYPE
  2
LONG5
 70
    64
  3
----------  --  ----------  --  
 72
    65
 73
     4
 40
60.0
 49
37.5
 49
-7.5
 49
7.5
 49
-7.5
  0
LTYPE
  2
dashed
 70
   64
  3
-------   -------------   ------
 72
   65
 73
    2
 40
7.5
 49
6
 49
-1.5
  0
LTYPE
  2
dashed_spaced
 70
   64
  3
----        --------        ----
 72
   65
 73
    2
 40
12
 49
6
 49
-6
  0
LTYPE
  2
long_dashed_dotted
 70
   64
  3
------------- --- --------------
 72
   65
 73
    4
 40
15.25
 49
12
 49
-1.5
 49
0.25
 49
-1.5
  0
LTYPE
  2
long_dashed_double-dotted
 70
   64
  3
----------- --- --- ------------
 72
   65
 73
    6
 40
17
 49
12
 49
-1.5
 49
0.25
 49
-1.5
 49
0.25
 49
-1.5
  0
LTYPE
  2
long_dashed_triplicate-dotted
 70
   64
  3
--------- --- --- --- ----------
 72
   65
 73
    8
 40
18.75
 49
12
 49
-1.5
 49
0.25
 49
-1.5
 49
0.25
 49
-1.5
 49
0.25
 49
-1.5
  0
LTYPE
  2
dotted
 70
   64
  3
   -       -       -       -    
 72
   65
 73
    2
 40
1.75
 49
0.25
 49
-1.5
  0
LTYPE
  2
chain
 70
   64
  3
-------------- -- --------------
 72
   65
 73
    4
 40
18.5
 49
12
 49
-1.5
 49
3.5
 49
-1.5
  0
LTYPE
  2
chain_double_dash
 70
   64
  3
------------ -- -- -------------
 72
   65
 73
    6
 40
23.5
 49
12
 49
-1.5
 49
3.5
 49
-1.5
 49
3.5
 49
-1.5
  0
LTYPE
  2
dashed_dotted
 70
   64
  3
-----------     -     ----------
 72
   65
 73
    4
 40
9.25
 49
6
 49
-1.5
 49
0.25
 49
-1.5
  0
LTYPE
  2
double-dashed_dotted
 70
   64
  3
------   -----------   -   -----
 72
   65
 73
    6
 40
16.75
 49
6
 49
-1.5
 49
6
 49
-1.5
 49
0.25
 49
-1.5
  0
LTYPE
  2
dashed_double-dotted
 70
   64
  3
---------    -    -    ---------
 72
   65
 73
    6
 40
11
 49
6
 49
-1.5
 49
0.25
 49
-1.5
 49
0.25
 49
-1.5
  0
LTYPE
  2
double-dashed_double-dotted
 70
   64
  3
-----   ---------   -   -   ----
 72
   65
 73
    8
 40
18.5
 49
6
 49
-1.5
 49
6
 49
-1.5
 49
0.25
 49
-1.5
 49
0.25
 49
-1.5
  0
LTYPE
  2
dashed_triplicate-dotted
 70
   64
  3
-------    -    -    -    ------
 72
   65
 73
    8
 40
12.75
 49
6
 49
-1.5
 49
0.25
 49
-1.5
 49
0.25
 49
-1.5
 49
0.25
 49
-1.5
  0
LTYPE
  2
double-dashed_triplicate-dotted
 70
   64
  3
-----  ---------  -  -  -  -----
 72
   65
 73
   10
 40
20.25
 49
6
 49
-1.5
 49
6
 49
-1.5
 49
0.25
 49
-1.5
 49
0.25
 49
-1.5
 49
0.25
 49
-1.5
  0
LTYPE
  2
undefined
 70
   64
  3
--------------------------------
 72
   65
 73
    0
 40
0
  0
ENDTAB
  0
TABLE
  2
STYLE
  5
3
100
AcDbSymbolTable
 70
     1
  0
STYLE
  5
10
100
AcDbSymbolTableRecord
100
AcDbTextStyleTableRecord
  2
STANDARD
 70
     0
 40
0.0
 41
1.0
 50
0.0
 71
     0
 42
0.2
  3
txt
  4
bigfont.shx
  0
STYLE
  5
26
100
AcDbSymbolTableRecord
100
AcDbTextStyleTableRecord
  2
TATEGAKI
 70
    68
 40
0.0
 41
1.0
 50
0.0
 71
     0
 42
1.0
  3
txt
  4
bigfont.shx
  0
ENDTAB
  0
TABLE
  2
LAYER
 70
    3
  0
LAYER
  2
_0-0_LAYER001
 70
   64
 62
    7
  6
CONTINUOUS
  0
LAYER
  2
_0-1_LAYER004
 70
   64
 62
    7
  6
CONTINUOUS
  0
LAYER
  2
ADD_LINE
 70
   64
 62
    7
  6
CONTINUOUS
  0
ENDTAB
  0
ENDSEC
  0
SECTION
  2
BLOCKS
  0
ENDSEC
  0
SECTION
  2
ENTITIES
  0
LINE
  8
_0-0_LAYER001
  6
CONTINUOUS
 62
    2
 10
1124.7103999999999
 20
1041.221
 11
1184.7103999999999
 21
1041.221
  0
LINE
  8
_0-0_LAYER001
  6
CONTINUOUS
 62
    2
 10
1184.7103999999999
 20
1041.221
 11
1184.7103999999999
 21
981.221
  0
LINE
  8
_0-0_LAYER001
  6
CONTINUOUS
 62
    2
 10
1184.7103999999999
 20
981.221
 11
1124.7103999999999
 21
981.221
  0
LINE
  8
_0-0_LAYER001
  6
CONTINUOUS
 62
    2
 10
1124.7103999999999
 20
981.221
 11
1124.7103999999999
 21
1041.221
  0
LINE
  8
_0-0_LAYER001
  6
CONTINUOUS
 62
    2
 10
1124.7103999999999
 20
1041.221
 11
1184.7103999999999
 21
981.221
  0
LINE
  8
_0-0_LAYER001
  6
CONTINUOUS
 62
    3
 10
1099.7103999999999
 20
1041.221
 11
1099.7103999999999
 21
892.89210000000003
  0
LINE
  8
_0-0_LAYER001
  6
CONTINUOUS
 62
    3
 10
1124.7103999999999
 20
1041.221
 11
1124.7103999999999
 21
892.89210000000003
  0
LINE
  8
_0-0_LAYER001
  6
CONTINUOUS
 62
    3
 10
1171.7103999999999
 20
1041.221
 11
1081.7103999999999
 21
1041.221
  0
LINE
  8
_0-0_LAYER001
  6
CONTINUOUS
 62
    2
 10
1121.0871
 20
892.89210000000003
 11
1124.7103999999999
 21
896.5154
  0
LINE
  8
_0-0_LAYER001
  6
CONTINUOUS
 62
    2
 10
1106.9449999999999
 20
892.89210000000003
 11
1124.7103999999999
 21
910.65750000000003
  0
LINE
  8
_0-0_LAYER001
  6
CONTINUOUS
 62
    2
 10
1099.7103999999999
 20
899.79960000000005
 11
1124.7103999999999
 21
924.79960000000005
  0
LINE
  8
_0-0_LAYER001
  6
CONTINUOUS
 62
    2
 10
1099.7103999999999
 20
913.94180000000006
 11
1124.7103999999999
 21
938.94180000000006
  0
LINE
  8
_0-0_LAYER001
  6
CONTINUOUS
 62
    2
 10
1099.7103999999999
 20
928.08390000000009
 11
1124.7103999999999
 21
953.08390000000009
  0
LINE
  8
_0-0_LAYER001
  6
CONTINUOUS
 62
    2
 10
1099.7103999999999
 20
942.22600000000011
 11
1124.7103999999999
 21
967.22600000000011
  0
LINE
  8
_0-0_LAYER001
  6
CONTINUOUS
 62
    2
 10
1099.7103999999999
 20
956.36819999999989
 11
1124.7103999999999
 21
981.36819999999989
  0
LINE
  8
_0-0_LAYER001
  6
CONTINUOUS
 62
    2
 10
1099.7103999999999
 20
970.51029999999992
 11
1124.7103999999999
 21
995.51029999999992
  0
LINE
  8
_0-0_LAYER001
  6
CONTINUOUS
 62
    2
 10
1099.7103999999999
 20
984.65239999999994
 11
1124.7103999999999
 21
1009.6523999999999
  0
LINE
  8
_0-0_LAYER001
  6
CONTINUOUS
 62
    2
 10
1099.7103999999999
 20
998.79459999999995
 11
1124.7103999999999
 21
1023.7945999999999
  0
LINE
  8
_0-0_LAYER001
  6
CONTINUOUS
 62
    2
 10
1099.7103999999999
 20
1012.9367
 11
1124.7103999999999
 21
1037.9367
  0
LINE
  8
_0-0_LAYER001
  6
CONTINUOUS
 62
    2
 10
1099.7103999999999
 20
1027.0789
 11
1113.8525
 21
1041.221
  0
LINE
  8
_0-0_LAYER001
  6
CONTINUOUS
 62
    3
 10
1081.7103999999999
 20
1083.221
 11
1081.7103999999999
 21
1041.221
  0
LINE
  8
_0-0_LAYER001
  6
CONTINUOUS
 62
    3
 10
1171.7103999999999
 20
1056.221
 11
1081.7103999999999
 21
1083.221
  0
LINE
  8
_0-0_LAYER001
  6
CONTINUOUS
 62
    3
 10
1171.7103999999999
 20
1041.221
 11
1171.7103999999999
 21
1056.221
  0
LINE
  8
_0-0_LAYER001
  6
CONTINUOUS
 62
    2
 10
1471.3935000000001
 20
1052.5142000000001
 11
1471.3935000000001
 21
1060.0142000000001
  0
LINE
  8
_0-0_LAYER001
  6
CONTINUOUS
 62
    2
 10
1471.3935000000001
 20
1060.0142000000001
 11
1475.1435000000001
 21
1053.519
  0
LINE
  8
_0-0_LAYER001
  6
CONTINUOUS
 62
    2
 10
1471.3935000000001
 20
1060.0142000000001
 11
1540.9985999999999
 21
800.24440000000004
  0
LINE
  8
_0-0_LAYER001
  6
CONTINUOUS
 62
    2
 10
1021.7103999999999
 20
969.11560000000009
 11
1021.7103999999999
 21
996.61560000000009
  0
CIRCLE
  8
_0-0_LAYER001
  6
CONTINUOUS
 62
    2
 10
1021.7103999999999
 20
971.61560000000009
 40
1.6999999999999997
  0
LINE
  8
_0-0_LAYER001
  6
CONTINUOUS
 62
    2
 10
1021.7103999999999
 20
971.61560000000009
 11
1081.7103999999999
 21
971.61560000000009
  0
CIRCLE
  8
_0-0_LAYER001
  6
CONTINUOUS
 62
    2
 10
1081.7103999999999
 20
971.61560000000009
 40
1.6999999999999997
  0
LINE
  8
_0-0_LAYER001
  6
CONTINUOUS
 62
    2
 10
1081.7103999999999
 20
969.11560000000009
 11
1081.7103999999999
 21
996.61560000000009
  0
LINE
  8
_0-0_LAYER001
  6
CONTINUOUS
 62
    2
 10
1081.7103999999999
 20
1046.933
 11
1087.4223999999999
 21
1041.221
  0
LINE
  8
_0-0_LAYER001
  6
CONTINUOUS
 62
    2
 10
1081.7103999999999
 20
1061.0751
 11
1101.5645
 21
1041.221
  0
LINE
  8
_0-0_LAYER001
  6
CONTINUOUS
 62
    2
 10
1081.7103999999999
 20
1075.2172
 11
1115.7066
 21
1041.221
  0
LINE
  8
_0-0_LAYER001
  6
CONTINUOUS
 62
    2
 10
1090.4794999999999
 20
1080.5903000000001
 11
1129.8488
 21
1041.221
  0
LINE
  8
_0-0_LAYER001
  6
CONTINUOUS
 62
    2
 10
1110.6826000000001
 20
1074.5292999999999
 11
1143.9909
 21
1041.221
  0
LINE
  8
_0-0_LAYER001
  6
CONTINUOUS
 62
    2
 10
1130.8856000000001
 20
1068.4684
 11
1158.133
 21
1041.221
  0
LINE
  8
_0-0_LAYER001
  6
CONTINUOUS
 62
    2
 10
1151.0887
 20
1062.4075
 11
1171.7103999999999
 21
1041.7858000000001
  0
LINE
  8
_0-0_LAYER001
  6
CONTINUOUS
 62
    2
 10
1171.2917
 20
1056.3466000000001
 11
1171.7103999999999
 21
1055.9278999999999
  0
LINE
  8
_0-1_LAYER004
  6
CONTINUOUS
 62
    2
 10
1193.7236
 20
1099.6858999999999
 11
1193.7236
 21
1092.1858999999999
  0
LINE
  8
_0-1_LAYER004
  6
CONTINUOUS
 62
    2
 10
1193.7236
 20
1092.1858999999999
 11
1189.9736
 21
1098.6811
  0
LINE
  8
_0-1_LAYER004
  6
CONTINUOUS
 62
    2
 10
1193.7236
 20
1092.1858999999999
 11
1163.2018
 21
1206.0945999999999
  0
LINE
  8
_0-1_LAYER004
  6
CONTINUOUS
 62
    2
 10
1163.2018
 20
1206.0945999999999
 11
1115.2018
 21
1206.0945999999999
  0
LINE
  8
_0-0_LAYER001
  6
CONTINUOUS
 62
    2
 10
954.1712
 20
1041.221
 11
981.6712
 21
1041.221
  0
CIRCLE
  8
_0-0_LAYER001
  6
CONTINUOUS
 62
    2
 10
956.6712
 20
1041.221
 40
1.6999999999999997
  0
LINE
  8
_0-0_LAYER001
  6
CONTINUOUS
 62
    2
 10
956.6712
 20
1041.221
 11
956.6712
 21
1056.221
  0
CIRCLE
  8
_0-0_LAYER001
  6
CONTINUOUS
 62
    2
 10
956.6712
 20
1056.221
 40
1.6999999999999997
  0
LINE
  8
_0-0_LAYER001
  6
CONTINUOUS
 62
    2
 10
954.1712
 20
1056.221
 11
981.6712
 21
1056.221
  0
CIRCLE
  8
_0-0_LAYER001
  6
CONTINUOUS
 62
    2
 10
956.6712
 20
1056.221
 40
1.6999999999999997
  0
LINE
  8
_0-0_LAYER001
  6
CONTINUOUS
 62
    2
 10
956.6712
 20
1056.221
 11
956.6712
 21
1083.221
  0
CIRCLE
  8
_0-0_LAYER001
  6
CONTINUOUS
 62
    2
 10
956.6712
 20
1083.221
 40
1.6999999999999997
  0
LINE
  8
_0-0_LAYER001
  6
CONTINUOUS
 62
    2
 10
954.1712
 20
1083.221
 11
981.6712
 21
1083.221
  0
LINE
  8
_0-1_LAYER004
  6
CONTINUOUS
 62
    2
 10
1689.4409999999998
 20
1098.8219999999999
 11
1689.4409999999998
 21
1091.3219999999999
  0
LINE
  8
_0-1_LAYER004
  6
CONTINUOUS
 62
    2
 10
1689.4409999999998
 20
1091.3219999999999
 11
1685.6909999999998
 21
1097.8172
  0
LINE
  8
_0-1_LAYER004
  6
CONTINUOUS
 62
    2
 10
1689.4409999999998
 20
1091.3219999999999
 11
1659.5014999999999
 21
1203.0574999999999
  0
LINE
  8
_0-1_LAYER004
  6
CONTINUOUS
 62
    2
 10
1659.5014999999999
 20
1203.0574999999999
 11
1619.0014999999999
 21
1203.0574999999999
  0
LINE
  8
_0-0_LAYER001
  6
CONTINUOUS
 62
    2
 10
1427.7103999999999
 20
1041.221
 11
1487.7103999999999
 21
1041.221
  0
LINE
  8
_0-0_LAYER001
  6
CONTINUOUS
 62
    2
 10
1487.7103999999999
 20
1041.221
 11
1487.7103999999999
 21
981.221
  0
LINE
  8
_0-0_LAYER001
  6
CONTINUOUS
 62
    2
 10
1487.7103999999999
 20
981.221
 11
1427.7103999999999
 21
981.221
  0
LINE
  8
_0-0_LAYER001
  6
CONTINUOUS
 62
    2
 10
1427.7103999999999
 20
981.221
 11
1427.7103999999999
 21
1041.221
  0
LINE
  8
_0-0_LAYER001
  6
CONTINUOUS
 62
    2
 10
1427.7103999999999
 20
1041.221
 11
1487.7103999999999
 21
981.221
  0
LINE
  8
_0-0_LAYER001
  6
CONTINUOUS
 62
    2
 10
1730.7103999999999
 20
1041.221
 11
1790.7103999999999
 21
1041.221
  0
LINE
  8
_0-0_LAYER001
  6
CONTINUOUS
 62
    2
 10
1790.7103999999999
 20
1041.221
 11
1790.7103999999999
 21
981.221
  0
LINE
  8
_0-0_LAYER001
  6
CONTINUOUS
 62
    2
 10
1790.7103999999999
 20
981.221
 11
1730.7103999999999
 21
981.221
  0
LINE
  8
_0-0_LAYER001
  6
CONTINUOUS
 62
    2
 10
1730.7103999999999
 20
981.221
 11
1730.7103999999999
 21
1041.221
  0
LINE
  8
_0-0_LAYER001
  6
CONTINUOUS
 62
    2
 10
1730.7103999999999
 20
1041.221
 11
1790.7103999999999
 21
981.221
  0
LINE
  8
_0-0_LAYER001
  6
CONTINUOUS
 62
    2
 10
2017.6080999999999
 20
1056.221
 11
1171.7103999999999
 21
1056.221
  0
LINE
  8
_0-0_LAYER001
  6
DASHED3
 62
    2
 10
2017.6080999999999
 20
1057.721
 11
1171.7103999999999
 21
1057.721
  0
LINE
  8
_0-0_LAYER001
  6
CONTINUOUS
 62
    2
 10
2017.6080999999999
 20
1059.221
 11
1165.4611
 21
1059.221
  0
LINE
  8
_0-0_LAYER001
  6
CONTINUOUS
 62
    2
 10
2017.6080999999999
 20
1041.221
 11
1171.7103999999999
 21
1041.221
  0
LINE
  8
_0-0_LAYER001
  6
CONTINUOUS
 62
    2
 10
2017.6080999999999
 20
1074.221
 11
1111.7103999999999
 21
1074.221
  0
LINE
  8
_0-0_LAYER001
  6
CONTINUOUS
 62
    2
 10
1774.1993000000002
 20
1286.7554999999998
 11
1774.1993000000002
 21
1234.2555
  0
CIRCLE
  8
_0-0_LAYER001
  6
CONTINUOUS
 62
    2
 10
1774.1993000000002
 20
1284.2554999999998
 40
1.6999999999999997
  0
LINE
  8
_0-0_LAYER001
  6
CONTINUOUS
 62
    2
 10
1774.1993000000002
 20
1284.2554999999998
 11
1509.1993000000002
 21
1284.2554999999998
  0
CIRCLE
  8
_0-0_LAYER001
  6
CONTINUOUS
 62
    2
 10
1509.1993000000002
 20
1284.2554999999998
 40
1.6999999999999997
  0
LINE
  8
_0-0_LAYER001
  6
CONTINUOUS
 62
    2
 10
1509.1993000000002
 20
1286.7554999999998
 11
1509.1993000000002
 21
1234.2555
  0
CIRCLE
  8
_0-0_LAYER001
  6
CONTINUOUS
 62
    2
 10
1509.1993000000002
 20
1284.2554999999998
 40
1.6999999999999997
  0
LINE
  8
_0-0_LAYER001
  6
CONTINUOUS
 62
    2
 10
1509.1993000000002
 20
1284.2554999999998
 11
1244.1993
 21
1284.2554999999998
  0
CIRCLE
  8
_0-0_LAYER001
  6
CONTINUOUS
 62
    2
 10
1244.1993
 20
1284.2554999999998
 40
1.6999999999999997
  0
LINE
  8
_0-0_LAYER001
  6
CONTINUOUS
 62
    2
 10
1244.1993
 20
1286.7554999999998
 11
1244.1993
 21
1234.2555
  0
CIRCLE
  8
_0-0_LAYER001
  6
CONTINUOUS
 62
    2
 10
1244.1993
 20
1284.2554999999998
 40
1.6999999999999997
  0
LINE
  8
_0-0_LAYER001
  6
CONTINUOUS
 62
    2
 10
1244.1993
 20
1284.2554999999998
 11
1019.1993
 21
1284.2554999999998
  0
CIRCLE
  8
_0-0_LAYER001
  6
CONTINUOUS
 62
    2
 10
1019.1993
 20
1284.2554999999998
 40
1.6999999999999997
  0
LINE
  8
_0-0_LAYER001
  6
CONTINUOUS
 62
    2
 10
1019.1993
 20
1286.7554999999998
 11
1019.1993
 21
1234.2555
  0
LINE
  8
_0-0_LAYER001
  6
CONTINUOUS
 62
    2
 10
1534.6549
 20
830.1108999999999
 11
1706.3263000000002
 21
830.1108999999999
  0
LINE
  8
_0-0_LAYER001
  6
CONTINUOUS
 62
    2
 10
1525.1118000000001
 20
860.20630000000006
 11
1758.5068000000001
 21
860.20630000000006
  0
LINE
  8
_0-0_LAYER001
  6
CONTINUOUS
 62
    2
 10
1540.9985999999999
 20
800.24440000000004
 11
1602.6808999999998
 21
800.24440000000004
  0
LINE
  8
_0-1_LAYER004
  6
CONTINUOUS
 62
    2
 10
1117.4349
 20
938.13539999999989
 11
1117.4349
 21
945.63539999999989
  0
LINE
  8
_0-1_LAYER004
  6
CONTINUOUS
 62
    2
 10
1117.4349
 20
945.63539999999989
 11
1121.1849
 21
939.14020000000005
  0
LINE
  8
_0-1_LAYER004
  6
CONTINUOUS
 62
    2
 10
1117.4349
 20
945.63539999999989
 11
1149.4213999999999
 21
826.26019999999994
  0
LINE
  8
_0-1_LAYER004
  6
CONTINUOUS
 62
    2
 10
1149.4213999999999
 20
826.26019999999994
 11
1228.2263
 21
826.26019999999994
  0
LINE
  8
_0-1_LAYER004
  6
CONTINUOUS
 62
    2
 10
1105.8054
 20
1064.7670000000001
 11
1105.8054
 21
1057.2670000000001
  0
LINE
  8
_0-1_LAYER004
  6
CONTINUOUS
 62
    2
 10
1105.8054
 20
1057.2670000000001
 11
1102.0554
 21
1063.7621999999999
  0
LINE
  8
_0-1_LAYER004
  6
CONTINUOUS
 62
    2
 10
1105.8054
 20
1057.2670000000001
 11
1076.3905
 21
1167.0451
  0
LINE
  8
_0-1_LAYER004
  6
CONTINUOUS
 62
    2
 10
1076.3905
 20
1167.0451
 11
1017.4349999999999
 21
1167.0451
  0
LINE
  8
_0-0_LAYER001
  6
CONTINUOUS
 62
    2
 10
1516.4823999999999
 20
890.30160000000001
 11
1721.3051
 21
890.30160000000001
  0
LINE
  8
_0-0_LAYER001
  6
CONTINUOUS
 62
    4
 10
1901.0726
 20
1067.1576
 11
1892.5371
 21
1081.6909000000001
  0
LINE
  8
_0-0_LAYER001
  6
CONTINUOUS
 62
    4
 10
1909.2404000000001
 20
1066.5073
 11
1917.5466000000001
 21
1076.5727999999999
  0
ARC
  8
_0-0_LAYER001
  6
CONTINUOUS
 62
    4
 10
1905.384
 20
1069.6896999999999
 40
5
 50
210.42578
 51
320.47001
  0
LINE
  8
_0-0_LAYER001
  6
CONTINUOUS
 62
    4
 10
1985.1860000000001
 20
1066.0373999999999
 11
1977.8607000000002
 21
1077.3434999999999
  0
LINE
  8
_0-0_LAYER001
  6
CONTINUOUS
 62
    4
 10
1993.6956
 20
1066.2274
 11
2002.634
 21
1081.473
  0
ARC
  8
_0-0_LAYER001
  6
CONTINUOUS
 62
    4
 10
1989.3823000000002
 20
1068.7562
 40
5
 50
212.93986000000001
 51
329.61716000000001
  0
LINE
  8
_0-0_LAYER001
  6
CONTINUOUS
 62
    4
 10
2028.7885999999999
 20
1105.0887
 11
2028.8287
 21
1105.0953999999999
  0
LINE
  8
_0-0_LAYER001
  6
CONTINUOUS
 62
    4
 10
2024.5947999999999
 20
1104.3932
 11
2028.7885999999999
 21
1105.0887
  0
LINE
  8
_0-0_LAYER001
  6
CONTINUOUS
 62
    4
 10
2020.3960000000002
 20
1103.6992
 11
2024.5947999999999
 21
1104.3932
  0
LINE
  8
_0-0_LAYER001
  6
CONTINUOUS
 62
    4
 10
2016.192
 20
1103.0077000000001
 11
2020.3960000000002
 21
1103.6992
  0
LINE
  8
_0-0_LAYER001
  6
CONTINUOUS
 62
    4
 10
2011.9850999999999
 20
1102.3200999999999
 11
2016.192
 21
1103.0077000000001
  0
LINE
  8
_0-0_LAYER001
  6
CONTINUOUS
 62
    4
 10
2009.5328
 20
1101.9215999999999
 11
2011.9850999999999
 21
1102.3200999999999
  0
LINE
  8
_0-0_LAYER001
  6
CONTINUOUS
 62
    4
 10
2004.8000999999999
 20
1101.1591000000001
 11
2009.5328
 21
1101.9215999999999
  0
LINE
  8
_0-0_LAYER001
  6
CONTINUOUS
 62
    4
 10
1996.5956000000001
 20
1099.8751999999999
 11
2004.8000999999999
 21
1101.1591000000001
  0
LINE
  8
_0-0_LAYER001
  6
CONTINUOUS
 62
    4
 10
1988.2882
 20
1098.6554000000001
 11
1996.5956000000001
 21
1099.8751999999999
  0
LINE
  8
_0-0_LAYER001
  6
CONTINUOUS
 62
    4
 10
1979.8798999999999
 20
1097.539
 11
1988.2882
 21
1098.6554000000001
  0
LINE
  8
_0-0_LAYER001
  6
CONTINUOUS
 62
    4
 10
1971.3672999999999
 20
1096.5655999999999
 11
1979.8798999999999
 21
1097.539
  0
LINE
  8
_0-0_LAYER001
  6
CONTINUOUS
 62
    4
 10
1962.8081999999999
 20
1095.7817
 11
1971.3672999999999
 21
1096.5655999999999
  0
LINE
  8
_0-0_LAYER001
  6
CONTINUOUS
 62
    4
 10
1957.7465999999999
 20
1095.4236000000001
 11
1962.8081999999999
 21
1095.7817
  0
LINE
  8
_0-0_LAYER001
  6
CONTINUOUS
 62
    4
 10
1954.944
 20
1095.2619999999999
 11
1957.7465999999999
 21
1095.4236000000001
  0
LINE
  8
_0-0_LAYER001
  6
CONTINUOUS
 62
    4
 10
1950.223
 20
1095.0581
 11
1954.944
 21
1095.2619999999999
  0
LINE
  8
_0-0_LAYER001
  6
CONTINUOUS
 62
    4
 10
1945.3937999999998
 20
1094.9526000000001
 11
1950.223
 21
1095.0581
  0
LINE
  8
_0-0_LAYER001
  6
CONTINUOUS
 62
    4
 10
1940.4922000000001
 20
1094.9680000000001
 11
1945.3937999999998
 21
1094.9526000000001
  0
LINE
  8
_0-0_LAYER001
  6
CONTINUOUS
 62
    4
 10
1935.5210999999999
 20
1095.1259
 11
1940.4922000000001
 21
1094.9680000000001
  0
LINE
  8
_0-0_LAYER001
  6
CONTINUOUS
 62
    4
 10
1930.5637000000002
 20
1095.4436000000001
 11
1935.5210999999999
 21
1095.1259
  0
LINE
  8
_0-0_LAYER001
  6
CONTINUOUS
 62
    4
 10
1927.5120999999999
 20
1095.7251000000001
 11
1930.5637000000002
 21
1095.4436000000001
  0
LINE
  8
_0-0_LAYER001
  6
CONTINUOUS
 62
    4
 10
1923.5832
 20
1096.1873000000001
 11
1927.5120999999999
 21
1095.7251000000001
  0
LINE
  8
_0-0_LAYER001
  6
CONTINUOUS
 62
    4
 10
1917.0693000000001
 20
1097.2099000000001
 11
1923.5832
 21
1096.1873000000001
  0
LINE
  8
_0-0_LAYER001
  6
CONTINUOUS
 62
    4
 10
1910.5227
 20
1098.5619999999999
 11
1917.0693000000001
 21
1097.2099000000001
  0
LINE
  8
_0-0_LAYER001
  6
CONTINUOUS
 62
    4
 10
1904.0596999999998
 20
1100.2179000000001
 11
1910.5227
 21
1098.5619999999999
  0
LINE
  8
_0-0_LAYER001
  6
CONTINUOUS
 62
    4
 10
1897.6938
 20
1102.1686
 11
1904.0596999999998
 21
1100.2179000000001
  0
LINE
  8
_0-0_LAYER001
  6
CONTINUOUS
 62
    4
 10
1891.529
 20
1104.3734999999999
 11
1897.6938
 21
1102.1686
  0
LINE
  8
_0-0_LAYER001
  6
CONTINUOUS
 62
    4
 10
1887.8424
 20
1105.8453
 11
1891.529
 21
1104.3734999999999
  0
LINE
  8
_0-0_LAYER001
  6
CONTINUOUS
 62
    4
 10
1883.4780999999998
 20
1107.7378000000001
 11
1887.8424
 21
1105.8453
  0
LINE
  8
_0-0_LAYER001
  6
CONTINUOUS
 62
    4
 10
1876.4090999999999
 20
1111.1528000000001
 11
1883.4780999999998
 21
1107.7378000000001
  0
LINE
  8
_0-0_LAYER001
  6
CONTINUOUS
 62
    4
 10
1869.5162
 20
1114.8824
 11
1876.4090999999999
 21
1111.1528000000001
  0
LINE
  8
_0-0_LAYER001
  6
CONTINUOUS
 62
    4
 10
1862.8791999999999
 20
1118.8161
 11
1869.5162
 21
1114.8824
  0
LINE
  8
_0-0_LAYER001
  6
CONTINUOUS
 62
    4
 10
1856.4697999999999
 20
1122.8985
 11
1862.8791999999999
 21
1118.8161
  0
LINE
  8
_0-0_LAYER001
  6
CONTINUOUS
 62
    4
 10
1850.2856000000002
 20
1127.0606
 11
1856.4697999999999
 21
1122.8985
  0
LINE
  8
_0-0_LAYER001
  6
CONTINUOUS
 62
    4
 10
1846.7433000000001
 20
1129.5244
 11
1850.2856000000002
 21
1127.0606
  0
LINE
  8
_0-0_LAYER001
  6
CONTINUOUS
 62
    4
 10
1844.5113000000001
 20
1131.0978
 11
1846.7433000000001
 21
1129.5244
  0
LINE
  8
_0-0_LAYER001
  6
CONTINUOUS
 62
    4
 10
1840.8877000000002
 20
1133.6369999999999
 11
1844.5113000000001
 21
1131.0978
  0
LINE
  8
_0-0_LAYER001
  6
CONTINUOUS
 62
    4
 10
1837.5180999999998
 20
1135.9024999999999
 11
1840.8877000000002
 21
1133.6369999999999
  0
LINE
  8
_0-0_LAYER001
  6
CONTINUOUS
 62
    4
 10
1834.4031
 20
1137.8296
 11
1837.5180999999998
 21
1135.9024999999999
  0
LINE
  8
_0-0_LAYER001
  6
CONTINUOUS
 62
    4
 10
1831.5358999999999
 20
1139.3852999999999
 11
1834.4031
 21
1137.8296
  0
LINE
  8
_0-0_LAYER001
  6
CONTINUOUS
 62
    4
 10
1828.7046999999998
 20
1140.6538
 11
1831.5358999999999
 21
1139.3852999999999
  0
LINE
  8
_0-0_LAYER001
  6
CONTINUOUS
 62
    4
 10
1827.2415000000001
 20
1141.1858999999999
 11
1828.7046999999998
 21
1140.6538
  0
LINE
  8
_0-0_LAYER001
  6
CONTINUOUS
 62
    4
 10
1827.0603999999998
 20
1141.2438999999999
 11
1827.2415000000001
 21
1141.1858999999999
  0
LINE
  8
_0-0_LAYER001
  6
CONTINUOUS
 62
    4
 10
1826.2721000000001
 20
1141.4718
 11
1827.0603999999998
 21
1141.2438999999999
  0
LINE
  8
_0-0_LAYER001
  6
CONTINUOUS
 62
    4
 10
1825.6149999999998
 20
1141.6344999999999
 11
1826.2721000000001
 21
1141.4718
  0
LINE
  8
_0-0_LAYER001
  6
CONTINUOUS
 62
    4
 10
1825.0331999999999
 20
1141.7525000000001
 11
1825.6149999999998
 21
1141.6344999999999
  0
LINE
  8
_0-0_LAYER001
  6
CONTINUOUS
 62
    4
 10
1824.9931000000001
 20
1141.7587000000001
 11
1825.0331999999999
 21
1141.7525000000001
  0
LINE
  8
_0-0_LAYER001
  6
CONTINUOUS
 62
    4
 10
2024.7784000000001
 20
1085.9013
 11
2028.8287
 21
1086.5744999999999
  0
LINE
  8
_0-0_LAYER001
  6
CONTINUOUS
 62
    4
 10
2020.5855000000001
 20
1085.2058999999999
 11
2024.7784000000001
 21
1085.9013
  0
LINE
  8
_0-0_LAYER001
  6
CONTINUOUS
 62
    4
 10
2016.3881000000001
 20
1084.5121999999999
 11
2020.5855000000001
 21
1085.2058999999999
  0
LINE
  8
_0-0_LAYER001
  6
CONTINUOUS
 62
    4
 10
2012.1858000000002
 20
1083.8209999999999
 11
2016.3881000000001
 21
1084.5121999999999
  0
LINE
  8
_0-0_LAYER001
  6
CONTINUOUS
 62
    4
 10
2007.9807999999998
 20
1083.1335999999999
 11
2012.1858000000002
 21
1083.8209999999999
  0
LINE
  8
_0-0_LAYER001
  6
CONTINUOUS
 62
    4
 10
2005.5308
 20
1082.7355
 11
2007.9807999999998
 21
1083.1335999999999
  0
LINE
  8
_0-0_LAYER001
  6
CONTINUOUS
 62
    4
 10
2000.8038000000001
 20
1081.9739999999999
 11
2005.5308
 21
1082.7355
  0
LINE
  8
_0-0_LAYER001
  6
CONTINUOUS
 62
    4
 10
1992.6131999999998
 20
1080.6922
 11
2000.8038000000001
 21
1081.9739999999999
  0
LINE
  8
_0-0_LAYER001
  6
CONTINUOUS
 62
    4
 10
1984.3287
 20
1079.4757999999999
 11
1992.6131999999998
 21
1080.6922
  0
LINE
  8
_0-0_LAYER001
  6
CONTINUOUS
 62
    4
 10
1975.9521
 20
1078.3635999999999
 11
1984.3287
 21
1079.4757999999999
  0
LINE
  8
_0-0_LAYER001
  6
CONTINUOUS
 62
    4
 10
1967.4798999999998
 20
1077.3949
 11
1975.9521
 21
1078.3635999999999
  0
LINE
  8
_0-0_LAYER001
  6
CONTINUOUS
 62
    4
 10
1958.9638
 20
1076.6148000000001
 11
1967.4798999999998
 21
1077.3949
  0
LINE
  8
_0-0_LAYER001
  6
CONTINUOUS
 62
    4
 10
1953.9358999999999
 20
1076.2592
 11
1958.9638
 21
1076.6148000000001
  0
LINE
  8
_0-0_LAYER001
  6
CONTINUOUS
 62
    4
 10
1951.1606999999999
 20
1076.0992000000001
 11
1953.9358999999999
 21
1076.2592
  0
LINE
  8
_0-0_LAYER001
  6
CONTINUOUS
 62
    4
 10
1946.4753999999998
 20
1075.8967
 11
1951.1606999999999
 21
1076.0992000000001
  0
LINE
  8
_0-0_LAYER001
  6
CONTINUOUS
 62
    4
 10
1941.6925000000001
 20
1075.7923000000001
 11
1946.4753999999998
 21
1075.8967
  0
LINE
  8
_0-0_LAYER001
  6
CONTINUOUS
 62
    4
 10
1936.8445000000002
 20
1075.8074999999999
 11
1941.6925000000001
 21
1075.7923000000001
  0
LINE
  8
_0-0_LAYER001
  6
CONTINUOUS
 62
    4
 10
1931.9342999999999
 20
1075.9635000000001
 11
1936.8445000000002
 21
1075.8074999999999
  0
LINE
  8
_0-0_LAYER001
  6
CONTINUOUS
 62
    4
 10
1927.0369999999998
 20
1076.2773
 11
1931.9342999999999
 21
1075.9635000000001
  0
LINE
  8
_0-0_LAYER001
  6
CONTINUOUS
 62
    4
 10
1924.0382
 20
1076.5539000000001
 11
1927.0369999999998
 21
1076.2773
  0
LINE
  8
_0-0_LAYER001
  6
CONTINUOUS
 62
    4
 10
1920.1727000000001
 20
1077.0087000000001
 11
1924.0382
 21
1076.5539000000001
  0
LINE
  8
_0-0_LAYER001
  6
CONTINUOUS
 62
    4
 10
1913.7442999999998
 20
1078.0178000000001
 11
1920.1727000000001
 21
1077.0087000000001
  0
LINE
  8
_0-0_LAYER001
  6
CONTINUOUS
 62
    4
 10
1907.2908000000002
 20
1079.3507
 11
1913.7442999999998
 21
1078.0178000000001
  0
LINE
  8
_0-0_LAYER001
  6
CONTINUOUS
 62
    4
 10
1900.9186
 20
1080.9833000000001
 11
1907.2908000000002
 21
1079.3507
  0
LINE
  8
_0-0_LAYER001
  6
CONTINUOUS
 62
    4
 10
1894.6412999999998
 20
1082.9069
 11
1900.9186
 21
1080.9833000000001
  0
LINE
  8
_0-0_LAYER001
  6
CONTINUOUS
 62
    4
 10
1888.5542
 20
1085.0841
 11
1894.6412999999998
 21
1082.9069
  0
LINE
  8
_0-0_LAYER001
  6
CONTINUOUS
 62
    4
 10
1884.9286000000002
 20
1086.5315000000001
 11
1888.5542
 21
1085.0841
  0
LINE
  8
_0-0_LAYER001
  6
CONTINUOUS
 62
    4
 10
1880.6287000000002
 20
1088.3960999999999
 11
1884.9286000000002
 21
1086.5315000000001
  0
LINE
  8
_0-0_LAYER001
  6
CONTINUOUS
 62
    4
 10
1873.6378
 20
1091.7733000000001
 11
1880.6287000000002
 21
1088.3960999999999
  0
LINE
  8
_0-0_LAYER001
  6
CONTINUOUS
 62
    4
 10
1866.8197
 20
1095.4623999999999
 11
1873.6378
 21
1091.7733000000001
  0
LINE
  8
_0-0_LAYER001
  6
CONTINUOUS
 62
    4
 10
1860.2438999999999
 20
1099.3598
 11
1866.8197
 21
1095.4623999999999
  0
LINE
  8
_0-0_LAYER001
  6
CONTINUOUS
 62
    4
 10
1853.8829999999998
 20
1103.4114
 11
1860.2438999999999
 21
1099.3598
  0
LINE
  8
_0-0_LAYER001
  6
CONTINUOUS
 62
    4
 10
1847.7323999999999
 20
1107.5509
 11
1853.8829999999998
 21
1103.4114
  0
LINE
  8
_0-0_LAYER001
  6
CONTINUOUS
 62
    4
 10
1844.2078999999999
 20
1110.0023000000001
 11
1847.7323999999999
 21
1107.5509
  0
LINE
  8
_0-0_LAYER001
  6
CONTINUOUS
 62
    4
 10
1841.9787999999999
 20
1111.5736999999999
 11
1844.2078999999999
 21
1110.0023000000001
  0
LINE
  8
_0-0_LAYER001
  6
CONTINUOUS
 62
    4
 10
1838.3371000000002
 20
1114.1256000000001
 11
1841.9787999999999
 21
1111.5736999999999
  0
LINE
  8
_0-0_LAYER001
  6
CONTINUOUS
 62
    4
 10
1834.9198999999999
 20
1116.423
 11
1838.3371000000002
 21
1114.1256000000001
  0
LINE
  8
_0-0_LAYER001
  6
CONTINUOUS
 62
    4
 10
1831.7242999999999
 20
1118.4000000000001
 11
1834.9198999999999
 21
1116.423
  0
LINE
  8
_0-0_LAYER001
  6
CONTINUOUS
 62
    4
 10
1828.7402999999999
 20
1120.0191
 11
1831.7242999999999
 21
1118.4000000000001
  0
LINE
  8
_0-0_LAYER001
  6
CONTINUOUS
 62
    4
 10
1825.7737999999999
 20
1121.3481999999999
 11
1828.7402999999999
 21
1120.0191
  0
LINE
  8
_0-0_LAYER001
  6
CONTINUOUS
 62
    4
 10
1825.0237999999999
 20
1121.6208999999999
 11
1825.7737999999999
 21
1121.3481999999999
  0
LINE
  8
_0-0_LAYER001
  6
CONTINUOUS
 62
    4
 10
1825.3569000000002
 20
1141.6641
 11
1825.1808999999998
 21
1121.4906000000001
  0
LINE
  8
_0-0_LAYER001
  6
CONTINUOUS
 62
    4
 10
2025.6824999999999
 20
1076.1763000000001
 11
2023.4371000000001
 21
1084.7497000000001
  0
ARC
  8
_0-0_LAYER001
  6
CONTINUOUS
 62
    4
 10
2028.5846000000001
 20
1076.9364
 40
3
 50
194.67639000000003
 51
270.00000000000006
  0
LINE
  8
_0-0_LAYER001
  6
CONTINUOUS
 62
    4
 10
2028.8287
 20
1073.932
 11
2028.6093000000001
 21
1073.932
  0
LINE
  8
_0-0_LAYER001
  6
CONTINUOUS
 62
    4
 10
1778.2606999999998
 20
1151.0542
 11
1779.0747000000001
 21
1151.3608999999999
  0
LINE
  8
_0-0_LAYER001
  6
CONTINUOUS
 62
    4
 10
1779.0747000000001
 20
1151.3608999999999
 11
1782.6239
 21
1152.7004999999999
  0
LINE
  8
_0-0_LAYER001
  6
CONTINUOUS
 62
    4
 10
1782.6239
 20
1152.7004999999999
 11
1786.1804999999999
 21
1154.0494000000001
  0
LINE
  8
_0-0_LAYER001
  6
CONTINUOUS
 62
    4
 10
1786.1804999999999
 20
1154.0494000000001
 11
1789.7492000000002
 21
1155.4133999999999
  0
LINE
  8
_0-0_LAYER001
  6
CONTINUOUS
 62
    4
 10
1789.7492000000002
 20
1155.4133999999999
 11
1793.3344999999999
 21
1156.7985000000001
  0
LINE
  8
_0-0_LAYER001
  6
CONTINUOUS
 62
    4
 10
1793.3344999999999
 20
1156.7985000000001
 11
1796.9412000000002
 21
1158.2104999999999
  0
LINE
  8
_0-0_LAYER001
  6
CONTINUOUS
 62
    4
 10
1796.9412000000002
 20
1158.2104999999999
 11
1799.0448000000001
 21
1159.0440000000001
  0
LINE
  8
_0-0_LAYER001
  6
CONTINUOUS
 62
    4
 10
1799.0448000000001
 20
1159.0440000000001
 11
1801.1241
 21
1159.8729000000001
  0
LINE
  8
_0-0_LAYER001
  6
CONTINUOUS
 62
    4
 10
1801.1241
 20
1159.8729000000001
 11
1804.7307000000001
 21
1161.2744
  0
LINE
  8
_0-0_LAYER001
  6
CONTINUOUS
 62
    4
 10
1804.7307000000001
 20
1161.2744
 11
1808.3634000000002
 21
1162.5571
  0
LINE
  8
_0-0_LAYER001
  6
CONTINUOUS
 62
    4
 10
1808.3634000000002
 20
1162.5571
 11
1812.0212999999999
 21
1163.6237000000001
  0
LINE
  8
_0-0_LAYER001
  6
CONTINUOUS
 62
    4
 10
1812.0212999999999
 20
1163.6237000000001
 11
1815.7033999999999
 21
1164.377
  0
LINE
  8
_0-0_LAYER001
  6
CONTINUOUS
 62
    4
 10
1815.7033999999999
 20
1164.377
 11
1819.4087
 21
1164.7194999999999
  0
LINE
  8
_0-0_LAYER001
  6
CONTINUOUS
 62
    4
 10
1819.4087
 20
1164.7194999999999
 11
1821.5680000000002
 21
1164.6916000000001
  0
LINE
  8
_0-0_LAYER001
  6
CONTINUOUS
 62
    4
 10
1821.5680000000002
 20
1164.6916000000001
 11
1822.4171999999999
 21
1164.6302000000001
  0
LINE
  8
_0-0_LAYER001
  6
CONTINUOUS
 62
    4
 10
1822.4171999999999
 20
1164.6302000000001
 11
1823.8815
 21
1164.4595999999999
  0
LINE
  8
_0-0_LAYER001
  6
CONTINUOUS
 62
    4
 10
1823.8815
 20
1164.4595999999999
 11
1825.3425999999999
 21
1164.2129
  0
LINE
  8
_0-0_LAYER001
  6
CONTINUOUS
 62
    4
 10
1825.3425999999999
 20
1164.2129
 11
1826.7963
 21
1163.8969
  0
LINE
  8
_0-0_LAYER001
  6
CONTINUOUS
 62
    4
 10
1826.7963
 20
1163.8969
 11
1828.2384000000002
 21
1163.5183999999999
  0
LINE
  8
_0-0_LAYER001
  6
CONTINUOUS
 62
    4
 10
1828.2384000000002
 20
1163.5183999999999
 11
1829.6648
 21
1163.0842
  0
LINE
  8
_0-0_LAYER001
  6
CONTINUOUS
 62
    4
 10
1829.6648
 20
1163.0842
 11
1830.4832999999999
 21
1162.8096
  0
LINE
  8
_0-0_LAYER001
  6
CONTINUOUS
 62
    4
 10
1830.4832999999999
 20
1162.8096
 11
1832.9816000000001
 21
1161.8614
  0
LINE
  8
_0-0_LAYER001
  6
CONTINUOUS
 62
    4
 10
1832.9816000000001
 20
1161.8614
 11
1837.1405
 21
1159.9277999999999
  0
LINE
  8
_0-0_LAYER001
  6
CONTINUOUS
 62
    4
 10
1837.1405
 20
1159.9277999999999
 11
1841.1442999999999
 21
1157.6824999999999
  0
LINE
  8
_0-0_LAYER001
  6
CONTINUOUS
 62
    4
 10
1841.1442999999999
 20
1157.6824999999999
 11
1845.0311999999999
 21
1155.2021999999999
  0
LINE
  8
_0-0_LAYER001
  6
CONTINUOUS
 62
    4
 10
1845.0311999999999
 20
1155.2021999999999
 11
1848.8391999999999
 21
1152.5640000000001
  0
LINE
  8
_0-0_LAYER001
  6
CONTINUOUS
 62
    4
 10
1848.8391999999999
 20
1152.5640000000001
 11
1852.6064000000001
 21
1149.845
  0
LINE
  8
_0-0_LAYER001
  6
CONTINUOUS
 62
    4
 10
1852.6064000000001
 20
1149.845
 11
1854.7878000000001
 21
1148.2611999999999
  0
LINE
  8
_0-0_LAYER001
  6
CONTINUOUS
 62
    4
 10
1854.7878000000001
 20
1148.2611999999999
 11
1858.1192999999998
 21
1145.8742999999999
  0
LINE
  8
_0-0_LAYER001
  6
CONTINUOUS
 62
    4
 10
1858.1192999999998
 20
1145.8742999999999
 11
1863.9115999999999
 21
1141.8574000000001
  0
LINE
  8
_0-0_LAYER001
  6
CONTINUOUS
 62
    4
 10
1863.9115999999999
 20
1141.8574000000001
 11
1869.7837
 21
1138.0008
  0
LINE
  8
_0-0_LAYER001
  6
CONTINUOUS
 62
    4
 10
1869.7837
 20
1138.0008
 11
1875.7579000000001
 21
1134.3462999999999
  0
LINE
  8
_0-0_LAYER001
  6
CONTINUOUS
 62
    4
 10
1875.7579000000001
 20
1134.3462999999999
 11
1881.8561
 21
1130.9358
  0
LINE
  8
_0-0_LAYER001
  6
CONTINUOUS
 62
    4
 10
1881.8561
 20
1130.9358
 11
1888.1003999999998
 21
1127.8109999999999
  0
LINE
  8
_0-0_LAYER001
  6
CONTINUOUS
 62
    4
 10
1888.1003999999998
 20
1127.8109999999999
 11
1891.7977000000001
 21
1126.146
  0
LINE
  8
_0-0_LAYER001
  6
CONTINUOUS
 62
    4
 10
1891.7977000000001
 20
1126.146
 11
1894.8569000000002
 21
1124.8749
  0
LINE
  8
_0-0_LAYER001
  6
CONTINUOUS
 62
    4
 10
1894.8569000000002
 20
1124.8749
 11
1900.2174
 21
1122.8726999999999
  0
LINE
  8
_0-0_LAYER001
  6
CONTINUOUS
 62
    4
 10
1900.2174
 20
1122.8726999999999
 11
1905.6731
 21
1121.1171999999999
  0
LINE
  8
_0-0_LAYER001
  6
CONTINUOUS
 62
    4
 10
1905.6731
 20
1121.1171999999999
 11
1911.2080999999998
 21
1119.6165000000001
  0
LINE
  8
_0-0_LAYER001
  6
CONTINUOUS
 62
    4
 10
1911.2080999999998
 20
1119.6165000000001
 11
1916.8063999999999
 21
1118.3784000000001
  0
LINE
  8
_0-0_LAYER001
  6
CONTINUOUS
 62
    4
 10
1916.8063999999999
 20
1118.3784000000001
 11
1922.4521
 21
1117.4112
  0
LINE
  8
_0-0_LAYER001
  6
CONTINUOUS
 62
    4
 10
1922.4521
 20
1117.4112
 11
1925.7420999999999
 21
1116.9775
  0
LINE
  8
_0-0_LAYER001
  6
CONTINUOUS
 62
    4
 10
1925.7420999999999
 20
1116.9775
 11
1928.2613999999999
 21
1116.7095999999999
  0
LINE
  8
_0-0_LAYER001
  6
CONTINUOUS
 62
    4
 10
1928.2613999999999
 20
1116.7095999999999
 11
1932.6134999999999
 21
1116.3696
  0
LINE
  8
_0-0_LAYER001
  6
CONTINUOUS
 62
    4
 10
1932.6134999999999
 20
1116.3696
 11
1936.9737
 21
1116.1702
  0
LINE
  8
_0-0_LAYER001
  6
CONTINUOUS
 62
    4
 10
1936.9737
 20
1116.1702
 11
1941.3389000000002
 21
1116.0954999999999
  0
LINE
  8
_0-0_LAYER001
  6
CONTINUOUS
 62
    4
 10
1941.3389000000002
 20
1116.0954999999999
 11
1945.7060000000001
 21
1116.1298999999999
  0
LINE
  8
_0-0_LAYER001
  6
CONTINUOUS
 62
    4
 10
1945.7060000000001
 20
1116.1298999999999
 11
1950.0718999999999
 21
1116.2574999999999
  0
LINE
  8
_0-0_LAYER001
  6
CONTINUOUS
 62
    4
 10
1950.0718999999999
 20
1116.2574999999999
 11
1952.6024000000002
 21
1116.3679999999999
  0
LINE
  8
_0-0_LAYER001
  6
CONTINUOUS
 62
    4
 10
1952.6024000000002
 20
1116.3679999999999
 11
1957.3314999999998
 21
1116.6360999999999
  0
LINE
  8
_0-0_LAYER001
  6
CONTINUOUS
 62
    4
 10
1957.3314999999998
 20
1116.6360999999999
 11
1965.4695999999999
 21
1117.2671
  0
LINE
  8
_0-0_LAYER001
  6
CONTINUOUS
 62
    4
 10
1965.4695999999999
 20
1117.2671
 11
1973.5904
 21
1118.0809999999999
  0
LINE
  8
_0-0_LAYER001
  6
CONTINUOUS
 62
    4
 10
1973.5904
 20
1118.0809999999999
 11
1981.6961999999999
 21
1119.0423000000001
  0
LINE
  8
_0-0_LAYER001
  6
CONTINUOUS
 62
    4
 10
1981.6961999999999
 20
1119.0423000000001
 11
1989.7896999999998
 21
1120.1155000000001
  0
LINE
  8
_0-0_LAYER001
  6
CONTINUOUS
 62
    4
 10
1989.7896999999998
 20
1120.1155000000001
 11
1997.8732
 21
1121.2650000000001
  0
LINE
  8
_0-0_LAYER001
  6
CONTINUOUS
 62
    4
 10
1997.8732
 20
1121.2650000000001
 11
2002.5581000000002
 21
1121.9528
  0
LINE
  8
_0-0_LAYER001
  6
CONTINUOUS
 62
    4
 10
2002.5581000000002
 20
1121.9528
 11
2004.9929999999999
 21
1122.3136999999999
  0
LINE
  8
_0-0_LAYER001
  6
CONTINUOUS
 62
    4
 10
2004.9929999999999
 20
1122.3136999999999
 11
2009.1900000000001
 21
1122.9396999999999
  0
LINE
  8
_0-0_LAYER001
  6
CONTINUOUS
 62
    4
 10
2009.1900000000001
 20
1122.9396999999999
 11
2013.3858
 21
1123.5698
  0
LINE
  8
_0-0_LAYER001
  6
CONTINUOUS
 62
    4
 10
2013.3858
 20
1123.5698
 11
2017.5805999999998
 21
1124.2030999999999
  0
LINE
  8
_0-0_LAYER001
  6
CONTINUOUS
 62
    4
 10
2017.5805999999998
 20
1124.2030999999999
 11
2021.7748000000001
 21
1124.8386
  0
LINE
  8
_0-0_LAYER001
  6
CONTINUOUS
 62
    4
 10
2021.7748000000001
 20
1124.8386
 11
2025.9684999999999
 21
1125.4756
  0
LINE
  8
_0-0_LAYER001
  6
CONTINUOUS
 62
    4
 10
2025.9684999999999
 20
1125.4756
 11
2028.4007999999999
 21
1125.8453999999999
  0
LINE
  8
_0-0_LAYER001
  6
CONTINUOUS
 62
    4
 10
1783.364
 20
1133.7418
 11
1785.4259000000002
 21
1134.5186000000001
  0
LINE
  8
_0-0_LAYER001
  6
CONTINUOUS
 62
    4
 10
1785.4259000000002
 20
1134.5186000000001
 11
1788.9933999999998
 21
1135.8651
  0
LINE
  8
_0-0_LAYER001
  6
CONTINUOUS
 62
    4
 10
1788.9933999999998
 20
1135.8651
 11
1792.5853000000002
 21
1137.2274
  0
LINE
  8
_0-0_LAYER001
  6
CONTINUOUS
 62
    4
 10
1792.5853000000002
 20
1137.2274
 11
1796.2057
 21
1138.6112000000001
  0
LINE
  8
_0-0_LAYER001
  6
CONTINUOUS
 62
    4
 10
1796.2057
 20
1138.6112000000001
 11
1799.8587000000002
 21
1140.0224000000001
  0
LINE
  8
_0-0_LAYER001
  6
CONTINUOUS
 62
    4
 10
1799.8587000000002
 20
1140.0224000000001
 11
1803.5378999999998
 21
1141.4627
  0
LINE
  8
_0-0_LAYER001
  6
CONTINUOUS
 62
    4
 10
1803.5378999999998
 20
1141.4627
 11
1805.6931
 21
1142.3168000000001
  0
LINE
  8
_0-0_LAYER001
  6
CONTINUOUS
 62
    4
 10
1805.6931
 20
1142.3168000000001
 11
1807.7166999999999
 21
1143.1234999999999
  0
LINE
  8
_0-0_LAYER001
  6
CONTINUOUS
 62
    4
 10
1807.7166999999999
 20
1143.1234999999999
 11
1810.9884999999999
 21
1144.3949
  0
LINE
  8
_0-0_LAYER001
  6
CONTINUOUS
 62
    4
 10
1810.9884999999999
 20
1144.3949
 11
1813.8836999999999
 21
1145.4170999999999
  0
LINE
  8
_0-0_LAYER001
  6
CONTINUOUS
 62
    4
 10
1813.8836999999999
 20
1145.4170999999999
 11
1816.3517999999999
 21
1146.1368
  0
LINE
  8
_0-0_LAYER001
  6
CONTINUOUS
 62
    4
 10
1816.3517999999999
 20
1146.1368
 11
1818.3434999999999
 21
1146.5443
  0
LINE
  8
_0-0_LAYER001
  6
CONTINUOUS
 62
    4
 10
1818.3434999999999
 20
1146.5443
 11
1820.1228000000001
 21
1146.7086999999999
  0
LINE
  8
_0-0_LAYER001
  6
CONTINUOUS
 62
    4
 10
1820.1228000000001
 20
1146.7086999999999
 11
1820.8024
 21
1146.7
  0
LINE
  8
_0-0_LAYER001
  6
CONTINUOUS
 62
    4
 10
1820.8024
 20
1146.7
 11
1820.7262999999998
 21
1146.7055
  0
LINE
  8
_0-0_LAYER001
  6
CONTINUOUS
 62
    4
 10
1820.7262999999998
 20
1146.7055
 11
1821.3398999999999
 21
1146.634
  0
LINE
  8
_0-0_LAYER001
  6
CONTINUOUS
 62
    4
 10
1821.3398999999999
 20
1146.634
 11
1821.9303
 21
1146.5343
  0
LINE
  8
_0-0_LAYER001
  6
CONTINUOUS
 62
    4
 10
1821.9303
 20
1146.5343
 11
1822.5978
 21
1146.3892000000001
  0
LINE
  8
_0-0_LAYER001
  6
CONTINUOUS
 62
    4
 10
1822.5978
 20
1146.3892000000001
 11
1823.3312999999998
 21
1146.1967
  0
LINE
  8
_0-0_LAYER001
  6
CONTINUOUS
 62
    4
 10
1823.3312999999998
 20
1146.1967
 11
1824.1804999999999
 21
1145.9382000000001
  0
LINE
  8
_0-0_LAYER001
  6
CONTINUOUS
 62
    4
 10
1824.1804999999999
 20
1145.9382000000001
 11
1824.4245999999998
 21
1145.8562999999999
  0
LINE
  8
_0-0_LAYER001
  6
CONTINUOUS
 62
    4
 10
1824.4245999999998
 20
1145.8562999999999
 11
1825.9845
 21
1145.2642000000001
  0
LINE
  8
_0-0_LAYER001
  6
CONTINUOUS
 62
    4
 10
1825.9845
 20
1145.2642000000001
 11
1828.9322000000002
 21
1143.8938000000001
  0
LINE
  8
_0-0_LAYER001
  6
CONTINUOUS
 62
    4
 10
1828.9322000000002
 20
1143.8938000000001
 11
1831.8932
 21
1142.2331999999999
  0
LINE
  8
_0-0_LAYER001
  6
CONTINUOUS
 62
    4
 10
1831.8932
 20
1142.2331999999999
 11
1835.0608999999999
 21
1140.2118
  0
LINE
  8
_0-0_LAYER001
  6
CONTINUOUS
 62
    4
 10
1835.0608999999999
 20
1140.2118
 11
1838.4456
 21
1137.8669
  0
LINE
  8
_0-0_LAYER001
  6
CONTINUOUS
 62
    4
 10
1838.4456
 20
1137.8669
 11
1842.0513999999998
 21
1135.2644
  0
LINE
  8
_0-0_LAYER001
  6
CONTINUOUS
 62
    4
 10
1842.0513999999998
 20
1135.2644
 11
1844.2583
 21
1133.662
  0
LINE
  8
_0-0_LAYER001
  6
CONTINUOUS
 62
    4
 10
1844.2583
 20
1133.662
 11
1847.7483000000002
 21
1131.1617000000001
  0
LINE
  8
_0-0_LAYER001
  6
CONTINUOUS
 62
    4
 10
1847.7483000000002
 20
1131.1617000000001
 11
1853.8404999999998
 21
1126.9367999999999
  0
LINE
  8
_0-0_LAYER001
  6
CONTINUOUS
 62
    4
 10
1853.8404999999998
 20
1126.9367999999999
 11
1860.1442000000002
 21
1122.7967000000001
  0
LINE
  8
_0-0_LAYER001
  6
CONTINUOUS
 62
    4
 10
1860.1442000000002
 20
1122.7967000000001
 11
1866.6649000000002
 21
1118.8079
  0
LINE
  8
_0-0_LAYER001
  6
CONTINUOUS
 62
    4
 10
1866.6649000000002
 20
1118.8079
 11
1873.4308999999998
 21
1115.0238999999999
  0
LINE
  8
_0-0_LAYER001
  6
CONTINUOUS
 62
    4
 10
1873.4308999999998
 20
1115.0238999999999
 11
1880.3739
 21
1111.5494000000001
  0
LINE
  8
_0-0_LAYER001
  6
CONTINUOUS
 62
    4
 10
1880.3739
 20
1111.5494000000001
 11
1884.6473000000001
 21
1109.625
  0
LINE
  8
_0-0_LAYER001
  6
CONTINUOUS
 62
    4
 10
1884.6473000000001
 20
1109.625
 11
1888.2523999999999
 21
1108.1270999999999
  0
LINE
  8
_0-0_LAYER001
  6
CONTINUOUS
 62
    4
 10
1888.2523999999999
 20
1108.1270999999999
 11
1894.3085000000001
 21
1105.8651
  0
LINE
  8
_0-0_LAYER001
  6
CONTINUOUS
 62
    4
 10
1894.3085000000001
 20
1105.8651
 11
1900.5583999999999
 21
1103.8541
  0
LINE
  8
_0-0_LAYER001
  6
CONTINUOUS
 62
    4
 10
1900.5583999999999
 20
1103.8541
 11
1906.9070999999999
 21
1102.1327000000001
  0
LINE
  8
_0-0_LAYER001
  6
CONTINUOUS
 62
    4
 10
1906.9070999999999
 20
1102.1327000000001
 11
1913.3413999999998
 21
1100.7098000000001
  0
LINE
  8
_0-0_LAYER001
  6
CONTINUOUS
 62
    4
 10
1913.3413999999998
 20
1100.7098000000001
 11
1919.7550999999999
 21
1099.6110000000001
  0
LINE
  8
_0-0_LAYER001
  6
CONTINUOUS
 62
    4
 10
1919.7550999999999
 20
1099.6110000000001
 11
1923.6138999999998
 21
1099.1023
  0
LINE
  8
_0-0_LAYER001
  6
CONTINUOUS
 62
    4
 10
1923.6138999999998
 20
1099.1023
 11
1926.6084999999998
 21
1098.7838999999999
  0
LINE
  8
_0-0_LAYER001
  6
CONTINUOUS
 62
    4
 10
1926.6084999999998
 20
1098.7838999999999
 11
1931.5009
 21
1098.4016999999999
  0
LINE
  8
_0-0_LAYER001
  6
CONTINUOUS
 62
    4
 10
1931.5009
 20
1098.4016999999999
 11
1936.4085
 21
1098.1772000000001
  0
LINE
  8
_0-0_LAYER001
  6
CONTINUOUS
 62
    4
 10
1936.4085
 20
1098.1772000000001
 11
1941.2557999999999
 21
1098.0943
  0
LINE
  8
_0-0_LAYER001
  6
CONTINUOUS
 62
    4
 10
1941.2557999999999
 20
1098.0943
 11
1946.0396999999998
 21
1098.1320000000001
  0
LINE
  8
_0-0_LAYER001
  6
CONTINUOUS
 62
    4
 10
1946.0396999999998
 20
1098.1320000000001
 11
1950.7274000000002
 21
1098.2689
  0
LINE
  8
_0-0_LAYER001
  6
CONTINUOUS
 62
    4
 10
1950.7274000000002
 20
1098.2689
 11
1953.5046000000002
 21
1098.3902
  0
LINE
  8
_0-0_LAYER001
  6
CONTINUOUS
 62
    4
 10
1953.5046000000002
 20
1098.3902
 11
1958.5369000000001
 21
1098.6756
  0
LINE
  8
_0-0_LAYER001
  6
CONTINUOUS
 62
    4
 10
1958.5369000000001
 20
1098.6756
 11
1967.0630000000001
 21
1099.3367000000001
  0
LINE
  8
_0-0_LAYER001
  6
CONTINUOUS
 62
    4
 10
1967.0630000000001
 20
1099.3367000000001
 11
1975.5479
 21
1100.1869999999999
  0
LINE
  8
_0-0_LAYER001
  6
CONTINUOUS
 62
    4
 10
1975.5479
 20
1100.1869999999999
 11
1983.9391999999998
 21
1101.1821
  0
LINE
  8
_0-0_LAYER001
  6
CONTINUOUS
 62
    4
 10
1983.9391999999998
 20
1101.1821
 11
1992.2399
 21
1102.2828
  0
LINE
  8
_0-0_LAYER001
  6
CONTINUOUS
 62
    4
 10
1992.2399
 20
1102.2828
 11
2000.4477000000002
 21
1103.45
  0
LINE
  8
_0-0_LAYER001
  6
CONTINUOUS
 62
    4
 10
2000.4477000000002
 20
1103.45
 11
2005.1848
 21
1104.1455000000001
  0
LINE
  8
_0-0_LAYER001
  6
CONTINUOUS
 62
    4
 10
2005.1848
 20
1104.1455000000001
 11
2007.6401999999998
 21
1104.5093999999999
  0
LINE
  8
_0-0_LAYER001
  6
CONTINUOUS
 62
    4
 10
2007.6401999999998
 20
1104.5093999999999
 11
2011.8543
 21
1105.1378999999999
  0
LINE
  8
_0-0_LAYER001
  6
CONTINUOUS
 62
    4
 10
2011.8543
 20
1105.1378999999999
 11
2016.0657999999999
 21
1105.7704000000001
  0
LINE
  8
_0-0_LAYER001
  6
CONTINUOUS
 62
    4
 10
2016.0657999999999
 20
1105.7704000000001
 11
2020.2725999999998
 21
1106.4055000000001
  0
LINE
  8
_0-0_LAYER001
  6
CONTINUOUS
 62
    4
 10
2020.2725999999998
 20
1106.4055000000001
 11
2024.4748
 21
1107.0423000000001
  0
LINE
  8
_0-0_LAYER001
  6
CONTINUOUS
 62
    4
 10
2024.4748
 20
1107.0423000000001
 11
2028.6727000000001
 21
1107.6799000000001
  0
LINE
  8
_0-0_LAYER001
  6
CONTINUOUS
 62
    4
 10
2028.6727000000001
 20
1107.6799000000001
 11
2028.8287
 21
1107.7036000000001
  0
LINE
  8
_0-0_LAYER001
  6
CONTINUOUS
 62
    4
 10
1777.8350999999998
 20
1150.8919000000001
 11
1778.2611000000002
 21
1151.0550000000001
  0
ARC
  8
_0-0_LAYER001
  6
CONTINUOUS
 62
    4
 10
1778.9077000000002
 20
1148.0902000000001
 40
3
 50
110.94902000000002
 51
178.70000000000002
  0
LINE
  8
_0-0_LAYER001
  6
CONTINUOUS
 62
    4
 10
1775.7991999999999
 20
1132.3191999999999
 11
1775.7991999999999
 21
1148.0417
  0
LINE
  8
_0-0_LAYER001
  6
CONTINUOUS
 62
    4
 10
1777.1532000000002
 20
1131.3839
 11
1783.328
 21
1133.7211
  0
ARC
  8
_0-0_LAYER001
  6
CONTINUOUS
 62
    4
 10
1776.7991999999999
 20
1132.3191999999999
 40
1
 50
180
 51
290.73165999999998
  0
LINE
  8
_0-0_LAYER001
  6
CONTINUOUS
 62
    4
 10
2028.5257000000001
 20
1125.8807999999999
 11
2028.8287
 21
1125.9465
  0
LINE
  8
_0-0_LAYER001
  6
CONTINUOUS
 62
    4
 10
1636.5796999999998
 20
1067.6875
 11
1628.0441999999998
 21
1082.2209
  0
LINE
  8
_0-0_LAYER001
  6
CONTINUOUS
 62
    4
 10
1644.7476000000001
 20
1067.0372
 11
1653.0538000000001
 21
1077.1026999999999
  0
ARC
  8
_0-0_LAYER001
  6
CONTINUOUS
 62
    4
 10
1640.8910999999998
 20
1070.2195999999999
 40
5
 50
210.42578
 51
320.47001
  0
LINE
  8
_0-0_LAYER001
  6
CONTINUOUS
 62
    4
 10
1720.6932000000002
 20
1066.5673999999999
 11
1713.3678
 21
1077.8733999999999
  0
LINE
  8
_0-0_LAYER001
  6
CONTINUOUS
 62
    4
 10
1729.2026000000001
 20
1066.7573
 11
1738.1410999999998
 21
1082.0029999999999
  0
ARC
  8
_0-0_LAYER001
  6
CONTINUOUS
 62
    4
 10
1724.8892999999998
 20
1069.2861
 40
5
 50
212.93986000000001
 51
329.61716000000001
  0
LINE
  8
_0-0_LAYER001
  6
CONTINUOUS
 62
    4
 10
1768.4847
 20
1106.3149000000001
 11
1770.9128000000001
 21
1106.7188000000001
  0
LINE
  8
_0-0_LAYER001
  6
CONTINUOUS
 62
    4
 10
1764.2955999999999
 20
1105.6187
 11
1768.4847
 21
1106.3149000000001
  0
LINE
  8
_0-0_LAYER001
  6
CONTINUOUS
 62
    4
 10
1760.1017999999999
 20
1104.9231
 11
1764.2955999999999
 21
1105.6187
  0
LINE
  8
_0-0_LAYER001
  6
CONTINUOUS
 62
    4
 10
1755.9029999999998
 20
1104.2291
 11
1760.1017999999999
 21
1104.9231
  0
LINE
  8
_0-0_LAYER001
  6
CONTINUOUS
 62
    4
 10
1751.6990000000001
 20
1103.5376000000001
 11
1755.9029999999998
 21
1104.2291
  0
LINE
  8
_0-0_LAYER001
  6
CONTINUOUS
 62
    4
 10
1747.4922000000001
 20
1102.8499999999999
 11
1751.6990000000001
 21
1103.5376000000001
  0
LINE
  8
_0-0_LAYER001
  6
CONTINUOUS
 62
    4
 10
1745.0399000000002
 20
1102.4514999999999
 11
1747.4922000000001
 21
1102.8499999999999
  0
LINE
  8
_0-0_LAYER001
  6
CONTINUOUS
 62
    4
 10
1740.3071
 20
1101.6890000000001
 11
1745.0399000000002
 21
1102.4514999999999
  0
LINE
  8
_0-0_LAYER001
  6
CONTINUOUS
 62
    4
 10
1732.1026999999999
 20
1100.4050999999999
 11
1740.3071
 21
1101.6890000000001
  0
LINE
  8
_0-0_LAYER001
  6
CONTINUOUS
 62
    4
 10
1723.7952
 20
1099.1853000000001
 11
1732.1026999999999
 21
1100.4050999999999
  0
LINE
  8
_0-0_LAYER001
  6
CONTINUOUS
 62
    4
 10
1715.3870000000002
 20
1098.0689
 11
1723.7952
 21
1099.1853000000001
  0
LINE
  8
_0-0_LAYER001
  6
CONTINUOUS
 62
    4
 10
1706.8744000000002
 20
1097.0956000000001
 11
1715.3870000000002
 21
1098.0689
  0
LINE
  8
_0-0_LAYER001
  6
CONTINUOUS
 62
    4
 10
1698.3153000000002
 20
1096.3116
 11
1706.8744000000002
 21
1097.0956000000001
  0
LINE
  8
_0-0_LAYER001
  6
CONTINUOUS
 62
    4
 10
1693.2538
 20
1095.9536000000001
 11
1698.3153000000002
 21
1096.3116
  0
LINE
  8
_0-0_LAYER001
  6
CONTINUOUS
 62
    4
 10
1690.4512
 20
1095.7919999999999
 11
1693.2538
 21
1095.9536000000001
  0
LINE
  8
_0-0_LAYER001
  6
CONTINUOUS
 62
    4
 10
1685.7301000000002
 20
1095.588
 11
1690.4512
 21
1095.7919999999999
  0
LINE
  8
_0-0_LAYER001
  6
CONTINUOUS
 62
    4
 10
1680.9009000000001
 20
1095.4826
 11
1685.7301000000002
 21
1095.588
  0
LINE
  8
_0-0_LAYER001
  6
CONTINUOUS
 62
    4
 10
1675.9992999999999
 20
1095.4979000000001
 11
1680.9009000000001
 21
1095.4826
  0
LINE
  8
_0-0_LAYER001
  6
CONTINUOUS
 62
    4
 10
1671.0282999999999
 20
1095.6558
 11
1675.9992999999999
 21
1095.4979000000001
  0
LINE
  8
_0-0_LAYER001
  6
CONTINUOUS
 62
    4
 10
1666.0709000000002
 20
1095.9735000000001
 11
1671.0282999999999
 21
1095.6558
  0
LINE
  8
_0-0_LAYER001
  6
CONTINUOUS
 62
    4
 10
1663.0192000000002
 20
1096.2550000000001
 11
1666.0709000000002
 21
1095.9735000000001
  0
LINE
  8
_0-0_LAYER001
  6
CONTINUOUS
 62
    4
 10
1659.0904
 20
1096.7172
 11
1663.0192000000002
 21
1096.2550000000001
  0
LINE
  8
_0-0_LAYER001
  6
CONTINUOUS
 62
    4
 10
1652.5763999999999
 20
1097.7398000000001
 11
1659.0904
 21
1096.7172
  0
LINE
  8
_0-0_LAYER001
  6
CONTINUOUS
 62
    4
 10
1646.0297999999998
 20
1099.0918999999999
 11
1652.5763999999999
 21
1097.7398000000001
  0
LINE
  8
_0-0_LAYER001
  6
CONTINUOUS
 62
    4
 10
1639.5668999999998
 20
1100.7478000000001
 11
1646.0297999999998
 21
1099.0918999999999
  0
LINE
  8
_0-0_LAYER001
  6
CONTINUOUS
 62
    4
 10
1633.2008999999998
 20
1102.6985
 11
1639.5668999999998
 21
1100.7478000000001
  0
LINE
  8
_0-0_LAYER001
  6
CONTINUOUS
 62
    4
 10
1627.0362
 20
1104.9033999999999
 11
1633.2008999999998
 21
1102.6985
  0
LINE
  8
_0-0_LAYER001
  6
CONTINUOUS
 62
    4
 10
1623.3494999999998
 20
1106.3751999999999
 11
1627.0362
 21
1104.9033999999999
  0
LINE
  8
_0-0_LAYER001
  6
CONTINUOUS
 62
    4
 10
1618.9852000000001
 20
1108.2677000000001
 11
1623.3494999999998
 21
1106.3751999999999
  0
LINE
  8
_0-0_LAYER001
  6
CONTINUOUS
 62
    4
 10
1611.9162000000001
 20
1111.6827000000001
 11
1618.9852000000001
 21
1108.2677000000001
  0
LINE
  8
_0-0_LAYER001
  6
CONTINUOUS
 62
    4
 10
1605.0232999999998
 20
1115.4123
 11
1611.9162000000001
 21
1111.6827000000001
  0
LINE
  8
_0-0_LAYER001
  6
CONTINUOUS
 62
    4
 10
1598.3863000000001
 20
1119.346
 11
1605.0232999999998
 21
1115.4123
  0
LINE
  8
_0-0_LAYER001
  6
CONTINUOUS
 62
    4
 10
1591.9769999999999
 20
1123.4284
 11
1598.3863000000001
 21
1119.346
  0
LINE
  8
_0-0_LAYER001
  6
CONTINUOUS
 62
    4
 10
1585.7927
 20
1127.5906
 11
1591.9769999999999
 21
1123.4284
  0
LINE
  8
_0-0_LAYER001
  6
CONTINUOUS
 62
    4
 10
1582.2503999999999
 20
1130.0543
 11
1585.7927
 21
1127.5906
  0
LINE
  8
_0-0_LAYER001
  6
CONTINUOUS
 62
    4
 10
1580.0183999999999
 20
1131.6278
 11
1582.2503999999999
 21
1130.0543
  0
LINE
  8
_0-0_LAYER001
  6
CONTINUOUS
 62
    4
 10
1576.3948
 20
1134.1668999999999
 11
1580.0183999999999
 21
1131.6278
  0
LINE
  8
_0-0_LAYER001
  6
CONTINUOUS
 62
    4
 10
1573.0252
 20
1136.4323999999999
 11
1576.3948
 21
1134.1668999999999
  0
LINE
  8
_0-0_LAYER001
  6
CONTINUOUS
 62
    4
 10
1569.9101999999998
 20
1138.3595
 11
1573.0252
 21
1136.4323999999999
  0
LINE
  8
_0-0_LAYER001
  6
CONTINUOUS
 62
    4
 10
1567.0430000000001
 20
1139.9151999999999
 11
1569.9101999999998
 21
1138.3595
  0
LINE
  8
_0-0_LAYER001
  6
CONTINUOUS
 62
    4
 10
1564.2118999999998
 20
1141.1837
 11
1567.0430000000001
 21
1139.9151999999999
  0
LINE
  8
_0-0_LAYER001
  6
CONTINUOUS
 62
    4
 10
1562.7487000000001
 20
1141.7157999999999
 11
1564.2118999999998
 21
1141.1837
  0
LINE
  8
_0-0_LAYER001
  6
CONTINUOUS
 62
    4
 10
1562.5675999999999
 20
1141.7737999999999
 11
1562.7487000000001
 21
1141.7157999999999
  0
LINE
  8
_0-0_LAYER001
  6
CONTINUOUS
 62
    4
 10
1561.7793000000001
 20
1142.0017
 11
1562.5675999999999
 21
1141.7737999999999
  0
LINE
  8
_0-0_LAYER001
  6
CONTINUOUS
 62
    4
 10
1561.1221
 20
1142.1643999999999
 11
1561.7793000000001
 21
1142.0017
  0
LINE
  8
_0-0_LAYER001
  6
CONTINUOUS
 62
    4
 10
1560.5403000000001
 20
1142.2824000000001
 11
1561.1221
 21
1142.1643999999999
  0
LINE
  8
_0-0_LAYER001
  6
CONTINUOUS
 62
    4
 10
1560.5003000000002
 20
1142.2886000000001
 11
1560.5403000000001
 21
1142.2824000000001
  0
LINE
  8
_0-0_LAYER001
  6
CONTINUOUS
 62
    4
 10
1764.4740999999999
 20
1087.1274000000001
 11
1766.0882000000001
 21
1087.3959
  0
LINE
  8
_0-0_LAYER001
  6
CONTINUOUS
 62
    4
 10
1760.2855
 20
1086.4313
 11
1764.4740999999999
 21
1087.1274000000001
  0
LINE
  8
_0-0_LAYER001
  6
CONTINUOUS
 62
    4
 10
1756.0925999999999
 20
1085.7357999999999
 11
1760.2855
 21
1086.4313
  0
LINE
  8
_0-0_LAYER001
  6
CONTINUOUS
 62
    4
 10
1751.8951000000002
 20
1085.0420999999999
 11
1756.0925999999999
 21
1085.7357999999999
  0
LINE
  8
_0-0_LAYER001
  6
CONTINUOUS
 62
    4
 10
1747.6927999999998
 20
1084.3508999999999
 11
1751.8951000000002
 21
1085.0420999999999
  0
LINE
  8
_0-0_LAYER001
  6
CONTINUOUS
 62
    4
 10
1743.4879000000001
 20
1083.6635000000001
 11
1747.6927999999998
 21
1084.3508999999999
  0
LINE
  8
_0-0_LAYER001
  6
CONTINUOUS
 62
    4
 10
1741.0378000000001
 20
1083.2654
 11
1743.4879000000001
 21
1083.6635000000001
  0
LINE
  8
_0-0_LAYER001
  6
CONTINUOUS
 62
    4
 10
1736.3108999999999
 20
1082.5038999999999
 11
1741.0378000000001
 21
1083.2654
  0
LINE
  8
_0-0_LAYER001
  6
CONTINUOUS
 62
    4
 10
1728.1201999999998
 20
1081.2221999999999
 11
1736.3108999999999
 21
1082.5038999999999
  0
LINE
  8
_0-0_LAYER001
  6
CONTINUOUS
 62
    4
 10
1719.8357999999998
 20
1080.0056999999999
 11
1728.1201999999998
 21
1081.2221999999999
  0
LINE
  8
_0-0_LAYER001
  6
CONTINUOUS
 62
    4
 10
1711.4591999999998
 20
1078.8934999999999
 11
1719.8357999999998
 21
1080.0056999999999
  0
LINE
  8
_0-0_LAYER001
  6
CONTINUOUS
 62
    4
 10
1702.9870000000001
 20
1077.9248
 11
1711.4591999999998
 21
1078.8934999999999
  0
LINE
  8
_0-0_LAYER001
  6
CONTINUOUS
 62
    4
 10
1694.4708999999998
 20
1077.1447000000001
 11
1702.9870000000001
 21
1077.9248
  0
LINE
  8
_0-0_LAYER001
  6
CONTINUOUS
 62
    4
 10
1689.4431
 20
1076.7891
 11
1694.4708999999998
 21
1077.1447000000001
  0
LINE
  8
_0-0_LAYER001
  6
CONTINUOUS
 62
    4
 10
1686.6678999999999
 20
1076.6291000000001
 11
1689.4431
 21
1076.7891
  0
LINE
  8
_0-0_LAYER001
  6
CONTINUOUS
 62
    4
 10
1681.9825999999998
 20
1076.4267
 11
1686.6678999999999
 21
1076.6291000000001
  0
LINE
  8
_0-0_LAYER001
  6
CONTINUOUS
 62
    4
 10
1677.1995999999999
 20
1076.3222000000001
 11
1681.9825999999998
 21
1076.4267
  0
LINE
  8
_0-0_LAYER001
  6
CONTINUOUS
 62
    4
 10
1672.3516
 20
1076.3373999999999
 11
1677.1995999999999
 21
1076.3222000000001
  0
LINE
  8
_0-0_LAYER001
  6
CONTINUOUS
 62
    4
 10
1667.4414000000002
 20
1076.4934000000001
 11
1672.3516
 21
1076.3373999999999
  0
LINE
  8
_0-0_LAYER001
  6
CONTINUOUS
 62
    4
 10
1662.5441000000001
 20
1076.8072999999999
 11
1667.4414000000002
 21
1076.4934000000001
  0
LINE
  8
_0-0_LAYER001
  6
CONTINUOUS
 62
    4
 10
1659.5454
 20
1077.0838000000001
 11
1662.5441000000001
 21
1076.8072999999999
  0
LINE
  8
_0-0_LAYER001
  6
CONTINUOUS
 62
    4
 10
1655.6797999999999
 20
1077.5386000000001
 11
1659.5454
 21
1077.0838000000001
  0
LINE
  8
_0-0_LAYER001
  6
CONTINUOUS
 62
    4
 10
1649.2514000000001
 20
1078.5477000000001
 11
1655.6797999999999
 21
1077.5386000000001
  0
LINE
  8
_0-0_LAYER001
  6
CONTINUOUS
 62
    4
 10
1642.7979
 20
1079.8806
 11
1649.2514000000001
 21
1078.5477000000001
  0
LINE
  8
_0-0_LAYER001
  6
CONTINUOUS
 62
    4
 10
1636.4258
 20
1081.5132000000001
 11
1642.7979
 21
1079.8806
  0
LINE
  8
_0-0_LAYER001
  6
CONTINUOUS
 62
    4
 10
1630.1484
 20
1083.4367999999999
 11
1636.4258
 21
1081.5132000000001
  0
LINE
  8
_0-0_LAYER001
  6
CONTINUOUS
 62
    4
 10
1624.0612999999998
 20
1085.614
 11
1630.1484
 21
1083.4367999999999
  0
LINE
  8
_0-0_LAYER001
  6
CONTINUOUS
 62
    4
 10
1620.4357
 20
1087.0614
 11
1624.0612999999998
 21
1085.614
  0
LINE
  8
_0-0_LAYER001
  6
CONTINUOUS
 62
    4
 10
1616.1358
 20
1088.9259999999999
 11
1620.4357
 21
1087.0614
  0
LINE
  8
_0-0_LAYER001
  6
CONTINUOUS
 62
    4
 10
1609.145
 20
1092.3032000000001
 11
1616.1358
 21
1088.9259999999999
  0
LINE
  8
_0-0_LAYER001
  6
CONTINUOUS
 62
    4
 10
1602.3267999999998
 20
1095.9924000000001
 11
1609.145
 21
1092.3032000000001
  0
LINE
  8
_0-0_LAYER001
  6
CONTINUOUS
 62
    4
 10
1595.7511
 20
1099.8896999999999
 11
1602.3267999999998
 21
1095.9924000000001
  0
LINE
  8
_0-0_LAYER001
  6
CONTINUOUS
 62
    4
 10
1589.3901000000001
 20
1103.9413999999999
 11
1595.7511
 21
1099.8896999999999
  0
LINE
  8
_0-0_LAYER001
  6
CONTINUOUS
 62
    4
 10
1583.2395999999999
 20
1108.0808
 11
1589.3901000000001
 21
1103.9413999999999
  0
LINE
  8
_0-0_LAYER001
  6
CONTINUOUS
 62
    4
 10
1579.7150000000001
 20
1110.5322000000001
 11
1583.2395999999999
 21
1108.0808
  0
LINE
  8
_0-0_LAYER001
  6
CONTINUOUS
 62
    4
 10
1577.4859000000001
 20
1112.1035999999999
 11
1579.7150000000001
 21
1110.5322000000001
  0
LINE
  8
_0-0_LAYER001
  6
CONTINUOUS
 62
    4
 10
1573.8442
 20
1114.6555000000001
 11
1577.4859000000001
 21
1112.1035999999999
  0
LINE
  8
_0-0_LAYER001
  6
CONTINUOUS
 62
    4
 10
1570.4270999999999
 20
1116.9529
 11
1573.8442
 21
1114.6555000000001
  0
LINE
  8
_0-0_LAYER001
  6
CONTINUOUS
 62
    4
 10
1567.2314000000001
 20
1118.9299000000001
 11
1570.4270999999999
 21
1116.9529
  0
LINE
  8
_0-0_LAYER001
  6
CONTINUOUS
 62
    4
 10
1564.2474999999999
 20
1120.549
 11
1567.2314000000001
 21
1118.9299000000001
  0
LINE
  8
_0-0_LAYER001
  6
CONTINUOUS
 62
    4
 10
1561.2809000000002
 20
1121.8780999999999
 11
1564.2474999999999
 21
1120.549
  0
LINE
  8
_0-0_LAYER001
  6
CONTINUOUS
 62
    4
 10
1560.5309999999999
 20
1122.1509000000001
 11
1561.2809000000002
 21
1121.8780999999999
  0
LINE
  8
_0-0_LAYER001
  6
CONTINUOUS
 62
    4
 10
1560.864
 20
1142.194
 11
1560.6880000000001
 21
1122.0205000000001
  0
LINE
  8
_0-0_LAYER001
  6
CONTINUOUS
 62
    4
 10
1761.1896000000002
 20
1076.7062000000001
 11
1758.9441000000002
 21
1085.2796000000001
  0
ARC
  8
_0-0_LAYER001
  6
CONTINUOUS
 62
    4
 10
1764.0916999999999
 20
1077.4663
 40
3
 50
194.67639000000003
 51
270.00000000000006
  0
LINE
  8
_0-0_LAYER001
  6
CONTINUOUS
 62
    4
 10
1767.5342000000001
 20
1074.462
 11
1764.1163000000001
 21
1074.462
  0
LINE
  8
_0-0_LAYER001
  6
CONTINUOUS
 62
    4
 10
1770.4933000000001
 20
1076.9688000000001
 11
1772.4274
 21
1088.5728999999999
  0
ARC
  8
_0-0_LAYER001
  6
CONTINUOUS
 62
    4
 10
1767.5342000000001
 20
1077.462
 40
3
 50
270
 51
350.53766999999999
  0
LINE
  8
_0-0_LAYER001
  6
CONTINUOUS
 62
    4
 10
1513.7678999999998
 20
1151.5842
 11
1514.5817999999999
 21
1151.8907999999999
  0
LINE
  8
_0-0_LAYER001
  6
CONTINUOUS
 62
    4
 10
1514.5817999999999
 20
1151.8907999999999
 11
1518.1309999999999
 21
1153.2303999999999
  0
LINE
  8
_0-0_LAYER001
  6
CONTINUOUS
 62
    4
 10
1518.1309999999999
 20
1153.2303999999999
 11
1521.6876999999999
 21
1154.5793000000001
  0
LINE
  8
_0-0_LAYER001
  6
CONTINUOUS
 62
    4
 10
1521.6876999999999
 20
1154.5793000000001
 11
1525.2563
 21
1155.9432999999999
  0
LINE
  8
_0-0_LAYER001
  6
CONTINUOUS
 62
    4
 10
1525.2563
 20
1155.9432999999999
 11
1528.8416999999999
 21
1157.3284000000001
  0
LINE
  8
_0-0_LAYER001
  6
CONTINUOUS
 62
    4
 10
1528.8416999999999
 20
1157.3284000000001
 11
1532.4484000000002
 21
1158.7403999999999
  0
LINE
  8
_0-0_LAYER001
  6
CONTINUOUS
 62
    4
 10
1532.4484000000002
 20
1158.7403999999999
 11
1534.5518999999999
 21
1159.5740000000001
  0
LINE
  8
_0-0_LAYER001
  6
CONTINUOUS
 62
    4
 10
1534.5518999999999
 20
1159.5740000000001
 11
1536.6313
 21
1160.4029
  0
LINE
  8
_0-0_LAYER001
  6
CONTINUOUS
 62
    4
 10
1536.6313
 20
1160.4029
 11
1540.2377999999999
 21
1161.8043
  0
LINE
  8
_0-0_LAYER001
  6
CONTINUOUS
 62
    4
 10
1540.2377999999999
 20
1161.8043
 11
1543.8705
 21
1163.087
  0
LINE
  8
_0-0_LAYER001
  6
CONTINUOUS
 62
    4
 10
1543.8705
 20
1163.087
 11
1547.5284999999999
 21
1164.1536000000001
  0
LINE
  8
_0-0_LAYER001
  6
CONTINUOUS
 62
    4
 10
1547.5284999999999
 20
1164.1536000000001
 11
1551.2105999999999
 21
1164.9069
  0
LINE
  8
_0-0_LAYER001
  6
CONTINUOUS
 62
    4
 10
1551.2105999999999
 20
1164.9069
 11
1554.9159
 21
1165.2493999999999
  0
LINE
  8
_0-0_LAYER001
  6
CONTINUOUS
 62
    4
 10
1554.9159
 20
1165.2493999999999
 11
1557.0751
 21
1165.2215000000001
  0
LINE
  8
_0-0_LAYER001
  6
CONTINUOUS
 62
    4
 10
1557.0751
 20
1165.2215000000001
 11
1557.9243000000001
 21
1165.1601000000001
  0
LINE
  8
_0-0_LAYER001
  6
CONTINUOUS
 62
    4
 10
1557.9243000000001
 20
1165.1601000000001
 11
1559.3886000000002
 21
1164.9894999999999
  0
LINE
  8
_0-0_LAYER001
  6
CONTINUOUS
 62
    4
 10
1559.3886000000002
 20
1164.9894999999999
 11
1560.8497000000002
 21
1164.7428
  0
LINE
  8
_0-0_LAYER001
  6
CONTINUOUS
 62
    4
 10
1560.8497000000002
 20
1164.7428
 11
1562.3033999999998
 21
1164.4268
  0
LINE
  8
_0-0_LAYER001
  6
CONTINUOUS
 62
    4
 10
1562.3033999999998
 20
1164.4268
 11
1563.7456000000002
 21
1164.0482999999999
  0
LINE
  8
_0-0_LAYER001
  6
CONTINUOUS
 62
    4
 10
1563.7456000000002
 20
1164.0482999999999
 11
1565.172
 21
1163.6141
  0
LINE
  8
_0-0_LAYER001
  6
CONTINUOUS
 62
    4
 10
1565.172
 20
1163.6141
 11
1565.9904999999999
 21
1163.3395
  0
LINE
  8
_0-0_LAYER001
  6
CONTINUOUS
 62
    4
 10
1565.9904999999999
 20
1163.3395
 11
1568.4886999999999
 21
1162.3913
  0
LINE
  8
_0-0_LAYER001
  6
CONTINUOUS
 62
    4
 10
1568.4886999999999
 20
1162.3913
 11
1572.6475999999998
 21
1160.4577999999999
  0
LINE
  8
_0-0_LAYER001
  6
CONTINUOUS
 62
    4
 10
1572.6475999999998
 20
1160.4577999999999
 11
1576.6514000000002
 21
1158.2123999999999
  0
LINE
  8
_0-0_LAYER001
  6
CONTINUOUS
 62
    4
 10
1576.6514000000002
 20
1158.2123999999999
 11
1580.5383000000002
 21
1155.7320999999999
  0
LINE
  8
_0-0_LAYER001
  6
CONTINUOUS
 62
    4
 10
1580.5383000000002
 20
1155.7320999999999
 11
1584.3463000000002
 21
1153.0940000000001
  0
LINE
  8
_0-0_LAYER001
  6
CONTINUOUS
 62
    4
 10
1584.3463000000002
 20
1153.0940000000001
 11
1588.1134999999999
 21
1150.3749
  0
LINE
  8
_0-0_LAYER001
  6
CONTINUOUS
 62
    4
 10
1588.1134999999999
 20
1150.3749
 11
1590.2948999999999
 21
1148.7910999999999
  0
LINE
  8
_0-0_LAYER001
  6
CONTINUOUS
 62
    4
 10
1590.2948999999999
 20
1148.7910999999999
 11
1593.6264999999999
 21
1146.4041999999999
  0
LINE
  8
_0-0_LAYER001
  6
CONTINUOUS
 62
    4
 10
1593.6264999999999
 20
1146.4041999999999
 11
1599.4187000000002
 21
1142.3873000000001
  0
LINE
  8
_0-0_LAYER001
  6
CONTINUOUS
 62
    4
 10
1599.4187000000002
 20
1142.3873000000001
 11
1605.2909
 21
1138.5307
  0
LINE
  8
_0-0_LAYER001
  6
CONTINUOUS
 62
    4
 10
1605.2909
 20
1138.5307
 11
1611.2649999999999
 21
1134.8761999999999
  0
LINE
  8
_0-0_LAYER001
  6
CONTINUOUS
 62
    4
 10
1611.2649999999999
 20
1134.8761999999999
 11
1617.3631999999998
 21
1131.4657
  0
LINE
  8
_0-0_LAYER001
  6
CONTINUOUS
 62
    4
 10
1617.3631999999998
 20
1131.4657
 11
1623.6075000000001
 21
1128.3408999999999
  0
LINE
  8
_0-0_LAYER001
  6
CONTINUOUS
 62
    4
 10
1623.6075000000001
 20
1128.3408999999999
 11
1627.3047999999999
 21
1126.6759
  0
LINE
  8
_0-0_LAYER001
  6
CONTINUOUS
 62
    4
 10
1627.3047999999999
 20
1126.6759
 11
1630.364
 21
1125.4048
  0
LINE
  8
_0-0_LAYER001
  6
CONTINUOUS
 62
    4
 10
1630.364
 20
1125.4048
 11
1635.7244999999998
 21
1123.4025999999999
  0
LINE
  8
_0-0_LAYER001
  6
CONTINUOUS
 62
    4
 10
1635.7244999999998
 20
1123.4025999999999
 11
1641.1803
 21
1121.6470999999999
  0
LINE
  8
_0-0_LAYER001
  6
CONTINUOUS
 62
    4
 10
1641.1803
 20
1121.6470999999999
 11
1646.7152000000001
 21
1120.1464000000001
  0
LINE
  8
_0-0_LAYER001
  6
CONTINUOUS
 62
    4
 10
1646.7152000000001
 20
1120.1464000000001
 11
1652.3135000000002
 21
1118.9084
  0
LINE
  8
_0-0_LAYER001
  6
CONTINUOUS
 62
    4
 10
1652.3135000000002
 20
1118.9084
 11
1657.9591999999998
 21
1117.9411
  0
LINE
  8
_0-0_LAYER001
  6
CONTINUOUS
 62
    4
 10
1657.9591999999998
 20
1117.9411
 11
1661.2492000000002
 21
1117.5074
  0
LINE
  8
_0-0_LAYER001
  6
CONTINUOUS
 62
    4
 10
1661.2492000000002
 20
1117.5074
 11
1663.7685000000001
 21
1117.2396000000001
  0
LINE
  8
_0-0_LAYER001
  6
CONTINUOUS
 62
    4
 10
1663.7685000000001
 20
1117.2396000000001
 11
1668.1206000000002
 21
1116.8995
  0
LINE
  8
_0-0_LAYER001
  6
CONTINUOUS
 62
    4
 10
1668.1206000000002
 20
1116.8995
 11
1672.4807999999998
 21
1116.7001
  0
LINE
  8
_0-0_LAYER001
  6
CONTINUOUS
 62
    4
 10
1672.4807999999998
 20
1116.7001
 11
1676.846
 21
1116.6253999999999
  0
LINE
  8
_0-0_LAYER001
  6
CONTINUOUS
 62
    4
 10
1676.846
 20
1116.6253999999999
 11
1681.2130999999999
 21
1116.6597999999999
  0
LINE
  8
_0-0_LAYER001
  6
CONTINUOUS
 62
    4
 10
1681.2130999999999
 20
1116.6597999999999
 11
1685.5790000000002
 21
1116.7873999999999
  0
LINE
  8
_0-0_LAYER001
  6
CONTINUOUS
 62
    4
 10
1685.5790000000002
 20
1116.7873999999999
 11
1688.1095
 21
1116.8978999999999
  0
LINE
  8
_0-0_LAYER001
  6
CONTINUOUS
 62
    4
 10
1688.1095
 20
1116.8978999999999
 11
1692.8386
 21
1117.1660999999999
  0
LINE
  8
_0-0_LAYER001
  6
CONTINUOUS
 62
    4
 10
1692.8386
 20
1117.1660999999999
 11
1700.9767000000002
 21
1117.7971
  0
LINE
  8
_0-0_LAYER001
  6
CONTINUOUS
 62
    4
 10
1700.9767000000002
 20
1117.7971
 11
1709.0974999999999
 21
1118.6108999999999
  0
LINE
  8
_0-0_LAYER001
  6
CONTINUOUS
 62
    4
 10
1709.0974999999999
 20
1118.6108999999999
 11
1717.2033999999999
 21
1119.5722000000001
  0
LINE
  8
_0-0_LAYER001
  6
CONTINUOUS
 62
    4
 10
1717.2033999999999
 20
1119.5722000000001
 11
1725.2966999999999
 21
1120.6454000000001
  0
LINE
  8
_0-0_LAYER001
  6
CONTINUOUS
 62
    4
 10
1725.2966999999999
 20
1120.6454000000001
 11
1733.3802999999998
 21
1121.7950000000001
  0
LINE
  8
_0-0_LAYER001
  6
CONTINUOUS
 62
    4
 10
1733.3802999999998
 20
1121.7950000000001
 11
1738.0652
 21
1122.4827
  0
LINE
  8
_0-0_LAYER001
  6
CONTINUOUS
 62
    4
 10
1738.0652
 20
1122.4827
 11
1740.5001000000002
 21
1122.8435999999999
  0
LINE
  8
_0-0_LAYER001
  6
CONTINUOUS
 62
    4
 10
1740.5001000000002
 20
1122.8435999999999
 11
1744.6970000000001
 21
1123.4695999999999
  0
LINE
  8
_0-0_LAYER001
  6
CONTINUOUS
 62
    4
 10
1744.6970000000001
 20
1123.4695999999999
 11
1748.8928000000001
 21
1124.0997
  0
LINE
  8
_0-0_LAYER001
  6
CONTINUOUS
 62
    4
 10
1748.8928000000001
 20
1124.0997
 11
1753.0877
 21
1124.7329999999999
  0
LINE
  8
_0-0_LAYER001
  6
CONTINUOUS
 62
    4
 10
1753.0877
 20
1124.7329999999999
 11
1757.2818000000002
 21
1125.3686
  0
LINE
  8
_0-0_LAYER001
  6
CONTINUOUS
 62
    4
 10
1757.2818000000002
 20
1125.3686
 11
1761.4756000000002
 21
1126.0055
  0
LINE
  8
_0-0_LAYER001
  6
CONTINUOUS
 62
    4
 10
1761.4756000000002
 20
1126.0055
 11
1763.9079000000002
 21
1126.3752999999999
  0
LINE
  8
_0-0_LAYER001
  6
CONTINUOUS
 62
    4
 10
1518.8710999999998
 20
1134.2717
 11
1520.933
 21
1135.0486000000001
  0
LINE
  8
_0-0_LAYER001
  6
CONTINUOUS
 62
    4
 10
1520.933
 20
1135.0486000000001
 11
1524.5005999999998
 21
1136.3951
  0
LINE
  8
_0-0_LAYER001
  6
CONTINUOUS
 62
    4
 10
1524.5005999999998
 20
1136.3951
 11
1528.0925000000002
 21
1137.7573
  0
LINE
  8
_0-0_LAYER001
  6
CONTINUOUS
 62
    4
 10
1528.0925000000002
 20
1137.7573
 11
1531.7129
 21
1139.1411000000001
  0
LINE
  8
_0-0_LAYER001
  6
CONTINUOUS
 62
    4
 10
1531.7129
 20
1139.1411000000001
 11
1535.3658
 21
1140.5523000000001
  0
LINE
  8
_0-0_LAYER001
  6
CONTINUOUS
 62
    4
 10
1535.3658
 20
1140.5523000000001
 11
1539.0450000000001
 21
1141.9927
  0
LINE
  8
_0-0_LAYER001
  6
CONTINUOUS
 62
    4
 10
1539.0450000000001
 20
1141.9927
 11
1541.2002000000002
 21
1142.8467000000001
  0
LINE
  8
_0-0_LAYER001
  6
CONTINUOUS
 62
    4
 10
1541.2002000000002
 20
1142.8467000000001
 11
1543.2238000000002
 21
1143.6533999999999
  0
LINE
  8
_0-0_LAYER001
  6
CONTINUOUS
 62
    4
 10
1543.2238000000002
 20
1143.6533999999999
 11
1546.4956999999999
 21
1144.9248
  0
LINE
  8
_0-0_LAYER001
  6
CONTINUOUS
 62
    4
 10
1546.4956999999999
 20
1144.9248
 11
1549.3908000000001
 21
1145.9469999999999
  0
LINE
  8
_0-0_LAYER001
  6
CONTINUOUS
 62
    4
 10
1549.3908000000001
 20
1145.9469999999999
 11
1551.8589000000002
 21
1146.6667
  0
LINE
  8
_0-0_LAYER001
  6
CONTINUOUS
 62
    4
 10
1551.8589000000002
 20
1146.6667
 11
1553.8506000000002
 21
1147.0742
  0
LINE
  8
_0-0_LAYER001
  6
CONTINUOUS
 62
    4
 10
1553.8506000000002
 20
1147.0742
 11
1555.6300000000001
 21
1147.2387000000001
  0
LINE
  8
_0-0_LAYER001
  6
CONTINUOUS
 62
    4
 10
1555.6300000000001
 20
1147.2387000000001
 11
1556.3094999999998
 21
1147.2299
  0
LINE
  8
_0-0_LAYER001
  6
CONTINUOUS
 62
    4
 10
1556.3094999999998
 20
1147.2299
 11
1556.2334000000001
 21
1147.2354
  0
LINE
  8
_0-0_LAYER001
  6
CONTINUOUS
 62
    4
 10
1556.2334000000001
 20
1147.2354
 11
1556.8470000000002
 21
1147.1639
  0
LINE
  8
_0-0_LAYER001
  6
CONTINUOUS
 62
    4
 10
1556.8470000000002
 20
1147.1639
 11
1557.4373999999998
 21
1147.0642
  0
LINE
  8
_0-0_LAYER001
  6
CONTINUOUS
 62
    4
 10
1557.4373999999998
 20
1147.0642
 11
1558.1048999999998
 21
1146.9191000000001
  0
LINE
  8
_0-0_LAYER001
  6
CONTINUOUS
 62
    4
 10
1558.1048999999998
 20
1146.9191000000001
 11
1558.8384000000001
 21
1146.7266
  0
LINE
  8
_0-0_LAYER001
  6
CONTINUOUS
 62
    4
 10
1558.8384000000001
 20
1146.7266
 11
1559.6876000000002
 21
1146.4681
  0
LINE
  8
_0-0_LAYER001
  6
CONTINUOUS
 62
    4
 10
1559.6876000000002
 20
1146.4681
 11
1559.9317000000001
 21
1146.3861999999999
  0
LINE
  8
_0-0_LAYER001
  6
CONTINUOUS
 62
    4
 10
1559.9317000000001
 20
1146.3861999999999
 11
1561.4915999999998
 21
1145.7942
  0
LINE
  8
_0-0_LAYER001
  6
CONTINUOUS
 62
    4
 10
1561.4915999999998
 20
1145.7942
 11
1564.4393
 21
1144.4237000000001
  0
LINE
  8
_0-0_LAYER001
  6
CONTINUOUS
 62
    4
 10
1564.4393
 20
1144.4237000000001
 11
1567.4004
 21
1142.7630999999999
  0
LINE
  8
_0-0_LAYER001
  6
CONTINUOUS
 62
    4
 10
1567.4004
 20
1142.7630999999999
 11
1570.5681
 21
1140.7418
  0
LINE
  8
_0-0_LAYER001
  6
CONTINUOUS
 62
    4
 10
1570.5681
 20
1140.7418
 11
1573.9528
 21
1138.3969
  0
LINE
  8
_0-0_LAYER001
  6
CONTINUOUS
 62
    4
 10
1573.9528
 20
1138.3969
 11
1577.5585000000001
 21
1135.7944
  0
LINE
  8
_0-0_LAYER001
  6
CONTINUOUS
 62
    4
 10
1577.5585000000001
 20
1135.7944
 11
1579.7655
 21
1134.192
  0
LINE
  8
_0-0_LAYER001
  6
CONTINUOUS
 62
    4
 10
1579.7655
 20
1134.192
 11
1583.2554
 21
1131.6916000000001
  0
LINE
  8
_0-0_LAYER001
  6
CONTINUOUS
 62
    4
 10
1583.2554
 20
1131.6916000000001
 11
1589.3476000000001
 21
1127.4666999999999
  0
LINE
  8
_0-0_LAYER001
  6
CONTINUOUS
 62
    4
 10
1589.3476000000001
 20
1127.4666999999999
 11
1595.6514000000002
 21
1123.3266000000001
  0
LINE
  8
_0-0_LAYER001
  6
CONTINUOUS
 62
    4
 10
1595.6514000000002
 20
1123.3266000000001
 11
1602.1720999999998
 21
1119.3378
  0
LINE
  8
_0-0_LAYER001
  6
CONTINUOUS
 62
    4
 10
1602.1720999999998
 20
1119.3378
 11
1608.9380000000001
 21
1115.5537999999999
  0
LINE
  8
_0-0_LAYER001
  6
CONTINUOUS
 62
    4
 10
1608.9380000000001
 20
1115.5537999999999
 11
1615.8811000000001
 21
1112.0793000000001
  0
LINE
  8
_0-0_LAYER001
  6
CONTINUOUS
 62
    4
 10
1615.8811000000001
 20
1112.0793000000001
 11
1620.1545000000001
 21
1110.1549
  0
LINE
  8
_0-0_LAYER001
  6
CONTINUOUS
 62
    4
 10
1620.1545000000001
 20
1110.1549
 11
1623.7595999999999
 21
1108.6569999999999
  0
LINE
  8
_0-0_LAYER001
  6
CONTINUOUS
 62
    4
 10
1623.7595999999999
 20
1108.6569999999999
 11
1629.8157000000001
 21
1106.395
  0
LINE
  8
_0-0_LAYER001
  6
CONTINUOUS
 62
    4
 10
1629.8157000000001
 20
1106.395
 11
1636.0655000000002
 21
1104.384
  0
LINE
  8
_0-0_LAYER001
  6
CONTINUOUS
 62
    4
 10
1636.0655000000002
 20
1104.384
 11
1642.4142999999999
 21
1102.6626000000001
  0
LINE
  8
_0-0_LAYER001
  6
CONTINUOUS
 62
    4
 10
1642.4142999999999
 20
1102.6626000000001
 11
1648.8485000000001
 21
1101.2397000000001
  0
LINE
  8
_0-0_LAYER001
  6
CONTINUOUS
 62
    4
 10
1648.8485000000001
 20
1101.2397000000001
 11
1655.2622000000001
 21
1100.1410000000001
  0
LINE
  8
_0-0_LAYER001
  6
CONTINUOUS
 62
    4
 10
1655.2622000000001
 20
1100.1410000000001
 11
1659.1210000000001
 21
1099.6322
  0
LINE
  8
_0-0_LAYER001
  6
CONTINUOUS
 62
    4
 10
1659.1210000000001
 20
1099.6322
 11
1662.1156000000001
 21
1099.3137999999999
  0
LINE
  8
_0-0_LAYER001
  6
CONTINUOUS
 62
    4
 10
1662.1156000000001
 20
1099.3137999999999
 11
1667.0081
 21
1098.9315999999999
  0
LINE
  8
_0-0_LAYER001
  6
CONTINUOUS
 62
    4
 10
1667.0081
 20
1098.9315999999999
 11
1671.9155999999998
 21
1098.7071000000001
  0
LINE
  8
_0-0_LAYER001
  6
CONTINUOUS
 62
    4
 10
1671.9155999999998
 20
1098.7071000000001
 11
1676.7629000000002
 21
1098.6242
  0
LINE
  8
_0-0_LAYER001
  6
CONTINUOUS
 62
    4
 10
1676.7629000000002
 20
1098.6242
 11
1681.5468999999998
 21
1098.6619000000001
  0
LINE
  8
_0-0_LAYER001
  6
CONTINUOUS
 62
    4
 10
1681.5468999999998
 20
1098.6619000000001
 11
1686.2345
 21
1098.7989
  0
LINE
  8
_0-0_LAYER001
  6
CONTINUOUS
 62
    4
 10
1686.2345
 20
1098.7989
 11
1689.0117
 21
1098.9201
  0
LINE
  8
_0-0_LAYER001
  6
CONTINUOUS
 62
    4
 10
1689.0117
 20
1098.9201
 11
1694.0439999999999
 21
1099.2055
  0
LINE
  8
_0-0_LAYER001
  6
CONTINUOUS
 62
    4
 10
1694.0439999999999
 20
1099.2055
 11
1702.5702000000001
 21
1099.8666000000001
  0
LINE
  8
_0-0_LAYER001
  6
CONTINUOUS
 62
    4
 10
1702.5702000000001
 20
1099.8666000000001
 11
1711.0549999999998
 21
1100.7168999999999
  0
LINE
  8
_0-0_LAYER001
  6
CONTINUOUS
 62
    4
 10
1711.0549999999998
 20
1100.7168999999999
 11
1719.4463999999998
 21
1101.7121
  0
LINE
  8
_0-0_LAYER001
  6
CONTINUOUS
 62
    4
 10
1719.4463999999998
 20
1101.7121
 11
1727.7469999999998
 21
1102.8126999999999
  0
LINE
  8
_0-0_LAYER001
  6
CONTINUOUS
 62
    4
 10
1727.7469999999998
 20
1102.8126999999999
 11
1735.9546999999998
 21
1103.98
  0
LINE
  8
_0-0_LAYER001
  6
CONTINUOUS
 62
    4
 10
1735.9546999999998
 20
1103.98
 11
1740.6918999999998
 21
1104.6754000000001
  0
LINE
  8
_0-0_LAYER001
  6
CONTINUOUS
 62
    4
 10
1740.6918999999998
 20
1104.6754000000001
 11
1743.1471999999999
 21
1105.0392999999999
  0
LINE
  8
_0-0_LAYER001
  6
CONTINUOUS
 62
    4
 10
1743.1471999999999
 20
1105.0392999999999
 11
1747.3613
 21
1105.6678999999999
  0
LINE
  8
_0-0_LAYER001
  6
CONTINUOUS
 62
    4
 10
1747.3613
 20
1105.6678999999999
 11
1751.5729000000001
 21
1106.3003000000001
  0
LINE
  8
_0-0_LAYER001
  6
CONTINUOUS
 62
    4
 10
1751.5729000000001
 20
1106.3003000000001
 11
1755.7795999999998
 21
1106.9354000000001
  0
LINE
  8
_0-0_LAYER001
  6
CONTINUOUS
 62
    4
 10
1755.7795999999998
 20
1106.9354000000001
 11
1759.9818
 21
1107.5722000000001
  0
LINE
  8
_0-0_LAYER001
  6
CONTINUOUS
 62
    4
 10
1759.9818
 20
1107.5722000000001
 11
1764.1797000000001
 21
1108.2098000000001
  0
LINE
  8
_0-0_LAYER001
  6
CONTINUOUS
 62
    4
 10
1764.1797000000001
 20
1108.2098000000001
 11
1765.7973999999999
 21
1108.4557
  0
LINE
  8
_0-0_LAYER001
  6
CONTINUOUS
 62
    4
 10
1513.3422
 20
1151.4218000000001
 11
1513.7682
 21
1151.5849000000001
  0
ARC
  8
_0-0_LAYER001
  6
CONTINUOUS
 62
    4
 10
1514.4148
 20
1148.6201000000001
 40
3
 50
110.94902000000002
 51
178.70000000000002
  0
LINE
  8
_0-0_LAYER001
  6
CONTINUOUS
 62
    4
 10
1511.3063000000002
 20
1132.8490999999999
 11
1511.3063000000002
 21
1148.5716
  0
LINE
  8
_0-0_LAYER001
  6
CONTINUOUS
 62
    4
 10
1512.6603
 20
1131.9138
 11
1518.8350999999998
 21
1134.251
  0
ARC
  8
_0-0_LAYER001
  6
CONTINUOUS
 62
    4
 10
1512.3063000000002
 20
1132.8490999999999
 40
1
 50
180
 51
290.73165999999998
  0
LINE
  8
_0-0_LAYER001
  6
CONTINUOUS
 62
    4
 10
1776.3062
 20
1111.5269000000001
 11
1776.3062
 21
1128.7242000000001
  0
LINE
  8
_0-0_LAYER001
  6
CONTINUOUS
 62
    4
 10
1764.0328
 20
1126.4106999999999
 11
1808.4870999999998
 21
1136.0586000000001
  0
LINE
  8
_0-0_LAYER001
  6
CONTINUOUS
 62
    4
 10
1770.7779999999998
 20
1106.577
 11
1809.4497999999999
 21
1115.6269
  0
LINE
  8
_0-0_LAYER001
  6
CONTINUOUS
 62
    4
 10
1809.4497999999999
 20
1116.5834
 11
1809.4497999999999
 21
1115.6269
  0
ARC
  8
_0-0_LAYER001
  6
CONTINUOUS
 62
    4
 10
1810.4497999999999
 20
1116.5834
 40
1
 50
102.72435
 51
180
  0
LINE
  8
_0-0_LAYER001
  6
CONTINUOUS
 62
    4
 10
1815.2667999999999
 20
1118.6963000000001
 11
1810.2294999999999
 21
1117.5589
  0
ARC
  8
_0-0_LAYER001
  6
CONTINUOUS
 62
    4
 10
1815.4870999999998
 20
1117.7209
 40
1
 50
0
 51
102.72435
  0
LINE
  8
_0-0_LAYER001
  6
CONTINUOUS
 62
    4
 10
1815.6992
 20
1119.2048
 11
1765.5652
 21
1108.3242
  0
ARC
  8
_0-0_LAYER001
  6
CONTINUOUS
 62
    4
 10
1815.4870999999998
 20
1120.182
 40
1
 50
282.24497000000002
 51
0
  0
LINE
  8
_0-0_LAYER001
  6
CONTINUOUS
 62
    4
 10
1815.7049000000002
 20
1098.4639999999999
 11
1766.1210000000001
 21
1087.3961999999999
  0
LINE
  8
_0-0_LAYER001
  6
CONTINUOUS
 62
    4
 10
1816.4870999999998
 20
1099.4400000000001
 11
1816.4870999999998
 21
1117.7209
  0
ARC
  8
_0-0_LAYER001
  6
CONTINUOUS
 62
    4
 10
1815.4870999999998
 20
1099.4400000000001
 40
1
 50
282.58296000000001
 51
0.0000000000000254
  0
LINE
  8
_0-0_LAYER001
  6
CONTINUOUS
 62
    4
 10
1808.4870999999998
 20
1137.5155999999999
 11
1808.4870999999998
 21
1136.0586000000001
  0
ARC
  8
_0-0_LAYER001
  6
CONTINUOUS
 62
    4
 10
1809.4870999999998
 20
1137.5155999999999
 40
1
 50
101.73308
 51
180
  0
LINE
  8
_0-0_LAYER001
  6
CONTINUOUS
 62
    4
 10
1815.2837
 20
1139.7409
 11
1809.2837
 21
1138.4947
  0
LINE
  8
_0-0_LAYER001
  6
CONTINUOUS
 62
    4
 10
1816.4870999999998
 20
1138.7618
 11
1816.4870999999998
 21
1120.182
  0
ARC
  8
_0-0_LAYER001
  6
CONTINUOUS
 62
    4
 10
1815.4870999999998
 20
1138.7618
 40
1
 50
0
 51
101.73308
  0
LINE
  8
_0-0_LAYER001
  6
CONTINUOUS
 62
    4
 10
1371.7201
 20
1068.4940999999999
 11
1363.1846999999998
 21
1083.0273999999999
  0
LINE
  8
_0-0_LAYER001
  6
CONTINUOUS
 62
    4
 10
1379.8879999999999
 20
1067.8436999999999
 11
1388.1941999999999
 21
1077.9092000000001
  0
ARC
  8
_0-0_LAYER001
  6
CONTINUOUS
 62
    4
 10
1376.0315000000001
 20
1071.0262
 40
5
 50
210.42578
 51
320.47001
  0
LINE
  8
_0-0_LAYER001
  6
CONTINUOUS
 62
    4
 10
1455.8335999999999
 20
1067.3739
 11
1448.5082000000002
 21
1078.6799000000001
  0
LINE
  8
_0-0_LAYER001
  6
CONTINUOUS
 62
    4
 10
1464.3431
 20
1067.5637999999999
 11
1473.2815999999998
 21
1082.8095000000001
  0
ARC
  8
_0-0_LAYER001
  6
CONTINUOUS
 62
    4
 10
1460.0297999999998
 20
1070.0926999999999
 40
5
 50
212.93986000000001
 51
329.61716000000001
  0
LINE
  8
_0-0_LAYER001
  6
CONTINUOUS
 62
    4
 10
1503.6251999999999
 20
1107.1215
 11
1506.0533
 21
1107.5253
  0
LINE
  8
_0-0_LAYER001
  6
CONTINUOUS
 62
    4
 10
1499.4360999999999
 20
1106.4251999999999
 11
1503.6251999999999
 21
1107.1215
  0
LINE
  8
_0-0_LAYER001
  6
CONTINUOUS
 62
    4
 10
1495.2422999999999
 20
1105.7295999999999
 11
1499.4360999999999
 21
1106.4251999999999
  0
LINE
  8
_0-0_LAYER001
  6
CONTINUOUS
 62
    4
 10
1491.0436
 20
1105.0356999999999
 11
1495.2422999999999
 21
1105.7295999999999
  0
LINE
  8
_0-0_LAYER001
  6
CONTINUOUS
 62
    4
 10
1486.8395
 20
1104.3442
 11
1491.0436
 21
1105.0356999999999
  0
LINE
  8
_0-0_LAYER001
  6
CONTINUOUS
 62
    4
 10
1482.6327000000001
 20
1103.6565000000001
 11
1486.8395
 21
1104.3442
  0
LINE
  8
_0-0_LAYER001
  6
CONTINUOUS
 62
    4
 10
1480.1804000000002
 20
1103.258
 11
1482.6327000000001
 21
1103.6565000000001
  0
LINE
  8
_0-0_LAYER001
  6
CONTINUOUS
 62
    4
 10
1475.4476
 20
1102.4956
 11
1480.1804000000002
 21
1103.258
  0
LINE
  8
_0-0_LAYER001
  6
CONTINUOUS
 62
    4
 10
1467.2431999999999
 20
1101.2117000000001
 11
1475.4476
 21
1102.4956
  0
LINE
  8
_0-0_LAYER001
  6
CONTINUOUS
 62
    4
 10
1458.9357
 20
1099.9919
 11
1467.2431999999999
 21
1101.2117000000001
  0
LINE
  8
_0-0_LAYER001
  6
CONTINUOUS
 62
    4
 10
1450.5273999999999
 20
1098.8755000000001
 11
1458.9357
 21
1099.9919
  0
LINE
  8
_0-0_LAYER001
  6
CONTINUOUS
 62
    4
 10
1442.0149000000001
 20
1097.9021
 11
1450.5273999999999
 21
1098.8755000000001
  0
LINE
  8
_0-0_LAYER001
  6
CONTINUOUS
 62
    4
 10
1433.4557
 20
1097.1180999999999
 11
1442.0149000000001
 21
1097.9021
  0
LINE
  8
_0-0_LAYER001
  6
CONTINUOUS
 62
    4
 10
1428.3942
 20
1096.7601
 11
1433.4557
 21
1097.1180999999999
  0
LINE
  8
_0-0_LAYER001
  6
CONTINUOUS
 62
    4
 10
1425.5916
 20
1096.5985000000001
 11
1428.3942
 21
1096.7601
  0
LINE
  8
_0-0_LAYER001
  6
CONTINUOUS
 62
    4
 10
1420.8706000000002
 20
1096.3945000000001
 11
1425.5916
 21
1096.5985000000001
  0
LINE
  8
_0-0_LAYER001
  6
CONTINUOUS
 62
    4
 10
1416.0412999999999
 20
1096.2891
 11
1420.8706000000002
 21
1096.3945000000001
  0
LINE
  8
_0-0_LAYER001
  6
CONTINUOUS
 62
    4
 10
1411.1396999999999
 20
1096.3045
 11
1416.0412999999999
 21
1096.2891
  0
LINE
  8
_0-0_LAYER001
  6
CONTINUOUS
 62
    4
 10
1406.1687000000002
 20
1096.4622999999999
 11
1411.1396999999999
 21
1096.3045
  0
LINE
  8
_0-0_LAYER001
  6
CONTINUOUS
 62
    4
 10
1401.2112999999999
 20
1096.7800999999999
 11
1406.1687000000002
 21
1096.4622999999999
  0
LINE
  8
_0-0_LAYER001
  6
CONTINUOUS
 62
    4
 10
1398.1596999999999
 20
1097.0615
 11
1401.2112999999999
 21
1096.7800999999999
  0
LINE
  8
_0-0_LAYER001
  6
CONTINUOUS
 62
    4
 10
1394.2308
 20
1097.5237999999999
 11
1398.1596999999999
 21
1097.0615
  0
LINE
  8
_0-0_LAYER001
  6
CONTINUOUS
 62
    4
 10
1387.7168999999999
 20
1098.5463
 11
1394.2308
 21
1097.5237999999999
  0
LINE
  8
_0-0_LAYER001
  6
CONTINUOUS
 62
    4
 10
1381.1702
 20
1099.8985
 11
1387.7168999999999
 21
1098.5463
  0
LINE
  8
_0-0_LAYER001
  6
CONTINUOUS
 62
    4
 10
1374.7073
 20
1101.5543
 11
1381.1702
 21
1099.8985
  0
LINE
  8
_0-0_LAYER001
  6
CONTINUOUS
 62
    4
 10
1368.3413
 20
1103.5050000000001
 11
1374.7073
 21
1101.5543
  0
LINE
  8
_0-0_LAYER001
  6
CONTINUOUS
 62
    4
 10
1362.1766
 20
1105.71
 11
1368.3413
 21
1103.5050000000001
  0
LINE
  8
_0-0_LAYER001
  6
CONTINUOUS
 62
    4
 10
1358.4899
 20
1107.1818000000001
 11
1362.1766
 21
1105.71
  0
LINE
  8
_0-0_LAYER001
  6
CONTINUOUS
 62
    4
 10
1354.1257000000001
 20
1109.0743
 11
1358.4899
 21
1107.1818000000001
  0
LINE
  8
_0-0_LAYER001
  6
CONTINUOUS
 62
    4
 10
1347.0565999999999
 20
1112.4892
 11
1354.1257000000001
 21
1109.0743
  0
LINE
  8
_0-0_LAYER001
  6
CONTINUOUS
 62
    4
 10
1340.1637000000001
 20
1116.2189000000001
 11
1347.0565999999999
 21
1112.4892
  0
LINE
  8
_0-0_LAYER001
  6
CONTINUOUS
 62
    4
 10
1333.5266999999999
 20
1120.1524999999999
 11
1340.1637000000001
 21
1116.2189000000001
  0
LINE
  8
_0-0_LAYER001
  6
CONTINUOUS
 62
    4
 10
1327.1174000000001
 20
1124.2349999999999
 11
1333.5266999999999
 21
1120.1524999999999
  0
LINE
  8
_0-0_LAYER001
  6
CONTINUOUS
 62
    4
 10
1320.9331999999999
 20
1128.3970999999999
 11
1327.1174000000001
 21
1124.2349999999999
  0
LINE
  8
_0-0_LAYER001
  6
CONTINUOUS
 62
    4
 10
1317.3908000000001
 20
1130.8607999999999
 11
1320.9331999999999
 21
1128.3970999999999
  0
LINE
  8
_0-0_LAYER001
  6
CONTINUOUS
 62
    4
 10
1315.1587999999997
 20
1132.4342999999999
 11
1317.3908000000001
 21
1130.8607999999999
  0
LINE
  8
_0-0_LAYER001
  6
CONTINUOUS
 62
    4
 10
1311.5353
 20
1134.9735000000001
 11
1315.1587999999997
 21
1132.4342999999999
  0
LINE
  8
_0-0_LAYER001
  6
CONTINUOUS
 62
    4
 10
1308.1656
 20
1137.239
 11
1311.5353
 21
1134.9735000000001
  0
LINE
  8
_0-0_LAYER001
  6
CONTINUOUS
 62
    4
 10
1305.0506
 20
1139.1660999999999
 11
1308.1656
 21
1137.239
  0
LINE
  8
_0-0_LAYER001
  6
CONTINUOUS
 62
    4
 10
1302.1833999999999
 20
1140.7218
 11
1305.0506
 21
1139.1660999999999
  0
LINE
  8
_0-0_LAYER001
  6
CONTINUOUS
 62
    4
 10
1299.3523
 20
1141.9902999999999
 11
1302.1833999999999
 21
1140.7218
  0
LINE
  8
_0-0_LAYER001
  6
CONTINUOUS
 62
    4
 10
1297.8891000000001
 20
1142.5224000000001
 11
1299.3523
 21
1141.9902999999999
  0
LINE
  8
_0-0_LAYER001
  6
CONTINUOUS
 62
    4
 10
1297.7080000000001
 20
1142.5803000000001
 11
1297.8891000000001
 21
1142.5224000000001
  0
LINE
  8
_0-0_LAYER001
  6
CONTINUOUS
 62
    4
 10
1296.9196999999999
 20
1142.8082999999999
 11
1297.7080000000001
 21
1142.5803000000001
  0
LINE
  8
_0-0_LAYER001
  6
CONTINUOUS
 62
    4
 10
1296.2626
 20
1142.971
 11
1296.9196999999999
 21
1142.8082999999999
  0
LINE
  8
_0-0_LAYER001
  6
CONTINUOUS
 62
    4
 10
1295.6808000000001
 20
1143.0889999999999
 11
1296.2626
 21
1142.971
  0
LINE
  8
_0-0_LAYER001
  6
CONTINUOUS
 62
    4
 10
1295.6406999999999
 20
1143.0952
 11
1295.6808000000001
 21
1143.0889999999999
  0
LINE
  8
_0-0_LAYER001
  6
CONTINUOUS
 62
    4
 10
1499.6145999999999
 20
1087.934
 11
1501.2287000000001
 21
1088.2025000000001
  0
LINE
  8
_0-0_LAYER001
  6
CONTINUOUS
 62
    4
 10
1495.4259999999999
 20
1087.2378000000001
 11
1499.6145999999999
 21
1087.934
  0
LINE
  8
_0-0_LAYER001
  6
CONTINUOUS
 62
    4
 10
1491.2330999999999
 20
1086.5424
 11
1495.4259999999999
 21
1087.2378000000001
  0
LINE
  8
_0-0_LAYER001
  6
CONTINUOUS
 62
    4
 10
1487.0356000000002
 20
1085.8486
 11
1491.2330999999999
 21
1086.5424
  0
LINE
  8
_0-0_LAYER001
  6
CONTINUOUS
 62
    4
 10
1482.8332999999998
 20
1085.1574000000001
 11
1487.0356000000002
 21
1085.8486
  0
LINE
  8
_0-0_LAYER001
  6
CONTINUOUS
 62
    4
 10
1478.6284000000001
 20
1084.4701
 11
1482.8332999999998
 21
1085.1574000000001
  0
LINE
  8
_0-0_LAYER001
  6
CONTINUOUS
 62
    4
 10
1476.1783999999998
 20
1084.0719999999999
 11
1478.6284000000001
 21
1084.4701
  0
LINE
  8
_0-0_LAYER001
  6
CONTINUOUS
 62
    4
 10
1471.4513999999999
 20
1083.3104000000001
 11
1476.1783999999998
 21
1084.0719999999999
  0
LINE
  8
_0-0_LAYER001
  6
CONTINUOUS
 62
    4
 10
1463.2606999999998
 20
1082.0287000000001
 11
1471.4513999999999
 21
1083.3104000000001
  0
LINE
  8
_0-0_LAYER001
  6
CONTINUOUS
 62
    4
 10
1454.9762000000001
 20
1080.8123000000001
 11
1463.2606999999998
 21
1082.0287000000001
  0
LINE
  8
_0-0_LAYER001
  6
CONTINUOUS
 62
    4
 10
1446.5996
 20
1079.7001
 11
1454.9762000000001
 21
1080.8123000000001
  0
LINE
  8
_0-0_LAYER001
  6
CONTINUOUS
 62
    4
 10
1438.1273999999999
 20
1078.7312999999999
 11
1446.5996
 21
1079.7001
  0
LINE
  8
_0-0_LAYER001
  6
CONTINUOUS
 62
    4
 10
1429.6113
 20
1077.9512999999999
 11
1438.1273999999999
 21
1078.7312999999999
  0
LINE
  8
_0-0_LAYER001
  6
CONTINUOUS
 62
    4
 10
1424.5835
 20
1077.5956000000001
 11
1429.6113
 21
1077.9512999999999
  0
LINE
  8
_0-0_LAYER001
  6
CONTINUOUS
 62
    4
 10
1421.8082999999999
 20
1077.4356
 11
1424.5835
 21
1077.5956000000001
  0
LINE
  8
_0-0_LAYER001
  6
CONTINUOUS
 62
    4
 10
1417.123
 20
1077.2331999999999
 11
1421.8082999999999
 21
1077.4356
  0
LINE
  8
_0-0_LAYER001
  6
CONTINUOUS
 62
    4
 10
1412.3400999999999
 20
1077.1288
 11
1417.123
 21
1077.2331999999999
  0
LINE
  8
_0-0_LAYER001
  6
CONTINUOUS
 62
    4
 10
1407.492
 20
1077.144
 11
1412.3400999999999
 21
1077.1288
  0
LINE
  8
_0-0_LAYER001
  6
CONTINUOUS
 62
    4
 10
1402.5817999999999
 20
1077.2999
 11
1407.492
 21
1077.144
  0
LINE
  8
_0-0_LAYER001
  6
CONTINUOUS
 62
    4
 10
1397.6845000000001
 20
1077.6138000000001
 11
1402.5817999999999
 21
1077.2999
  0
LINE
  8
_0-0_LAYER001
  6
CONTINUOUS
 62
    4
 10
1394.6858
 20
1077.8904
 11
1397.6845000000001
 21
1077.6138000000001
  0
LINE
  8
_0-0_LAYER001
  6
CONTINUOUS
 62
    4
 10
1390.8202000000001
 20
1078.3452
 11
1394.6858
 21
1077.8904
  0
LINE
  8
_0-0_LAYER001
  6
CONTINUOUS
 62
    4
 10
1384.3918000000003
 20
1079.3543
 11
1390.8202000000001
 21
1078.3452
  0
LINE
  8
_0-0_LAYER001
  6
CONTINUOUS
 62
    4
 10
1377.9384
 20
1080.6872000000001
 11
1384.3918000000003
 21
1079.3543
  0
LINE
  8
_0-0_LAYER001
  6
CONTINUOUS
 62
    4
 10
1371.5662
 20
1082.3198
 11
1377.9384
 21
1080.6872000000001
  0
LINE
  8
_0-0_LAYER001
  6
CONTINUOUS
 62
    4
 10
1365.2889
 20
1084.2433000000001
 11
1371.5662
 21
1082.3198
  0
LINE
  8
_0-0_LAYER001
  6
CONTINUOUS
 62
    4
 10
1359.2018000000003
 20
1086.4204999999999
 11
1365.2889
 21
1084.2433000000001
  0
LINE
  8
_0-0_LAYER001
  6
CONTINUOUS
 62
    4
 10
1355.5761000000002
 20
1087.8679
 11
1359.2018000000003
 21
1086.4204999999999
  0
LINE
  8
_0-0_LAYER001
  6
CONTINUOUS
 62
    4
 10
1351.2763
 20
1089.7325000000001
 11
1355.5761000000002
 21
1087.8679
  0
LINE
  8
_0-0_LAYER001
  6
CONTINUOUS
 62
    4
 10
1344.2854
 20
1093.1097
 11
1351.2763
 21
1089.7325000000001
  0
LINE
  8
_0-0_LAYER001
  6
CONTINUOUS
 62
    4
 10
1337.4673000000003
 20
1096.7989
 11
1344.2854
 21
1093.1097
  0
LINE
  8
_0-0_LAYER001
  6
CONTINUOUS
 62
    4
 10
1330.8915
 20
1100.6963000000001
 11
1337.4673000000003
 21
1096.7989
  0
LINE
  8
_0-0_LAYER001
  6
CONTINUOUS
 62
    4
 10
1324.5306
 20
1104.7479000000001
 11
1330.8915
 21
1100.6963000000001
  0
LINE
  8
_0-0_LAYER001
  6
CONTINUOUS
 62
    4
 10
1318.3800000000001
 20
1108.8874000000001
 11
1324.5306
 21
1104.7479000000001
  0
LINE
  8
_0-0_LAYER001
  6
CONTINUOUS
 62
    4
 10
1314.8553999999999
 20
1111.3387
 11
1318.3800000000001
 21
1108.8874000000001
  0
LINE
  8
_0-0_LAYER001
  6
CONTINUOUS
 62
    4
 10
1312.6262999999999
 20
1112.9102
 11
1314.8553999999999
 21
1111.3387
  0
LINE
  8
_0-0_LAYER001
  6
CONTINUOUS
 62
    4
 10
1308.9846
 20
1115.4621
 11
1312.6262999999999
 21
1112.9102
  0
LINE
  8
_0-0_LAYER001
  6
CONTINUOUS
 62
    4
 10
1305.5675000000001
 20
1117.7594999999999
 11
1308.9846
 21
1115.4621
  0
LINE
  8
_0-0_LAYER001
  6
CONTINUOUS
 62
    4
 10
1302.3719000000001
 20
1119.7364
 11
1305.5675000000001
 21
1117.7594999999999
  0
LINE
  8
_0-0_LAYER001
  6
CONTINUOUS
 62
    4
 10
1299.3878999999997
 20
1121.3554999999999
 11
1302.3719000000001
 21
1119.7364
  0
LINE
  8
_0-0_LAYER001
  6
CONTINUOUS
 62
    4
 10
1296.4213999999997
 20
1122.6847
 11
1299.3878999999997
 21
1121.3554999999999
  0
LINE
  8
_0-0_LAYER001
  6
CONTINUOUS
 62
    4
 10
1295.6713999999999
 20
1122.9574
 11
1296.4213999999997
 21
1122.6847
  0
LINE
  8
_0-0_LAYER001
  6
CONTINUOUS
 62
    4
 10
1296.0045
 20
1143.0005000000001
 11
1295.8284000000001
 21
1122.8271
  0
LINE
  8
_0-0_LAYER001
  6
CONTINUOUS
 62
    4
 10
1496.3301000000001
 20
1077.5127
 11
1494.0846999999999
 21
1086.0862
  0
ARC
  8
_0-0_LAYER001
  6
CONTINUOUS
 62
    4
 10
1499.2321999999999
 20
1078.2728
 40
3
 50
194.67639000000003
 51
270.00000000000006
  0
LINE
  8
_0-0_LAYER001
  6
CONTINUOUS
 62
    4
 10
1502.6747
 20
1075.2684999999999
 11
1499.2568999999999
 21
1075.2684999999999
  0
LINE
  8
_0-0_LAYER001
  6
CONTINUOUS
 62
    4
 10
1505.6338999999998
 20
1077.7753
 11
1507.5679
 21
1089.3795
  0
ARC
  8
_0-0_LAYER001
  6
CONTINUOUS
 62
    4
 10
1502.6747
 20
1078.2684999999999
 40
3
 50
270
 51
350.53766999999999
  0
LINE
  8
_0-0_LAYER001
  6
CONTINUOUS
 62
    4
 10
1248.9083000000001
 20
1152.3906999999999
 11
1249.7221999999999
 21
1152.6974
  0
LINE
  8
_0-0_LAYER001
  6
CONTINUOUS
 62
    4
 10
1249.7221999999999
 20
1152.6974
 11
1253.2715000000001
 21
1154.037
  0
LINE
  8
_0-0_LAYER001
  6
CONTINUOUS
 62
    4
 10
1253.2715000000001
 20
1154.037
 11
1256.8280999999999
 21
1155.3858
  0
LINE
  8
_0-0_LAYER001
  6
CONTINUOUS
 62
    4
 10
1256.8280999999999
 20
1155.3858
 11
1260.3967
 21
1156.7499
  0
LINE
  8
_0-0_LAYER001
  6
CONTINUOUS
 62
    4
 10
1260.3967
 20
1156.7499
 11
1263.9820999999999
 21
1158.1349
  0
LINE
  8
_0-0_LAYER001
  6
CONTINUOUS
 62
    4
 10
1263.9820999999999
 20
1158.1349
 11
1267.5888
 21
1159.5469000000001
  0
LINE
  8
_0-0_LAYER001
  6
CONTINUOUS
 62
    4
 10
1267.5888
 20
1159.5469000000001
 11
1269.6922999999999
 21
1160.3805
  0
LINE
  8
_0-0_LAYER001
  6
CONTINUOUS
 62
    4
 10
1269.6922999999999
 20
1160.3805
 11
1271.7717
 21
1161.2094
  0
LINE
  8
_0-0_LAYER001
  6
CONTINUOUS
 62
    4
 10
1271.7717
 20
1161.2094
 11
1275.3782000000001
 21
1162.6107999999999
  0
LINE
  8
_0-0_LAYER001
  6
CONTINUOUS
 62
    4
 10
1275.3782000000001
 20
1162.6107999999999
 11
1279.0109
 21
1163.8934999999999
  0
LINE
  8
_0-0_LAYER001
  6
CONTINUOUS
 62
    4
 10
1279.0109
 20
1163.8934999999999
 11
1282.6688999999999
 21
1164.9602
  0
LINE
  8
_0-0_LAYER001
  6
CONTINUOUS
 62
    4
 10
1282.6688999999999
 20
1164.9602
 11
1286.3510000000001
 21
1165.7134000000001
  0
LINE
  8
_0-0_LAYER001
  6
CONTINUOUS
 62
    4
 10
1286.3510000000001
 20
1165.7134000000001
 11
1290.0563
 21
1166.0559000000001
  0
LINE
  8
_0-0_LAYER001
  6
CONTINUOUS
 62
    4
 10
1290.0563
 20
1166.0559000000001
 11
1292.2156
 21
1166.028
  0
LINE
  8
_0-0_LAYER001
  6
CONTINUOUS
 62
    4
 10
1292.2156
 20
1166.028
 11
1293.0646999999999
 21
1165.9666999999999
  0
LINE
  8
_0-0_LAYER001
  6
CONTINUOUS
 62
    4
 10
1293.0646999999999
 20
1165.9666999999999
 11
1294.5291
 21
1165.7961
  0
LINE
  8
_0-0_LAYER001
  6
CONTINUOUS
 62
    4
 10
1294.5291
 20
1165.7961
 11
1295.9902
 21
1165.5494000000001
  0
LINE
  8
_0-0_LAYER001
  6
CONTINUOUS
 62
    4
 10
1295.9902
 20
1165.5494000000001
 11
1297.4439000000002
 21
1165.2333000000001
  0
LINE
  8
_0-0_LAYER001
  6
CONTINUOUS
 62
    4
 10
1297.4439000000002
 20
1165.2333000000001
 11
1298.886
 21
1164.8548000000001
  0
LINE
  8
_0-0_LAYER001
  6
CONTINUOUS
 62
    4
 10
1298.886
 20
1164.8548000000001
 11
1300.3124
 21
1164.4206999999999
  0
LINE
  8
_0-0_LAYER001
  6
CONTINUOUS
 62
    4
 10
1300.3124
 20
1164.4206999999999
 11
1301.1309000000001
 21
1164.1460999999999
  0
LINE
  8
_0-0_LAYER001
  6
CONTINUOUS
 62
    4
 10
1301.1309000000001
 20
1164.1460999999999
 11
1303.6291000000001
 21
1163.1978999999999
  0
LINE
  8
_0-0_LAYER001
  6
CONTINUOUS
 62
    4
 10
1303.6291000000001
 20
1163.1978999999999
 11
1307.788
 21
1161.2643
  0
LINE
  8
_0-0_LAYER001
  6
CONTINUOUS
 62
    4
 10
1307.788
 20
1161.2643
 11
1311.7919000000002
 21
1159.0189
  0
LINE
  8
_0-0_LAYER001
  6
CONTINUOUS
 62
    4
 10
1311.7919000000002
 20
1159.0189
 11
1315.6786999999999
 21
1156.5387000000001
  0
LINE
  8
_0-0_LAYER001
  6
CONTINUOUS
 62
    4
 10
1315.6786999999999
 20
1156.5387000000001
 11
1319.4866999999999
 21
1153.9005
  0
LINE
  8
_0-0_LAYER001
  6
CONTINUOUS
 62
    4
 10
1319.4866999999999
 20
1153.9005
 11
1323.2539999999999
 21
1151.1813999999999
  0
LINE
  8
_0-0_LAYER001
  6
CONTINUOUS
 62
    4
 10
1323.2539999999999
 20
1151.1813999999999
 11
1325.4353000000001
 21
1149.5976000000001
  0
LINE
  8
_0-0_LAYER001
  6
CONTINUOUS
 62
    4
 10
1325.4353000000001
 20
1149.5976000000001
 11
1328.7669000000001
 21
1147.2108000000001
  0
LINE
  8
_0-0_LAYER001
  6
CONTINUOUS
 62
    4
 10
1328.7669000000001
 20
1147.2108000000001
 11
1334.5590999999999
 21
1143.1938
  0
LINE
  8
_0-0_LAYER001
  6
CONTINUOUS
 62
    4
 10
1334.5590999999999
 20
1143.1938
 11
1340.4313
 21
1139.3371999999999
  0
LINE
  8
_0-0_LAYER001
  6
CONTINUOUS
 62
    4
 10
1340.4313
 20
1139.3371999999999
 11
1346.4054000000001
 21
1135.6828
  0
LINE
  8
_0-0_LAYER001
  6
CONTINUOUS
 62
    4
 10
1346.4054000000001
 20
1135.6828
 11
1352.5036
 21
1132.2722000000001
  0
LINE
  8
_0-0_LAYER001
  6
CONTINUOUS
 62
    4
 10
1352.5036
 20
1132.2722000000001
 11
1358.7479000000003
 21
1129.1474000000001
  0
LINE
  8
_0-0_LAYER001
  6
CONTINUOUS
 62
    4
 10
1358.7479000000003
 20
1129.1474000000001
 11
1362.4452000000001
 21
1127.4824000000001
  0
LINE
  8
_0-0_LAYER001
  6
CONTINUOUS
 62
    4
 10
1362.4452000000001
 20
1127.4824000000001
 11
1365.5044
 21
1126.2112999999999
  0
LINE
  8
_0-0_LAYER001
  6
CONTINUOUS
 62
    4
 10
1365.5044
 20
1126.2112999999999
 11
1370.865
 21
1124.2092
  0
LINE
  8
_0-0_LAYER001
  6
CONTINUOUS
 62
    4
 10
1370.865
 20
1124.2092
 11
1376.3207
 21
1122.4537
  0
LINE
  8
_0-0_LAYER001
  6
CONTINUOUS
 62
    4
 10
1376.3207
 20
1122.4537
 11
1381.8556000000001
 21
1120.9529
  0
LINE
  8
_0-0_LAYER001
  6
CONTINUOUS
 62
    4
 10
1381.8556000000001
 20
1120.9529
 11
1387.454
 21
1119.7148999999999
  0
LINE
  8
_0-0_LAYER001
  6
CONTINUOUS
 62
    4
 10
1387.454
 20
1119.7148999999999
 11
1393.0997
 21
1118.7476999999999
  0
LINE
  8
_0-0_LAYER001
  6
CONTINUOUS
 62
    4
 10
1393.0997
 20
1118.7476999999999
 11
1396.3896999999999
 21
1118.3140000000001
  0
LINE
  8
_0-0_LAYER001
  6
CONTINUOUS
 62
    4
 10
1396.3896999999999
 20
1118.3140000000001
 11
1398.9088999999999
 21
1118.0461
  0
LINE
  8
_0-0_LAYER001
  6
CONTINUOUS
 62
    4
 10
1398.9088999999999
 20
1118.0461
 11
1403.261
 21
1117.7061000000001
  0
LINE
  8
_0-0_LAYER001
  6
CONTINUOUS
 62
    4
 10
1403.261
 20
1117.7061000000001
 11
1407.6212
 21
1117.5065999999999
  0
LINE
  8
_0-0_LAYER001
  6
CONTINUOUS
 62
    4
 10
1407.6212
 20
1117.5065999999999
 11
1411.9864000000002
 21
1117.432
  0
LINE
  8
_0-0_LAYER001
  6
CONTINUOUS
 62
    4
 10
1411.9864000000002
 20
1117.432
 11
1416.3535999999999
 21
1117.4664
  0
LINE
  8
_0-0_LAYER001
  6
CONTINUOUS
 62
    4
 10
1416.3535999999999
 20
1117.4664
 11
1420.7194999999999
 21
1117.5939000000001
  0
LINE
  8
_0-0_LAYER001
  6
CONTINUOUS
 62
    4
 10
1420.7194999999999
 20
1117.5939000000001
 11
1423.2499000000003
 21
1117.7044000000001
  0
LINE
  8
_0-0_LAYER001
  6
CONTINUOUS
 62
    4
 10
1423.2499000000003
 20
1117.7044000000001
 11
1427.979
 21
1117.9726000000001
  0
LINE
  8
_0-0_LAYER001
  6
CONTINUOUS
 62
    4
 10
1427.979
 20
1117.9726000000001
 11
1436.1172000000001
 21
1118.6035999999999
  0
LINE
  8
_0-0_LAYER001
  6
CONTINUOUS
 62
    4
 10
1436.1172000000001
 20
1118.6035999999999
 11
1444.2379000000001
 21
1119.4175
  0
LINE
  8
_0-0_LAYER001
  6
CONTINUOUS
 62
    4
 10
1444.2379000000001
 20
1119.4175
 11
1452.3438000000001
 21
1120.3787
  0
LINE
  8
_0-0_LAYER001
  6
CONTINUOUS
 62
    4
 10
1452.3438000000001
 20
1120.3787
 11
1460.4371999999998
 21
1121.4519
  0
LINE
  8
_0-0_LAYER001
  6
CONTINUOUS
 62
    4
 10
1460.4371999999998
 20
1121.4519
 11
1468.5207999999998
 21
1122.6015
  0
LINE
  8
_0-0_LAYER001
  6
CONTINUOUS
 62
    4
 10
1468.5207999999998
 20
1122.6015
 11
1473.2057
 21
1123.2892999999999
  0
LINE
  8
_0-0_LAYER001
  6
CONTINUOUS
 62
    4
 10
1473.2057
 20
1123.2892999999999
 11
1475.6406000000002
 21
1123.6501000000001
  0
LINE
  8
_0-0_LAYER001
  6
CONTINUOUS
 62
    4
 10
1475.6406000000002
 20
1123.6501000000001
 11
1479.8375999999998
 21
1124.2761
  0
LINE
  8
_0-0_LAYER001
  6
CONTINUOUS
 62
    4
 10
1479.8375999999998
 20
1124.2761
 11
1484.0333000000001
 21
1124.9061999999999
  0
LINE
  8
_0-0_LAYER001
  6
CONTINUOUS
 62
    4
 10
1484.0333000000001
 20
1124.9061999999999
 11
1488.2282
 21
1125.5395000000001
  0
LINE
  8
_0-0_LAYER001
  6
CONTINUOUS
 62
    4
 10
1488.2282
 20
1125.5395000000001
 11
1492.4223000000002
 21
1126.1750999999999
  0
LINE
  8
_0-0_LAYER001
  6
CONTINUOUS
 62
    4
 10
1492.4223000000002
 20
1126.1750999999999
 11
1496.6161000000002
 21
1126.8121000000001
  0
LINE
  8
_0-0_LAYER001
  6
CONTINUOUS
 62
    4
 10
1496.6161000000002
 20
1126.8121000000001
 11
1499.0484000000001
 21
1127.1818000000001
  0
LINE
  8
_0-0_LAYER001
  6
CONTINUOUS
 62
    4
 10
1254.0115000000001
 20
1135.0781999999999
 11
1256.0734
 21
1135.8551
  0
LINE
  8
_0-0_LAYER001
  6
CONTINUOUS
 62
    4
 10
1256.0734
 20
1135.8551
 11
1259.6410000000001
 21
1137.2016000000001
  0
LINE
  8
_0-0_LAYER001
  6
CONTINUOUS
 62
    4
 10
1259.6410000000001
 20
1137.2016000000001
 11
1263.2329
 21
1138.5639000000001
  0
LINE
  8
_0-0_LAYER001
  6
CONTINUOUS
 62
    4
 10
1263.2329
 20
1138.5639000000001
 11
1266.8533
 21
1139.9476999999999
  0
LINE
  8
_0-0_LAYER001
  6
CONTINUOUS
 62
    4
 10
1266.8533
 20
1139.9476999999999
 11
1270.5063
 21
1141.3588999999999
  0
LINE
  8
_0-0_LAYER001
  6
CONTINUOUS
 62
    4
 10
1270.5063
 20
1141.3588999999999
 11
1274.1854000000001
 21
1142.7991999999999
  0
LINE
  8
_0-0_LAYER001
  6
CONTINUOUS
 62
    4
 10
1274.1854000000001
 20
1142.7991999999999
 11
1276.3406
 21
1143.6532999999999
  0
LINE
  8
_0-0_LAYER001
  6
CONTINUOUS
 62
    4
 10
1276.3406
 20
1143.6532999999999
 11
1278.3642
 21
1144.4599000000001
  0
LINE
  8
_0-0_LAYER001
  6
CONTINUOUS
 62
    4
 10
1278.3642
 20
1144.4599000000001
 11
1281.6361000000002
 21
1145.7312999999999
  0
LINE
  8
_0-0_LAYER001
  6
CONTINUOUS
 62
    4
 10
1281.6361000000002
 20
1145.7312999999999
 11
1284.5311999999999
 21
1146.7536
  0
LINE
  8
_0-0_LAYER001
  6
CONTINUOUS
 62
    4
 10
1284.5311999999999
 20
1146.7536
 11
1286.9992999999999
 21
1147.4733000000001
  0
LINE
  8
_0-0_LAYER001
  6
CONTINUOUS
 62
    4
 10
1286.9992999999999
 20
1147.4733000000001
 11
1288.9911000000002
 21
1147.8806999999999
  0
LINE
  8
_0-0_LAYER001
  6
CONTINUOUS
 62
    4
 10
1288.9911000000002
 20
1147.8806999999999
 11
1290.7704000000001
 21
1148.0452
  0
LINE
  8
_0-0_LAYER001
  6
CONTINUOUS
 62
    4
 10
1290.7704000000001
 20
1148.0452
 11
1291.4499000000001
 21
1148.0364
  0
LINE
  8
_0-0_LAYER001
  6
CONTINUOUS
 62
    4
 10
1291.4499000000001
 20
1148.0364
 11
1291.3738000000001
 21
1148.0418999999999
  0
LINE
  8
_0-0_LAYER001
  6
CONTINUOUS
 62
    4
 10
1291.3738000000001
 20
1148.0418999999999
 11
1291.9875
 21
1147.9703999999999
  0
LINE
  8
_0-0_LAYER001
  6
CONTINUOUS
 62
    4
 10
1291.9875
 20
1147.9703999999999
 11
1292.5779
 21
1147.8706999999999
  0
LINE
  8
_0-0_LAYER001
  6
CONTINUOUS
 62
    4
 10
1292.5779
 20
1147.8706999999999
 11
1293.2453
 21
1147.7256
  0
LINE
  8
_0-0_LAYER001
  6
CONTINUOUS
 62
    4
 10
1293.2453
 20
1147.7256
 11
1293.9789000000001
 21
1147.5331000000001
  0
LINE
  8
_0-0_LAYER001
  6
CONTINUOUS
 62
    4
 10
1293.9789000000001
 20
1147.5331000000001
 11
1294.828
 21
1147.2746999999999
  0
LINE
  8
_0-0_LAYER001
  6
CONTINUOUS
 62
    4
 10
1294.828
 20
1147.2746999999999
 11
1295.0721000000001
 21
1147.1928
  0
LINE
  8
_0-0_LAYER001
  6
CONTINUOUS
 62
    4
 10
1295.0721000000001
 20
1147.1928
 11
1296.6320000000001
 21
1146.6007
  0
LINE
  8
_0-0_LAYER001
  6
CONTINUOUS
 62
    4
 10
1296.6320000000001
 20
1146.6007
 11
1299.5796999999998
 21
1145.2302999999999
  0
LINE
  8
_0-0_LAYER001
  6
CONTINUOUS
 62
    4
 10
1299.5796999999998
 20
1145.2302999999999
 11
1302.5407999999998
 21
1143.5697
  0
LINE
  8
_0-0_LAYER001
  6
CONTINUOUS
 62
    4
 10
1302.5407999999998
 20
1143.5697
 11
1305.7085000000002
 21
1141.5482999999999
  0
LINE
  8
_0-0_LAYER001
  6
CONTINUOUS
 62
    4
 10
1305.7085000000002
 20
1141.5482999999999
 11
1309.0932
 21
1139.2034000000001
  0
LINE
  8
_0-0_LAYER001
  6
CONTINUOUS
 62
    4
 10
1309.0932
 20
1139.2034000000001
 11
1312.6989000000001
 21
1136.6008999999999
  0
LINE
  8
_0-0_LAYER001
  6
CONTINUOUS
 62
    4
 10
1312.6989000000001
 20
1136.6008999999999
 11
1314.9059
 21
1134.9984999999999
  0
LINE
  8
_0-0_LAYER001
  6
CONTINUOUS
 62
    4
 10
1314.9059
 20
1134.9984999999999
 11
1318.3959
 21
1132.4982
  0
LINE
  8
_0-0_LAYER001
  6
CONTINUOUS
 62
    4
 10
1318.3959
 20
1132.4982
 11
1324.4880000000001
 21
1128.2732000000001
  0
LINE
  8
_0-0_LAYER001
  6
CONTINUOUS
 62
    4
 10
1324.4880000000001
 20
1128.2732000000001
 11
1330.7918
 21
1124.1332
  0
LINE
  8
_0-0_LAYER001
  6
CONTINUOUS
 62
    4
 10
1330.7918
 20
1124.1332
 11
1337.3125
 21
1120.1443999999999
  0
LINE
  8
_0-0_LAYER001
  6
CONTINUOUS
 62
    4
 10
1337.3125
 20
1120.1443999999999
 11
1344.0784000000003
 21
1116.3604
  0
LINE
  8
_0-0_LAYER001
  6
CONTINUOUS
 62
    4
 10
1344.0784000000003
 20
1116.3604
 11
1351.0214999999998
 21
1112.8859
  0
LINE
  8
_0-0_LAYER001
  6
CONTINUOUS
 62
    4
 10
1351.0214999999998
 20
1112.8859
 11
1355.2949000000001
 21
1110.9613999999999
  0
LINE
  8
_0-0_LAYER001
  6
CONTINUOUS
 62
    4
 10
1355.2949000000001
 20
1110.9613999999999
 11
1358.9000000000001
 21
1109.4635000000001
  0
LINE
  8
_0-0_LAYER001
  6
CONTINUOUS
 62
    4
 10
1358.9000000000001
 20
1109.4635000000001
 11
1364.9560999999999
 21
1107.2016000000001
  0
LINE
  8
_0-0_LAYER001
  6
CONTINUOUS
 62
    4
 10
1364.9560999999999
 20
1107.2016000000001
 11
1371.2058999999999
 21
1105.1905999999999
  0
LINE
  8
_0-0_LAYER001
  6
CONTINUOUS
 62
    4
 10
1371.2058999999999
 20
1105.1905999999999
 11
1377.5547000000001
 21
1103.4692
  0
LINE
  8
_0-0_LAYER001
  6
CONTINUOUS
 62
    4
 10
1377.5547000000001
 20
1103.4692
 11
1383.9888999999998
 21
1102.0463
  0
LINE
  8
_0-0_LAYER001
  6
CONTINUOUS
 62
    4
 10
1383.9888999999998
 20
1102.0463
 11
1390.4025999999999
 21
1100.9475
  0
LINE
  8
_0-0_LAYER001
  6
CONTINUOUS
 62
    4
 10
1390.4025999999999
 20
1100.9475
 11
1394.2614000000001
 21
1100.4387999999999
  0
LINE
  8
_0-0_LAYER001
  6
CONTINUOUS
 62
    4
 10
1394.2614000000001
 20
1100.4387999999999
 11
1397.2560000000001
 21
1100.1204
  0
LINE
  8
_0-0_LAYER001
  6
CONTINUOUS
 62
    4
 10
1397.2560000000001
 20
1100.1204
 11
1402.1485000000002
 21
1099.7381
  0
LINE
  8
_0-0_LAYER001
  6
CONTINUOUS
 62
    4
 10
1402.1485000000002
 20
1099.7381
 11
1407.056
 21
1099.5137
  0
LINE
  8
_0-0_LAYER001
  6
CONTINUOUS
 62
    4
 10
1407.056
 20
1099.5137
 11
1411.9033999999999
 21
1099.4308000000001
  0
LINE
  8
_0-0_LAYER001
  6
CONTINUOUS
 62
    4
 10
1411.9033999999999
 20
1099.4308000000001
 11
1416.6873000000001
 21
1099.4684
  0
LINE
  8
_0-0_LAYER001
  6
CONTINUOUS
 62
    4
 10
1416.6873000000001
 20
1099.4684
 11
1421.375
 21
1099.6053999999999
  0
LINE
  8
_0-0_LAYER001
  6
CONTINUOUS
 62
    4
 10
1421.375
 20
1099.6053999999999
 11
1424.1521
 21
1099.7266999999999
  0
LINE
  8
_0-0_LAYER001
  6
CONTINUOUS
 62
    4
 10
1424.1521
 20
1099.7266999999999
 11
1429.1844000000001
 21
1100.0119999999999
  0
LINE
  8
_0-0_LAYER001
  6
CONTINUOUS
 62
    4
 10
1429.1844000000001
 20
1100.0119999999999
 11
1437.7105999999999
 21
1100.6731
  0
LINE
  8
_0-0_LAYER001
  6
CONTINUOUS
 62
    4
 10
1437.7105999999999
 20
1100.6731
 11
1446.1954999999998
 21
1101.5235
  0
LINE
  8
_0-0_LAYER001
  6
CONTINUOUS
 62
    4
 10
1446.1954999999998
 20
1101.5235
 11
1454.5868
 21
1102.5186000000001
  0
LINE
  8
_0-0_LAYER001
  6
CONTINUOUS
 62
    4
 10
1454.5868
 20
1102.5186000000001
 11
1462.8874999999998
 21
1103.6193000000001
  0
LINE
  8
_0-0_LAYER001
  6
CONTINUOUS
 62
    4
 10
1462.8874999999998
 20
1103.6193000000001
 11
1471.0952000000002
 21
1104.7864999999999
  0
LINE
  8
_0-0_LAYER001
  6
CONTINUOUS
 62
    4
 10
1471.0952000000002
 20
1104.7864999999999
 11
1475.8323999999998
 21
1105.482
  0
LINE
  8
_0-0_LAYER001
  6
CONTINUOUS
 62
    4
 10
1475.8323999999998
 20
1105.482
 11
1478.2876999999999
 21
1105.8458000000001
  0
LINE
  8
_0-0_LAYER001
  6
CONTINUOUS
 62
    4
 10
1478.2876999999999
 20
1105.8458000000001
 11
1482.5018
 21
1106.4744000000001
  0
LINE
  8
_0-0_LAYER001
  6
CONTINUOUS
 62
    4
 10
1482.5018
 20
1106.4744000000001
 11
1486.7134000000001
 21
1107.1069
  0
LINE
  8
_0-0_LAYER001
  6
CONTINUOUS
 62
    4
 10
1486.7134000000001
 20
1107.1069
 11
1490.9200999999998
 21
1107.7419
  0
LINE
  8
_0-0_LAYER001
  6
CONTINUOUS
 62
    4
 10
1490.9200999999998
 20
1107.7419
 11
1495.1223
 21
1108.3787
  0
LINE
  8
_0-0_LAYER001
  6
CONTINUOUS
 62
    4
 10
1495.1223
 20
1108.3787
 11
1499.3202000000001
 21
1109.0164
  0
LINE
  8
_0-0_LAYER001
  6
CONTINUOUS
 62
    4
 10
1499.3202000000001
 20
1109.0164
 11
1500.9378999999999
 21
1109.2623000000001
  0
LINE
  8
_0-0_LAYER001
  6
CONTINUOUS
 62
    4
 10
1248.4827
 20
1152.2284
 11
1248.9087
 21
1152.3915
  0
ARC
  8
_0-0_LAYER001
  6
CONTINUOUS
 62
    4
 10
1249.5553
 20
1149.4267
 40
3
 50
110.94902000000002
 51
178.70000000000002
  0
LINE
  8
_0-0_LAYER001
  6
CONTINUOUS
 62
    4
 10
1246.4467
 20
1133.6556
 11
1246.4467
 21
1149.3780999999999
  0
LINE
  8
_0-0_LAYER001
  6
CONTINUOUS
 62
    4
 10
1247.8007
 20
1132.7203999999999
 11
1253.9756
 21
1135.0576000000001
  0
ARC
  8
_0-0_LAYER001
  6
CONTINUOUS
 62
    4
 10
1247.4467
 20
1133.6556
 40
1
 50
180
 51
290.73165999999998
  0
LINE
  8
_0-0_LAYER001
  6
CONTINUOUS
 62
    4
 10
1511.4467
 20
1112.3334
 11
1511.4467
 21
1129.5308
  0
LINE
  8
_0-0_LAYER001
  6
CONTINUOUS
 62
    4
 10
1499.1732999999999
 20
1127.2172
 11
1543.6275999999998
 21
1136.8651
  0
LINE
  8
_0-0_LAYER001
  6
CONTINUOUS
 62
    4
 10
1505.9185000000002
 20
1107.3834999999999
 11
1544.5902999999998
 21
1116.4335000000001
  0
LINE
  8
_0-0_LAYER001
  6
CONTINUOUS
 62
    4
 10
1544.5902999999998
 20
1117.3900000000001
 11
1544.5902999999998
 21
1116.4335000000001
  0
ARC
  8
_0-0_LAYER001
  6
CONTINUOUS
 62
    4
 10
1545.5902999999998
 20
1117.3900000000001
 40
1
 50
102.72435
 51
180
  0
LINE
  8
_0-0_LAYER001
  6
CONTINUOUS
 62
    4
 10
1550.4072999999999
 20
1119.5029
 11
1545.3699999999999
 21
1118.3653999999999
  0
ARC
  8
_0-0_LAYER001
  6
CONTINUOUS
 62
    4
 10
1550.6275999999998
 20
1118.5273999999999
 40
1
 50
0
 51
102.72435
  0
LINE
  8
_0-0_LAYER001
  6
CONTINUOUS
 62
    4
 10
1550.8397
 20
1120.0112999999999
 11
1500.7057
 21
1109.1307999999999
  0
ARC
  8
_0-0_LAYER001
  6
CONTINUOUS
 62
    4
 10
1550.6275999999998
 20
1120.9885999999999
 40
1
 50
282.24497000000002
 51
0
  0
LINE
  8
_0-0_LAYER001
  6
CONTINUOUS
 62
    4
 10
1550.8454000000002
 20
1099.2706000000001
 11
1501.2615000000001
 21
1088.2027
  0
LINE
  8
_0-0_LAYER001
  6
CONTINUOUS
 62
    4
 10
1551.6275999999998
 20
1100.2465999999999
 11
1551.6275999999998
 21
1118.5273999999999
  0
ARC
  8
_0-0_LAYER001
  6
CONTINUOUS
 62
    4
 10
1550.6275999999998
 20
1100.2465999999999
 40
1
 50
282.58296000000001
 51
0.0000000000000254
  0
LINE
  8
_0-0_LAYER001
  6
CONTINUOUS
 62
    4
 10
1543.6275999999998
 20
1138.3221000000001
 11
1543.6275999999998
 21
1136.8651
  0
ARC
  8
_0-0_LAYER001
  6
CONTINUOUS
 62
    4
 10
1544.6275999999998
 20
1138.3221000000001
 40
1
 50
101.73308
 51
180
  0
LINE
  8
_0-0_LAYER001
  6
CONTINUOUS
 62
    4
 10
1550.4241999999999
 20
1140.5473999999999
 11
1544.4241999999999
 21
1139.3012000000001
  0
LINE
  8
_0-0_LAYER001
  6
CONTINUOUS
 62
    4
 10
1551.6275999999998
 20
1139.5682999999999
 11
1551.6275999999998
 21
1120.9885999999999
  0
ARC
  8
_0-0_LAYER001
  6
CONTINUOUS
 62
    4
 10
1550.6275999999998
 20
1139.5682999999999
 40
1
 50
0
 51
101.73308
  0
LINE
  8
_0-0_LAYER001
  6
CONTINUOUS
 62
    4
 10
1028.8744999999999
 20
1146.7265
 11
1033.1504
 21
1144.7759000000001
  0
LINE
  8
_0-0_LAYER001
  6
CONTINUOUS
 62
    4
 10
1033.1504
 20
1144.7759000000001
 11
1040.4749999999999
 21
1141.4639999999999
  0
LINE
  8
_0-0_LAYER001
  6
CONTINUOUS
 62
    4
 10
1040.4749999999999
 20
1141.4639999999999
 11
1047.7257999999999
 21
1138.2664
  0
LINE
  8
_0-0_LAYER001
  6
CONTINUOUS
 62
    4
 10
1047.7257999999999
 20
1138.2664
 11
1054.9169999999999
 21
1135.2252000000001
  0
LINE
  8
_0-0_LAYER001
  6
CONTINUOUS
 62
    4
 10
1054.9169999999999
 20
1135.2252000000001
 11
1062.0613000000001
 21
1132.3806999999999
  0
LINE
  8
_0-0_LAYER001
  6
CONTINUOUS
 62
    4
 10
1062.0613000000001
 20
1132.3806999999999
 11
1069.2358999999999
 21
1129.7476999999999
  0
LINE
  8
_0-0_LAYER001
  6
CONTINUOUS
 62
    4
 10
1069.2358999999999
 20
1129.7476999999999
 11
1073.3257000000001
 21
1128.3643
  0
LINE
  8
_0-0_LAYER001
  6
CONTINUOUS
 62
    4
 10
1073.3257000000001
 20
1128.3643
 11
1076.2143000000001
 21
1127.4438
  0
LINE
  8
_0-0_LAYER001
  6
CONTINUOUS
 62
    4
 10
1076.2143000000001
 20
1127.4438
 11
1081.4218000000001
 21
1125.8931
  0
LINE
  8
_0-0_LAYER001
  6
CONTINUOUS
 62
    4
 10
1081.4218000000001
 20
1125.8931
 11
1086.6677999999999
 21
1124.4541999999999
  0
LINE
  8
_0-0_LAYER001
  6
CONTINUOUS
 62
    4
 10
1086.6677999999999
 20
1124.4541999999999
 11
1091.9942000000001
 21
1123.1011000000001
  0
LINE
  8
_0-0_LAYER001
  6
CONTINUOUS
 62
    4
 10
1091.9942000000001
 20
1123.1011000000001
 11
1097.3955000000001
 21
1121.8214
  0
LINE
  8
_0-0_LAYER001
  6
CONTINUOUS
 62
    4
 10
1097.3955000000001
 20
1121.8214
 11
1102.883
 21
1120.5985000000001
  0
LINE
  8
_0-0_LAYER001
  6
CONTINUOUS
 62
    4
 10
1102.883
 20
1120.5985000000001
 11
1106.0646999999999
 21
1119.9185
  0
LINE
  8
_0-0_LAYER001
  6
CONTINUOUS
 62
    4
 10
1106.0646999999999
 20
1119.9185
 11
1108.5187000000001
 21
1119.4069
  0
LINE
  8
_0-0_LAYER001
  6
CONTINUOUS
 62
    4
 10
1108.5187000000001
 20
1119.4069
 11
1112.7626
 21
1118.5572
  0
LINE
  8
_0-0_LAYER001
  6
CONTINUOUS
 62
    4
 10
1112.7626
 20
1118.5572
 11
1116.9262000000001
 21
1117.7827
  0
LINE
  8
_0-0_LAYER001
  6
CONTINUOUS
 62
    4
 10
1116.9262000000001
 20
1117.7827
 11
1121.0228999999999
 21
1117.0962999999999
  0
LINE
  8
_0-0_LAYER001
  6
CONTINUOUS
 62
    4
 10
1121.0228999999999
 20
1117.0962999999999
 11
1125.0524
 21
1116.5128999999999
  0
LINE
  8
_0-0_LAYER001
  6
CONTINUOUS
 62
    4
 10
1125.0524
 20
1116.5128999999999
 11
1129.077
 21
1116.0386000000001
  0
LINE
  8
_0-0_LAYER001
  6
CONTINUOUS
 62
    4
 10
1129.077
 20
1116.0386000000001
 11
1131.2959000000001
 21
1115.8307
  0
LINE
  8
_0-0_LAYER001
  6
CONTINUOUS
 62
    4
 10
1131.2959000000001
 20
1115.8307
 11
1133.5072
 21
1115.6652999999999
  0
LINE
  8
_0-0_LAYER001
  6
CONTINUOUS
 62
    4
 10
1133.5072
 20
1115.6652999999999
 11
1137.5367000000001
 21
1115.4597000000001
  0
LINE
  8
_0-0_LAYER001
  6
CONTINUOUS
 62
    4
 10
1137.5367000000001
 20
1115.4597000000001
 11
1141.5905
 21
1115.3596
  0
LINE
  8
_0-0_LAYER001
  6
CONTINUOUS
 62
    4
 10
1141.5905
 20
1115.3596
 11
1145.7283
 21
1115.3480999999999
  0
LINE
  8
_0-0_LAYER001
  6
CONTINUOUS
 62
    4
 10
1145.7283
 20
1115.3480999999999
 11
1149.9473
 21
1115.4105999999999
  0
LINE
  8
_0-0_LAYER001
  6
CONTINUOUS
 62
    4
 10
1149.9473
 20
1115.4105999999999
 11
1154.2573
 21
1115.5318
  0
LINE
  8
_0-0_LAYER001
  6
CONTINUOUS
 62
    4
 10
1154.2573
 20
1115.5318
 11
1156.7575999999999
 21
1115.6212
  0
LINE
  8
_0-0_LAYER001
  6
CONTINUOUS
 62
    4
 10
1156.7575999999999
 20
1115.6212
 11
1159.6205
 21
1115.7362000000001
  0
LINE
  8
_0-0_LAYER001
  6
CONTINUOUS
 62
    4
 10
1159.6205
 20
1115.7362000000001
 11
1164.5758000000001
 21
1115.9690000000001
  0
LINE
  8
_0-0_LAYER001
  6
CONTINUOUS
 62
    4
 10
1164.5758000000001
 20
1115.9690000000001
 11
1169.4828
 21
1116.2484999999999
  0
LINE
  8
_0-0_LAYER001
  6
CONTINUOUS
 62
    4
 10
1169.4828
 20
1116.2484999999999
 11
1174.3542
 21
1116.5823
  0
LINE
  8
_0-0_LAYER001
  6
CONTINUOUS
 62
    4
 10
1174.3542
 20
1116.5823
 11
1179.1885
 21
1116.9773
  0
LINE
  8
_0-0_LAYER001
  6
CONTINUOUS
 62
    4
 10
1179.1885
 20
1116.9773
 11
1184.0165999999999
 21
1117.4432999999999
  0
LINE
  8
_0-0_LAYER001
  6
CONTINUOUS
 62
    4
 10
1184.0165999999999
 20
1117.4432999999999
 11
1186.675
 21
1117.7338999999999
  0
LINE
  8
_0-0_LAYER001
  6
CONTINUOUS
 62
    4
 10
1186.675
 20
1117.7338999999999
 11
1194.4431
 21
1118.7286999999999
  0
LINE
  8
_0-0_LAYER001
  6
CONTINUOUS
 62
    4
 10
1194.4431
 20
1118.7286999999999
 11
1207.9519
 21
1120.9241999999999
  0
LINE
  8
_0-0_LAYER001
  6
CONTINUOUS
 62
    4
 10
1207.9519
 20
1120.9241999999999
 11
1221.4413999999999
 21
1123.6171999999999
  0
LINE
  8
_0-0_LAYER001
  6
CONTINUOUS
 62
    4
 10
1221.4413999999999
 20
1123.6171999999999
 11
1235.0152
 21
1126.7243000000001
  0
LINE
  8
_0-0_LAYER001
  6
CONTINUOUS
 62
    4
 10
1235.0152
 20
1126.7243000000001
 11
1248.6866
 21
1130.1442999999999
  0
LINE
  8
_0-0_LAYER001
  6
CONTINUOUS
 62
    4
 10
1248.6866
 20
1130.1442999999999
 11
1262.4698000000001
 21
1133.7725
  0
LINE
  8
_0-0_LAYER001
  6
CONTINUOUS
 62
    4
 10
1262.4698000000001
 20
1133.7725
 11
1268.2589
 21
1135.3236999999999
  0
LINE
  8
_0-0_LAYER001
  6
CONTINUOUS
 62
    4
 10
1267.1493
 20
1114.3230000000001
 11
1253.6591000000001
 21
1110.7719
  0
LINE
  8
_0-0_LAYER001
  6
CONTINUOUS
 62
    4
 10
1253.6591000000001
 20
1110.7719
 11
1239.6738
 21
1107.2734
  0
LINE
  8
_0-0_LAYER001
  6
CONTINUOUS
 62
    4
 10
1239.6738
 20
1107.2734
 11
1225.6312
 21
1104.0589
  0
LINE
  8
_0-0_LAYER001
  6
CONTINUOUS
 62
    4
 10
1225.6312
 20
1104.0589
 11
1211.5148999999999
 21
1101.2409
  0
LINE
  8
_0-0_LAYER001
  6
CONTINUOUS
 62
    4
 10
1211.5148999999999
 20
1101.2409
 11
1197.3184000000001
 21
1098.9336000000001
  0
LINE
  8
_0-0_LAYER001
  6
CONTINUOUS
 62
    4
 10
1197.3184000000001
 20
1098.9336000000001
 11
1189.0322000000001
 21
1097.8724
  0
LINE
  8
_0-0_LAYER001
  6
CONTINUOUS
 62
    4
 10
1189.0322000000001
 20
1097.8724
 11
1186.0640000000001
 21
1097.5479
  0
LINE
  8
_0-0_LAYER001
  6
CONTINUOUS
 62
    4
 10
1186.0640000000001
 20
1097.5479
 11
1180.9635000000001
 21
1097.0556999999999
  0
LINE
  8
_0-0_LAYER001
  6
CONTINUOUS
 62
    4
 10
1180.9635000000001
 20
1097.0556999999999
 11
1175.8522
 21
1096.6380999999999
  0
LINE
  8
_0-0_LAYER001
  6
CONTINUOUS
 62
    4
 10
1175.8522
 20
1096.6380999999999
 11
1170.7352000000001
 21
1096.2873999999999
  0
LINE
  8
_0-0_LAYER001
  6
CONTINUOUS
 62
    4
 10
1170.7352000000001
 20
1096.2873999999999
 11
1165.6138000000001
 21
1095.9956999999999
  0
LINE
  8
_0-0_LAYER001
  6
CONTINUOUS
 62
    4
 10
1165.6138000000001
 20
1095.9956999999999
 11
1160.4911
 21
1095.7550000000001
  0
LINE
  8
_0-0_LAYER001
  6
CONTINUOUS
 62
    4
 10
1160.4911
 20
1095.7550000000001
 11
1157.5162
 21
1095.6356000000001
  0
LINE
  8
_0-0_LAYER001
  6
CONTINUOUS
 62
    4
 10
1157.5162
 20
1095.6356000000001
 11
1154.8958
 21
1095.5418999999999
  0
LINE
  8
_0-0_LAYER001
  6
CONTINUOUS
 62
    4
 10
1154.8958
 20
1095.5418999999999
 11
1150.3766000000001
 21
1095.4147
  0
LINE
  8
_0-0_LAYER001
  6
CONTINUOUS
 62
    4
 10
1150.3766000000001
 20
1095.4147
 11
1145.8486
 21
1095.3477
  0
LINE
  8
_0-0_LAYER001
  6
CONTINUOUS
 62
    4
 10
1145.8486
 20
1095.3477
 11
1141.3157000000001
 21
1095.3603000000001
  0
LINE
  8
_0-0_LAYER001
  6
CONTINUOUS
 62
    4
 10
1141.3157000000001
 20
1095.3603000000001
 11
1136.7801999999999
 21
1095.4722999999999
  0
LINE
  8
_0-0_LAYER001
  6
CONTINUOUS
 62
    4
 10
1136.7801999999999
 20
1095.4722999999999
 11
1132.2517
 21
1095.7032999999999
  0
LINE
  8
_0-0_LAYER001
  6
CONTINUOUS
 62
    4
 10
1132.2517
 20
1095.7032999999999
 11
1129.6168
 21
1095.9004
  0
LINE
  8
_0-0_LAYER001
  6
CONTINUOUS
 62
    4
 10
1129.6168
 20
1095.9004
 11
1126.9734000000001
 21
1096.1481000000001
  0
LINE
  8
_0-0_LAYER001
  6
CONTINUOUS
 62
    4
 10
1126.9734000000001
 20
1096.1481000000001
 11
1122.4485999999999
 21
1096.6813
  0
LINE
  8
_0-0_LAYER001
  6
CONTINUOUS
 62
    4
 10
1122.4485999999999
 20
1096.6813
 11
1117.9371000000001
 21
1097.3345999999999
  0
LINE
  8
_0-0_LAYER001
  6
CONTINUOUS
 62
    4
 10
1117.9371000000001
 20
1097.3345999999999
 11
1113.4447
 21
1098.0871999999999
  0
LINE
  8
_0-0_LAYER001
  6
CONTINUOUS
 62
    4
 10
1113.4447
 20
1098.0871999999999
 11
1108.9703999999999
 21
1098.9195
  0
LINE
  8
_0-0_LAYER001
  6
CONTINUOUS
 62
    4
 10
1108.9703999999999
 20
1098.9195
 11
1104.5146999999999
 21
1099.8116
  0
LINE
  8
_0-0_LAYER001
  6
CONTINUOUS
 62
    4
 10
1104.5146999999999
 20
1099.8116
 11
1101.9336000000001
 21
1100.3497
  0
LINE
  8
_0-0_LAYER001
  6
CONTINUOUS
 62
    4
 10
1101.9336000000001
 20
1100.3497
 11
1098.6175000000001
 21
1101.0585000000001
  0
LINE
  8
_0-0_LAYER001
  6
CONTINUOUS
 62
    4
 10
1098.6175000000001
 20
1101.0585000000001
 11
1092.9147
 21
1102.3294000000001
  0
LINE
  8
_0-0_LAYER001
  6
CONTINUOUS
 62
    4
 10
1092.9147
 20
1102.3294000000001
 11
1087.2263
 21
1103.6771000000001
  0
LINE
  8
_0-0_LAYER001
  6
CONTINUOUS
 62
    4
 10
1087.2263
 20
1103.6771000000001
 11
1081.5599999999999
 21
1105.1165000000001
  0
LINE
  8
_0-0_LAYER001
  6
CONTINUOUS
 62
    4
 10
1081.5599999999999
 20
1105.1165000000001
 11
1075.9221
 21
1106.6629
  0
LINE
  8
_0-0_LAYER001
  6
CONTINUOUS
 62
    4
 10
1075.9221
 20
1106.6629
 11
1070.3236999999999
 21
1108.3299999999999
  0
LINE
  8
_0-0_LAYER001
  6
CONTINUOUS
 62
    4
 10
1070.3236999999999
 20
1108.3299999999999
 11
1067.0847000000001
 21
1109.3621000000001
  0
LINE
  8
_0-0_LAYER001
  6
CONTINUOUS
 62
    4
 10
1067.0847000000001
 20
1109.3621000000001
 11
1062.5853
 21
1110.8841
  0
LINE
  8
_0-0_LAYER001
  6
CONTINUOUS
 62
    4
 10
1062.5853
 20
1110.8841
 11
1054.9157
 21
1113.6987999999999
  0
LINE
  8
_0-0_LAYER001
  6
CONTINUOUS
 62
    4
 10
1054.9157
 20
1113.6987999999999
 11
1047.3218999999999
 21
1116.7221999999999
  0
LINE
  8
_0-0_LAYER001
  6
CONTINUOUS
 62
    4
 10
1047.3218999999999
 20
1116.7221999999999
 11
1039.7953
 21
1119.9052999999999
  0
LINE
  8
_0-0_LAYER001
  6
CONTINUOUS
 62
    4
 10
1039.7953
 20
1119.9052999999999
 11
1039.4194
 21
1120.0710999999999
  0
LINE
  8
_0-0_LAYER001
  6
CONTINUOUS
 62
    4
 10
1272.8388
 20
1097.2103
 11
1272.2240999999999
 21
1097.0455999999999
  0
LINE
  8
_0-0_LAYER001
  6
CONTINUOUS
 62
    4
 10
1272.2240999999999
 20
1097.0455999999999
 11
1258.1344999999999
 21
1093.3368
  0
LINE
  8
_0-0_LAYER001
  6
CONTINUOUS
 62
    4
 10
1258.1344999999999
 20
1093.3368
 11
1243.8665000000001
 21
1089.7675999999999
  0
LINE
  8
_0-0_LAYER001
  6
CONTINUOUS
 62
    4
 10
1243.8665000000001
 20
1089.7675999999999
 11
1229.4021
 21
1086.4566
  0
LINE
  8
_0-0_LAYER001
  6
CONTINUOUS
 62
    4
 10
1229.4021
 20
1086.4566
 11
1214.7216000000001
 21
1083.5259000000001
  0
LINE
  8
_0-0_LAYER001
  6
CONTINUOUS
 62
    4
 10
1214.7216000000001
 20
1083.5259000000001
 11
1199.9061999999999
 21
1081.1179999999999
  0
LINE
  8
_0-0_LAYER001
  6
CONTINUOUS
 62
    4
 10
1199.9061999999999
 20
1081.1179999999999
 11
1191.1537000000001
 21
1079.9971
  0
LINE
  8
_0-0_LAYER001
  6
CONTINUOUS
 62
    4
 10
1191.1537000000001
 20
1079.9971
 11
1187.9067
 21
1079.6421
  0
LINE
  8
_0-0_LAYER001
  6
CONTINUOUS
 62
    4
 10
1187.9067
 20
1079.6421
 11
1182.5610999999999
 21
1079.1261999999999
  0
LINE
  8
_0-0_LAYER001
  6
CONTINUOUS
 62
    4
 10
1182.5610999999999
 20
1079.1261999999999
 11
1177.2004999999999
 21
1078.6883
  0
LINE
  8
_0-0_LAYER001
  6
CONTINUOUS
 62
    4
 10
1177.2004999999999
 20
1078.6883
 11
1171.8623
 21
1078.3224
  0
LINE
  8
_0-0_LAYER001
  6
CONTINUOUS
 62
    4
 10
1171.8623
 20
1078.3224
 11
1166.548
 21
1078.0197000000001
  0
LINE
  8
_0-0_LAYER001
  6
CONTINUOUS
 62
    4
 10
1166.548
 20
1078.0197000000001
 11
1161.2746
 21
1077.7719999999999
  0
LINE
  8
_0-0_LAYER001
  6
CONTINUOUS
 62
    4
 10
1161.2746
 20
1077.7719999999999
 11
1158.1990000000001
 21
1077.6485
  0
LINE
  8
_0-0_LAYER001
  6
CONTINUOUS
 62
    4
 10
1158.1990000000001
 20
1077.6485
 11
1155.4703999999999
 21
1077.5509
  0
LINE
  8
_0-0_LAYER001
  6
CONTINUOUS
 62
    4
 10
1155.4703999999999
 20
1077.5509
 11
1150.7629999999999
 21
1077.4185
  0
LINE
  8
_0-0_LAYER001
  6
CONTINUOUS
 62
    4
 10
1150.7629999999999
 20
1077.4185
 11
1145.9568999999999
 21
1077.3472999999999
  0
LINE
  8
_0-0_LAYER001
  6
CONTINUOUS
 62
    4
 10
1145.9568999999999
 20
1077.3472999999999
 11
1141.0682999999999
 21
1077.3608999999999
  0
LINE
  8
_0-0_LAYER001
  6
CONTINUOUS
 62
    4
 10
1141.0682999999999
 20
1077.3608999999999
 11
1136.0994000000001
 21
1077.4837
  0
LINE
  8
_0-0_LAYER001
  6
CONTINUOUS
 62
    4
 10
1136.0994000000001
 20
1077.4837
 11
1131.1217999999999
 21
1077.7375
  0
LINE
  8
_0-0_LAYER001
  6
CONTINUOUS
 62
    4
 10
1131.1217999999999
 20
1077.7375
 11
1128.1056000000001
 21
1077.9630999999999
  0
LINE
  8
_0-0_LAYER001
  6
CONTINUOUS
 62
    4
 10
1128.1056000000001
 20
1077.9630999999999
 11
1125.0800999999999
 21
1078.2466999999999
  0
LINE
  8
_0-0_LAYER001
  6
CONTINUOUS
 62
    4
 10
1125.0800999999999
 20
1078.2466999999999
 11
1120.1052
 21
1078.8329000000001
  0
LINE
  8
_0-0_LAYER001
  6
CONTINUOUS
 62
    4
 10
1120.1052
 20
1078.8329000000001
 11
1115.1599000000001
 21
1079.549
  0
LINE
  8
_0-0_LAYER001
  6
CONTINUOUS
 62
    4
 10
1115.1599000000001
 20
1079.549
 11
1110.3113000000001
 21
1080.3613
  0
LINE
  8
_0-0_LAYER001
  6
CONTINUOUS
 62
    4
 10
1110.3113000000001
 20
1080.3613
 11
1105.5573999999999
 21
1081.2456
  0
LINE
  8
_0-0_LAYER001
  6
CONTINUOUS
 62
    4
 10
1105.5573999999999
 20
1081.2456
 11
1100.9110000000001
 21
1082.1759
  0
LINE
  8
_0-0_LAYER001
  6
CONTINUOUS
 62
    4
 10
1100.9110000000001
 20
1082.1759
 11
1098.2156
 21
1082.7378000000001
  0
LINE
  8
_0-0_LAYER001
  6
CONTINUOUS
 62
    4
 10
1098.2156
 20
1082.7378000000001
 11
1094.7786000000001
 21
1083.4724000000001
  0
LINE
  8
_0-0_LAYER001
  6
CONTINUOUS
 62
    4
 10
1094.7786000000001
 20
1083.4724000000001
 11
1088.8820000000001
 21
1084.7864999999999
  0
LINE
  8
_0-0_LAYER001
  6
CONTINUOUS
 62
    4
 10
1088.8820000000001
 20
1084.7864999999999
 11
1082.9350999999999
 21
1086.1955
  0
LINE
  8
_0-0_LAYER001
  6
CONTINUOUS
 62
    4
 10
1082.9350999999999
 20
1086.1955
 11
1076.9630999999999
 21
1087.7126000000001
  0
LINE
  8
_0-0_LAYER001
  6
CONTINUOUS
 62
    4
 10
1076.9630999999999
 20
1087.7126000000001
 11
1070.9724000000001
 21
1089.3557000000001
  0
LINE
  8
_0-0_LAYER001
  6
CONTINUOUS
 62
    4
 10
1070.9724000000001
 20
1089.3557000000001
 11
1065.0222000000001
 21
1091.1276
  0
LINE
  8
_0-0_LAYER001
  6
CONTINUOUS
 62
    4
 10
1065.0222000000001
 20
1091.1276
 11
1061.4677999999999
 21
1092.2601999999999
  0
LINE
  8
_0-0_LAYER001
  6
CONTINUOUS
 62
    4
 10
1061.4677999999999
 20
1092.2601999999999
 11
1056.5997
 21
1093.9069
  0
LINE
  8
_0-0_LAYER001
  6
CONTINUOUS
 62
    4
 10
1056.5997
 20
1093.9069
 11
1048.4847
 21
1096.885
  0
LINE
  8
_0-0_LAYER001
  6
CONTINUOUS
 62
    4
 10
1048.4847
 20
1096.885
 11
1040.4864
 21
1100.0695000000001
  0
LINE
  8
_0-0_LAYER001
  6
CONTINUOUS
 62
    4
 10
1040.4864
 20
1100.0695000000001
 11
1039.076
 21
1100.6659999999999
  0
LINE
  8
_0-0_LAYER001
  6
CONTINUOUS
 62
    4
 10
1267.0903000000001
 20
1116.3756000000001
 11
1273.8792000000001
 21
1118.1947
  0
LINE
  8
_0-0_LAYER001
  6
CONTINUOUS
 62
    4
 10
1253.1619000000001
 20
1112.7092
 11
1267.0903000000001
 21
1116.3756000000001
  0
LINE
  8
_0-0_LAYER001
  6
CONTINUOUS
 62
    4
 10
1239.2079000000001
 20
1109.2184999999999
 11
1253.1619000000001
 21
1112.7092
  0
LINE
  8
_0-0_LAYER001
  6
CONTINUOUS
 62
    4
 10
1225.2121999999999
 20
1106.0147999999999
 11
1239.2079000000001
 21
1109.2184999999999
  0
LINE
  8
_0-0_LAYER001
  6
CONTINUOUS
 62
    4
 10
1211.1586
 20
1103.2092
 11
1225.2121999999999
 21
1106.0147999999999
  0
LINE
  8
_0-0_LAYER001
  6
CONTINUOUS
 62
    4
 10
1197.0309
 20
1100.9131
 11
1211.1586
 21
1103.2092
  0
LINE
  8
_0-0_LAYER001
  6
CONTINUOUS
 62
    4
 10
1188.7964999999999
 20
1099.8586
 11
1197.0309
 21
1100.9131
  0
LINE
  8
_0-0_LAYER001
  6
CONTINUOUS
 62
    4
 10
1185.8593000000001
 20
1099.5374999999999
 11
1188.7964999999999
 21
1099.8586
  0
LINE
  8
_0-0_LAYER001
  6
CONTINUOUS
 62
    4
 10
1180.7860000000001
 20
1099.0479
 11
1185.8593000000001
 21
1099.5374999999999
  0
LINE
  8
_0-0_LAYER001
  6
CONTINUOUS
 62
    4
 10
1175.7023999999999
 20
1098.6324999999999
 11
1180.7860000000001
 21
1099.0479
  0
LINE
  8
_0-0_LAYER001
  6
CONTINUOUS
 62
    4
 10
1170.6098999999999
 20
1098.2835
 11
1175.7023999999999
 21
1098.6324999999999
  0
LINE
  8
_0-0_LAYER001
  6
CONTINUOUS
 62
    4
 10
1165.51
 20
1097.9929999999999
 11
1170.6098999999999
 21
1098.2835
  0
LINE
  8
_0-0_LAYER001
  6
CONTINUOUS
 62
    4
 10
1160.404
 20
1097.7532000000001
 11
1165.51
 21
1097.9929999999999
  0
LINE
  8
_0-0_LAYER001
  6
CONTINUOUS
 62
    4
 10
1157.4404
 20
1097.6341
 11
1160.404
 21
1097.7532000000001
  0
LINE
  8
_0-0_LAYER001
  6
CONTINUOUS
 62
    4
 10
1154.8318999999999
 20
1097.5409
 11
1157.4404
 21
1097.6341
  0
LINE
  8
_0-0_LAYER001
  6
CONTINUOUS
 62
    4
 10
1150.3336999999999
 20
1097.4142999999999
 11
1154.8318999999999
 21
1097.5409
  0
LINE
  8
_0-0_LAYER001
  6
CONTINUOUS
 62
    4
 10
1145.8366000000001
 20
1097.3477
 11
1150.3336999999999
 21
1097.4142999999999
  0
LINE
  8
_0-0_LAYER001
  6
CONTINUOUS
 62
    4
 10
1141.3432
 20
1097.3602000000001
 11
1145.8366000000001
 21
1097.3477
  0
LINE
  8
_0-0_LAYER001
  6
CONTINUOUS
 62
    4
 10
1136.8559
 20
1097.4711
 11
1141.3432
 21
1097.3602000000001
  0
LINE
  8
_0-0_LAYER001
  6
CONTINUOUS
 62
    4
 10
1132.3773000000001
 20
1097.6994999999999
 11
1136.8559
 21
1097.4711
  0
LINE
  8
_0-0_LAYER001
  6
CONTINUOUS
 62
    4
 10
1129.7846999999999
 20
1097.8933999999999
 11
1132.3773000000001
 21
1097.6994999999999
  0
LINE
  8
_0-0_LAYER001
  6
CONTINUOUS
 62
    4
 10
1127.1838
 20
1098.1371999999999
 11
1129.7846999999999
 21
1097.8933999999999
  0
LINE
  8
_0-0_LAYER001
  6
CONTINUOUS
 62
    4
 10
1122.7090000000001
 20
1098.6645000000001
 11
1127.1838
 21
1098.1371999999999
  0
LINE
  8
_0-0_LAYER001
  6
CONTINUOUS
 62
    4
 10
1118.2456999999999
 20
1099.3107
 11
1122.7090000000001
 21
1098.6645000000001
  0
LINE
  8
_0-0_LAYER001
  6
CONTINUOUS
 62
    4
 10
1113.7927999999999
 20
1100.0568000000001
 11
1118.2456999999999
 21
1099.3107
  0
LINE
  8
_0-0_LAYER001
  6
CONTINUOUS
 62
    4
 10
1109.3496
 20
1100.8833
 11
1113.7927999999999
 21
1100.0568000000001
  0
LINE
  8
_0-0_LAYER001
  6
CONTINUOUS
 62
    4
 10
1104.9150999999999
 20
1101.7710999999999
 11
1109.3496
 21
1100.8833
  0
LINE
  8
_0-0_LAYER001
  6
CONTINUOUS
 62
    4
 10
1102.3467000000001
 20
1102.3065999999999
 11
1104.9150999999999
 21
1101.7710999999999
  0
LINE
  8
_0-0_LAYER001
  6
CONTINUOUS
 62
    4
 10
1099.0441000000001
 20
1103.0125
 11
1102.3467000000001
 21
1102.3065999999999
  0
LINE
  8
_0-0_LAYER001
  6
CONTINUOUS
 62
    4
 10
1093.3628000000001
 20
1104.2786000000001
 11
1099.0441000000001
 21
1103.0125
  0
LINE
  8
_0-0_LAYER001
  6
CONTINUOUS
 62
    4
 10
1087.7030999999999
 20
1105.6195
 11
1093.3628000000001
 21
1104.2786000000001
  0
LINE
  8
_0-0_LAYER001
  6
CONTINUOUS
 62
    4
 10
1082.0708
 20
1107.0503000000001
 11
1087.7030999999999
 21
1105.6195
  0
LINE
  8
_0-0_LAYER001
  6
CONTINUOUS
 62
    4
 10
1076.4721
 20
1108.5859
 11
1082.0708
 21
1107.0503000000001
  0
LINE
  8
_0-0_LAYER001
  6
CONTINUOUS
 62
    4
 10
1070.9128000000001
 20
1110.2414000000001
 11
1076.4721
 21
1108.5859
  0
LINE
  8
_0-0_LAYER001
  6
CONTINUOUS
 62
    4
 10
1067.7088000000001
 20
1111.2623000000001
 11
1070.9128000000001
 21
1110.2414000000001
  0
LINE
  8
_0-0_LAYER001
  6
CONTINUOUS
 62
    4
 10
1063.2503999999999
 20
1112.7705000000001
 11
1067.7088000000001
 21
1111.2623000000001
  0
LINE
  8
_0-0_LAYER001
  6
CONTINUOUS
 62
    4
 10
1055.6303
 20
1115.567
 11
1063.2503999999999
 21
1112.7705000000001
  0
LINE
  8
_0-0_LAYER001
  6
CONTINUOUS
 62
    4
 10
1048.0814
 20
1118.5725
 11
1055.6303
 21
1115.567
  0
LINE
  8
_0-0_LAYER001
  6
CONTINUOUS
 62
    4
 10
1040.5882999999999
 20
1121.7414000000001
 11
1048.0814
 21
1118.5725
  0
LINE
  8
_0-0_LAYER001
  6
CONTINUOUS
 62
    4
 10
1039.3619000000001
 20
1122.2823000000001
 11
1040.5882999999999
 21
1121.7414000000001
  0
ARC
  8
_0-0_LAYER001
  6
CONTINUOUS
 62
    4
 10
1022.7215000000001
 20
1089.2326
 40
36.94905
 50
62.626221000000001
 51
91.897946000000005
  0
LINE
  8
_0-0_LAYER001
  6
CONTINUOUS
 62
    4
 10
1021.7103999999999
 20
1068.7465999999999
 11
1039.7103999999999
 21
1068.7465999999999
  0
LINE
  8
_0-0_LAYER001
  6
CONTINUOUS
 62
    4
 10
1039.7103999999999
 20
1122.0443
 11
1039.7103999999999
 21
1068.7465999999999
  0
LINE
  8
_0-0_LAYER001
  6
CONTINUOUS
 62
    4
 10
1021.7103999999999
 20
1150.2367999999999
 11
1021.7103999999999
 21
1068.7465999999999
  0
LINE
  8
_0-0_LAYER001
  6
CONTINUOUS
 62
    4
 10
1028.8445999999999
 20
1146.759
 11
1021.7103999999999
 21
1150.2367999999999
  0
LINE
  8
_0-0_LAYER001
  6
CONTINUOUS
 62
    4
 10
1018.0823
 20
1127.4269999999999
 11
1021.7103999999999
 21
1070.6964
  0
LINE
  8
_0-0_LAYER001
  6
CONTINUOUS
 62
    4
 10
1021.7103999999999
 20
1125.6130000000001
 11
1018.0823
 21
1127.4269999999999
  0
LINE
  8
_0-0_LAYER001
  6
CONTINUOUS
 62
    4
 10
1246.5761
 20
1129.1874
 11
1246.5761
 21
1111.6401000000001
  0
ARC
  8
_0-0_LAYER001
  6
CONTINUOUS
 62
    4
 10
1279.5517
 20
1140.1066000000001
 40
1
 50
105.29948999999999
 51
176.99999999999997
  0
LINE
  8
_0-0_LAYER001
  6
CONTINUOUS
 62
    4
 10
1277.4242999999999
 20
1117.8792000000001
 11
1277.365
 21
1116.7487000000001
  0
ARC
  8
_0-0_LAYER001
  6
CONTINUOUS
 62
    4
 10
1278.4229
 20
1117.8268
 40
1
 50
105.35783000000001
 51
177
  0
LINE
  8
_0-0_LAYER001
  6
CONTINUOUS
 62
    4
 10
1284.8246999999997
 20
1120.6221
 11
1278.1581000000001
 21
1118.7910999999999
  0
ARC
  8
_0-0_LAYER001
  6
CONTINUOUS
 62
    4
 10
1285.0896
 20
1119.6578999999999
 40
1
 50
0
 51
105.35783000000001
  0
LINE
  8
_0-0_LAYER001
  6
CONTINUOUS
 62
    4
 10
1284.9784
 20
1142.6278
 11
1279.2878000000001
 21
1141.0710999999999
  0
ARC
  8
_0-0_LAYER001
  6
CONTINUOUS
 62
    4
 10
1285.2422999999999
 20
1141.6632999999999
 40
1
 50
0
 51
105.29948999999999
  0
LINE
  8
_0-0_LAYER001
  6
CONTINUOUS
 62
    4
 10
1285.5387000000001
 20
1120.9735000000001
 11
1284.0798999999997
 21
1120.5208
  0
LINE
  8
_0-0_LAYER001
  6
CONTINUOUS
 62
    4
 10
1286.2422999999999
 20
1121.9286
 11
1286.2422999999999
 21
1141.6632999999999
  0
ARC
  8
_0-0_LAYER001
  6
CONTINUOUS
 62
    4
 10
1285.2422999999999
 20
1121.9286
 40
1
 50
287.24145000000004
 51
0.0000000000000508
  0
LINE
  8
_0-0_LAYER001
  6
CONTINUOUS
 62
    4
 10
1277.7831000000001
 20
1138.1514999999999
 11
1268.3244999999999
 21
1135.3244
  0
LINE
  8
_0-0_LAYER001
  6
CONTINUOUS
 62
    4
 10
1278.4954
 20
1139.0572999999999
 11
1278.5531000000001
 21
1140.1588999999999
  0
ARC
  8
_0-0_LAYER001
  6
CONTINUOUS
 62
    4
 10
1277.4966999999999
 20
1139.1097
 40
1
 50
286.64103
 51
357
  0
LINE
  8
_0-0_LAYER001
  6
CONTINUOUS
 62
    4
 10
1274.0196000000001
 20
1118.1741
 11
1285.96
 21
1121.9827
  0
LINE
  8
_0-0_LAYER001
  6
CONTINUOUS
 62
    4
 10
1267.5120999999999
 20
1114.3253999999999
 11
1277.3167000000001
 21
1117.1267
  0
LINE
  8
_0-0_LAYER001
  6
CONTINUOUS
 62
    4
 10
1285.3903
 20
1101.1599000000001
 11
1272.8954000000001
 21
1097.2201
  0
LINE
  8
_0-0_LAYER001
  6
CONTINUOUS
 62
    4
 10
1286.0896
 20
1102.1135999999999
 11
1286.0896
 21
1119.6578999999999
  0
ARC
  8
_0-0_LAYER001
  6
CONTINUOUS
 62
    4
 10
1285.0896
 20
1102.1135999999999
 40
1
 50
287.50085999999999
 51
0
  0
LINE
  8
_0-0_LAYER001
  6
DASHED1
 62
    2
 10
1352.6685
 20
1114.6937
 11
1368.6685
 21
1114.6937
  0
LINE
  8
_0-0_LAYER001
  6
DASHED1
 62
    2
 10
1368.6685
 20
1114.6937
 11
1368.6685
 21
1111.6937
  0
LINE
  8
_0-0_LAYER001
  6
DASHED1
 62
    2
 10
1352.6685
 20
1114.6937
 11
1352.6685
 21
1111.6937
  0
LINE
  8
_0-0_LAYER001
  6
DASHED1
 62
    2
 10
1352.6685
 20
1111.6937
 11
1368.6685
 21
1111.6937
  0
LINE
  8
_0-0_LAYER001
  6
DASHED1
 62
    2
 10
1363.6685
 20
1056.7976000000001
 11
1360.6183000000001
 21
1042.2887000000001
  0
LINE
  8
_0-0_LAYER001
  6
DASHED1
 62
    2
 10
1363.6685
 20
1111.6937
 11
1363.6685
 21
1056.7976000000001
  0
LINE
  8
_0-0_LAYER001
  6
DASHED1
 62
    2
 10
1360.6183000000001
 20
1042.2887000000001
 11
1357.6685
 21
1056.5462
  0
LINE
  8
_0-0_LAYER001
  6
DASHED1
 62
    2
 10
1357.6685
 20
1111.6937
 11
1357.6685
 21
1056.5462
  0
LINE
  8
_0-0_LAYER001
  6
DASHED1
 62
    2
 10
1615.375
 20
1109.9744000000001
 11
1631.375
 21
1109.9744000000001
  0
LINE
  8
_0-0_LAYER001
  6
DASHED1
 62
    2
 10
1631.375
 20
1109.9744000000001
 11
1631.375
 21
1106.9744000000001
  0
LINE
  8
_0-0_LAYER001
  6
DASHED1
 62
    2
 10
1615.375
 20
1109.9744000000001
 11
1615.375
 21
1106.9744000000001
  0
LINE
  8
_0-0_LAYER001
  6
DASHED1
 62
    2
 10
1615.375
 20
1106.9744000000001
 11
1631.375
 21
1106.9744000000001
  0
LINE
  8
_0-0_LAYER001
  6
DASHED1
 62
    2
 10
1626.375
 20
1052.0782999999999
 11
1623.3249000000001
 21
1037.5694000000001
  0
LINE
  8
_0-0_LAYER001
  6
DASHED1
 62
    2
 10
1626.375
 20
1106.9744000000001
 11
1626.375
 21
1052.0782999999999
  0
LINE
  8
_0-0_LAYER001
  6
DASHED1
 62
    2
 10
1623.3249000000001
 20
1037.5694000000001
 11
1620.375
 21
1051.8269
  0
LINE
  8
_0-0_LAYER001
  6
DASHED1
 62
    2
 10
1620.375
 20
1106.9744000000001
 11
1620.375
 21
1051.8269
  0
LINE
  8
_0-0_LAYER001
  6
DASHED1
 62
    2
 10
1879.6545999999998
 20
1109.9744000000001
 11
1895.6545999999998
 21
1109.9744000000001
  0
LINE
  8
_0-0_LAYER001
  6
DASHED1
 62
    2
 10
1895.6545999999998
 20
1109.9744000000001
 11
1895.6545999999998
 21
1106.9744000000001
  0
LINE
  8
_0-0_LAYER001
  6
DASHED1
 62
    2
 10
1879.6545999999998
 20
1109.9744000000001
 11
1879.6545999999998
 21
1106.9744000000001
  0
LINE
  8
_0-0_LAYER001
  6
DASHED1
 62
    2
 10
1879.6545999999998
 20
1106.9744000000001
 11
1895.6545999999998
 21
1106.9744000000001
  0
LINE
  8
_0-0_LAYER001
  6
DASHED1
 62
    2
 10
1890.6545999999998
 20
1052.0782999999999
 11
1887.6044000000002
 21
1037.5694000000001
  0
LINE
  8
_0-0_LAYER001
  6
DASHED1
 62
    2
 10
1890.6545999999998
 20
1106.9744000000001
 11
1890.6545999999998
 21
1052.0782999999999
  0
LINE
  8
_0-0_LAYER001
  6
DASHED1
 62
    2
 10
1887.6044000000002
 20
1037.5694000000001
 11
1884.6545999999998
 21
1051.8269
  0
LINE
  8
_0-0_LAYER001
  6
DASHED1
 62
    2
 10
1884.6545999999998
 20
1106.9744000000001
 11
1884.6545999999998
 21
1051.8269
  0
LINE
  8
_0-0_LAYER001
  6
CONTINUOUS
 62
    7
 10
1019.1993
 20
1286.7554999999998
 11
1019.1993
 21
1234.2555
  0
LINE
  8
_0-0_LAYER001
  6
CONTINUOUS
 62
    7
 10
1019.1993
 20
1284.2554999999998
 11
1774.1993000000002
 21
1284.2554999999998
  0
LINE
  8
_0-0_LAYER001
  6
CONTINUOUS
 62
    7
 10
1774.1993000000002
 20
1285.9555
 11
1774.1993000000002
 21
1234.2555
  0
LINE
  8
_0-0_LAYER001
  6
CONTINUOUS
 62
    7
 10
1509.1993000000002
 20
1285.9555
 11
1509.1993000000002
 21
1234.2555
  0
LINE
  8
_0-0_LAYER001
  6
CONTINUOUS
 62
    7
 10
1619.0014999999999
 20
1203.0574999999999
 11
1659.5014999999999
 21
1203.0574999999999
  0
LINE
  8
_0-0_LAYER001
  6
CONTINUOUS
 62
    7
 10
1244.1993
 20
1285.9555
 11
1244.1993
 21
1234.2555
  0
LINE
  8
_0-0_LAYER001
  6
CONTINUOUS
 62
    7
 10
1115.2018
 20
1206.0945999999999
 11
1163.2018
 21
1206.0945999999999
  0
LINE
  8
_0-0_LAYER001
  6
CONTINUOUS
 62
    7
 10
1017.4349999999999
 20
1167.0451
 11
1076.3905
 21
1167.0451
  0
LINE
  8
_0-0_LAYER001
  6
CONTINUOUS
 62
    7
 10
1111.7103999999999
 20
1074.221
 11
2017.6080999999999
 21
1074.221
  0
LINE
  8
_0-0_LAYER001
  6
CONTINUOUS
 62
    7
 10
2017.6080999999999
 20
1059.221
 11
1165.4611
 21
1059.221
  0
LINE
  8
_0-0_LAYER001
  6
CONTINUOUS
 62
    7
 10
1171.7103999999999
 20
1057.721
 11
2017.6080999999999
 21
1057.721
  0
LINE
  8
_0-0_LAYER001
  6
CONTINUOUS
 62
    7
 10
2017.6080999999999
 20
1056.221
 11
1171.7103999999999
 21
1056.221
  0
LINE
  8
_0-0_LAYER001
  6
CONTINUOUS
 62
    7
 10
2017.6080999999999
 20
1041.221
 11
1171.7103999999999
 21
1041.221
  0
LINE
  8
_0-0_LAYER001
  6
CONTINUOUS
 62
    7
 10
1184.7103999999999
 20
1041.221
 11
1184.7103999999999
 21
981.221
  0
LINE
  8
_0-0_LAYER001
  6
CONTINUOUS
 62
    7
 10
1184.7103999999999
 20
981.221
 11
1124.7103999999999
 21
981.221
  0
LINE
  8
_0-0_LAYER001
  6
CONTINUOUS
 62
    7
 10
1427.7103999999999
 20
1041.221
 11
1427.7103999999999
 21
981.221
  0
LINE
  8
_0-0_LAYER001
  6
CONTINUOUS
 62
    7
 10
1427.7103999999999
 20
981.221
 11
1487.7103999999999
 21
981.221
  0
LINE
  8
_0-0_LAYER001
  6
CONTINUOUS
 62
    7
 10
1487.7103999999999
 20
981.221
 11
1487.7103999999999
 21
1041.221
  0
LINE
  8
_0-0_LAYER001
  6
CONTINUOUS
 62
    7
 10
1730.7103999999999
 20
1041.221
 11
1730.7103999999999
 21
981.221
  0
LINE
  8
_0-0_LAYER001
  6
CONTINUOUS
 62
    7
 10
1730.7103999999999
 20
981.221
 11
1790.7103999999999
 21
981.221
  0
LINE
  8
_0-0_LAYER001
  6
CONTINUOUS
 62
    7
 10
1790.7103999999999
 20
1041.221
 11
1790.7103999999999
 21
981.221
  0
LINE
  8
_0-0_LAYER001
  6
CONTINUOUS
 62
    7
 10
1516.8678488052115
 20
890.30160000000001
 11
1721.3051
 21
890.30160000000001
  0
LINE
  8
_0-0_LAYER001
  6
CONTINUOUS
 62
    7
 10
1525.1118000000001
 20
860.20630000000006
 11
1758.5068000000001
 21
860.20630000000006
  0
LINE
  8
_0-0_LAYER001
  6
CONTINUOUS
 62
    7
 10
1534.6549
 20
830.1108999999999
 11
1706.3263000000002
 21
830.1108999999999
  0
LINE
  8
_0-0_LAYER001
  6
CONTINUOUS
 62
    7
 10
1540.9985999999999
 20
800.24440000000004
 11
1602.6808999999998
 21
800.24440000000004
  0
LINE
  8
_0-0_LAYER001
  6
CONTINUOUS
 62
    7
 10
954.97119999999995
 20
1083.221
 11
981.6712
 21
1083.221
  0
LINE
  8
_0-0_LAYER001
  6
CONTINUOUS
 62
    7
 10
956.6712
 20
1083.221
 11
956.6712
 21
1041.221
  0
LINE
  8
_0-0_LAYER001
  6
CONTINUOUS
 62
    7
 10
954.97119999999995
 20
1041.221
 11
981.6712
 21
1041.221
  0
LINE
  8
_0-0_LAYER001
  6
CONTINUOUS
 62
    7
 10
956.6712
 20
1056.221
 11
981.6712
 21
1056.221
  0
LINE
  8
_0-0_LAYER001
  6
CONTINUOUS
 62
    7
 10
1021.7103999999999
 20
996.61560000000009
 11
1021.7103999999999
 21
969.91560000000004
  0
LINE
  8
_0-0_LAYER001
  6
CONTINUOUS
 62
    7
 10
1021.7103999999999
 20
971.61560000000009
 11
1081.7103999999999
 21
971.61560000000009
  0
LINE
  8
_0-0_LAYER001
  6
CONTINUOUS
 62
    7
 10
1081.7103999999999
 20
969.91560000000004
 11
1081.7103999999999
 21
996.61560000000009
  0
LINE
  8
_0-0_LAYER001
  6
CONTINUOUS
 62
    7
 10
1149.4213999999999
 20
826.26019999999994
 11
1228.2263
 21
826.26019999999994
  0
LINE
  8
_0-0_LAYER001
  6
CONTINUOUS
 62
    7
 10
1149.4213999999999
 20
826.26019999999994
 11
1117.4349
 21
945.63539999999989
  0
LINE
  8
_0-0_LAYER001
  6
CONTINUOUS
 62
    7
 10
1117.4349
 20
945.63539999999989
 11
1117.4349
 21
938.13539999999989
  0
LINE
  8
_0-0_LAYER001
  6
CONTINUOUS
 62
    7
 10
1117.4349
 20
945.63539999999989
 11
1121.1849
 21
939.14020000000005
  0
LINE
  8
_0-0_LAYER001
  6
CONTINUOUS
 62
    7
 10
1184.7103999999999
 20
981.221
 11
1124.7103999999999
 21
1041.221
  0
LINE
  8
_0-0_LAYER001
  6
CONTINUOUS
 62
    7
 10
1102.0554
 20
1063.7621999999999
 11
1105.8054
 21
1057.2670000000001
  0
LINE
  8
_0-0_LAYER001
  6
CONTINUOUS
 62
    7
 10
1105.8054
 20
1057.2670000000001
 11
1105.8054
 21
1064.7670000000001
  0
LINE
  8
_0-0_LAYER001
  6
CONTINUOUS
 62
    7
 10
1105.8054
 20
1057.2670000000001
 11
1076.3905
 21
1167.0451
  0
LINE
  8
_0-0_LAYER001
  6
CONTINUOUS
 62
    7
 10
1163.2018
 20
1206.0945999999999
 11
1193.7236
 21
1092.1858999999999
  0
LINE
  8
_0-0_LAYER001
  6
CONTINUOUS
 62
    7
 10
1193.7236
 20
1092.1858999999999
 11
1193.7236
 21
1099.6858999999999
  0
LINE
  8
_0-0_LAYER001
  6
CONTINUOUS
 62
    7
 10
1193.7236
 20
1092.1858999999999
 11
1189.9736
 21
1098.6811
  0
LINE
  8
_0-0_LAYER001
  6
CONTINUOUS
 62
    7
 10
1487.7103999999999
 20
981.221
 11
1427.7103999999999
 21
1041.221
  0
LINE
  8
_0-0_LAYER001
  6
CONTINUOUS
 62
    7
 10
1471.3935000000001
 20
1060.0142000000001
 11
1471.3935000000001
 21
1052.5142000000001
  0
LINE
  8
_0-0_LAYER001
  6
CONTINUOUS
 62
    7
 10
1471.3935000000001
 20
1060.0142000000001
 11
1475.1435000000001
 21
1053.519
  0
LINE
  8
_0-0_LAYER001
  6
CONTINUOUS
 62
    7
 10
1471.3935000000001
 20
1060.0142000000001
 11
1540.9985999999999
 21
800.24440000000004
  0
LINE
  8
_0-0_LAYER001
  6
CONTINUOUS
 62
    7
 10
1685.6909999999998
 20
1097.8172
 11
1689.4409999999998
 21
1091.3219999999999
  0
LINE
  8
_0-0_LAYER001
  6
CONTINUOUS
 62
    7
 10
1689.4409999999998
 20
1091.3219999999999
 11
1689.4409999999998
 21
1098.8219999999999
  0
LINE
  8
_0-0_LAYER001
  6
CONTINUOUS
 62
    7
 10
1689.4409999999998
 20
1091.3219999999999
 11
1659.5014999999999
 21
1203.0574999999999
  0
LINE
  8
_0-0_LAYER001
  6
CONTINUOUS
 62
    7
 10
1730.7103999999999
 20
1041.221
 11
1790.7103999999999
 21
981.221
  0
TEXT
  8
_0-1_LAYER004
 62
    7
 10
1115.2018000000003
 20
1208.5945999999994
 40
20
 41
1
 50
0
  1
左袖瓦
  0
TEXT
  8
_0-0_LAYER001
 62
    7
 10
1534.6549000000005
 20
832.6108999999999
 40
20
 41
1
 50
0
  1
　野地板：杉ｔ＝１２
  0
TEXT
  8
_0-0_LAYER001
 62
    7
 10
1541.8281000000004
 20
802.74440000000004
 40
20
 41
1
 50
0
  1
　垂木
  0
TEXT
  8
_0-1_LAYER004
 62
    7
 10
1028.3905000000004
 20
1169.5450999999998
 40
20
 41
1
 50
0
  1
品板
  0
TEXT
  8
_0-0_LAYER001
 62
    7
 10
1516.4823999999994
 20
892.80160000000001
 40
20
 41
1
 50
0
  1
　瓦桟：１５ｘ３０以上
  0
TEXT
  8
_0-1_LAYER004
 62
    7
 10
1618.1332245761432
 20
1210.7793731068589
 40
20
 41
1
 50
0
  1
桟　瓦
  0
TEXT
  8
_0-0_LAYER001
 62
    7
 10
1125.5499323682684
 20
1299.67262570668
 40
20
 41
1
 50
0
  1
225
  0
TEXT
  8
_0-0_LAYER001
 62
    7
 10
1368.6162717317275
 20
1301.0858020983278
 40
20
 41
1
 50
0
  1
265
  0
TEXT
  8
_0-0_LAYER001
 62
    7
 10
1631.4670805782584
 20
1301.0858020983278
 40
20
 41
1
 50
0
  1
265
  0
TEXT
  8
_0-0_LAYER001
 62
    7
 10
946.07653062896929
 20
1038.2349932517964
 40
20
 41
1
 50
90
  1
1527
  0
TEXT
  8
_0-0_LAYER001
 62
    7
 10
1047.8252308276274
 20
981.70793758587592
 40
20
 41
1
 50
0
  1
60
  0
TEXT
  8
_0-0_LAYER001
 62
    7
 10
1525.1118000000006
 20
862.70629999999983
 40
20
 41
1
 50
0
  1
　下葺材：ルーフィング
  0
TEXT
  8
_0-1_LAYER004
 62
    7
 10
1153.4454691523536
 20
832.01883608934793
 40
20
 41
1
 50
0
  1
　破風板
  0
ENDSEC
  0
EOF
