  0
SECTION
  2
HEADER
  9
$ACADVER
  1
AC1009
  9
$INSBASE
 10
0
 20
0
 30
0
  9
$EXTMIN
 10
0
 20
0
  9
$EXTMAX
 10
2970
 20
2100
  9
$LIMMIN
 10
0
 20
0
  9
$LIMMAX
 10
2970
 20
2100
  9
$LTSCALE
 40
10
  0
ENDSEC
  0
SECTION
  2
TABLES
  0
TABLE
  2
LTYPE
 70
     9
  0
LTYPE
  2
CONTINUOUS
 70
    64
  3
実線
 72
    65
 73
     0
 40
0.0
  0
LTYPE
  2
DASHED1
 70
    64
  3
--  --  --  --  --  --  --  --  
 72
    65
 73
     2
 40
2.5
 49
1.25
 49
-1.25
  0
LTYPE
  2
DASHED2
 70
    64
  3
----    ----    ----    ----    
 72
    65
 73
     2
 40
5.0
 49
2.5
 49
-2.5
  0
LTYPE
  2
DASHED3
 70
    64
  3
------  ------  ------  ------  
 72
    65
 73
     2
 40
5.0
 49
3.75
 49
-1.25
  0
LTYPE
  2
CENTER1
 70
    64
  3
----- - ----- - ----- - ----- - 
 72
    65
 73
     4
 40
10.0
 49
6.25
 49
-1.25
 49
1.25
 49
-1.25
  0
LTYPE
  2
CENTER2
 70
    64
  3
----------  --  ----------  --  
 72
    65
 73
     4
 40
20.0
 49
12.5
 49
-2.5
 49
2.5
 49
-2.5
  0
LTYPE
  2
PHANTOM1
 70
    64
  3
--- - - --- - - --- - - --- - - 
 72
    65
 73
     6
 40
10.0
 49
3.25
 49
-1.25
 49
1.25
 49
-1.25
 49
1.25
 49
-1.25
  0
LTYPE
  2
PHANTOM2
 70
    64
  3
--------  -  -  --------  -  -  
 72
    65
 73
     6
 40
20.0
 49
10.0
 49
-2.5
 49
1.25
 49
-2.5
 49
1.25
 49
-2.5
  0
LTYPE
  2
DOT
 70
    64
  3
-   -   -   -   -   -   -   -   
 72
    65
 73
     2
 40
2.5
 49
0.625
 49
-1.875
  0
LTYPE
  2
DUMMY
 70
    64
  3
ダミー
 72
    65
 73
     0
 40
0.0
  0
LTYPE
  2
RAND1
 70
    64
  3
ランダム線1
 72
    65
 73
     4
 40
10.0
 49
1.0
 49
-2.0
 49
3.0
 49
-4.0
  0
LTYPE
  2
RAND2
 70
    64
  3
ランダム線2
 72
    65
 73
     4
 40
14.0
 49
2.0
 49
-3.0
 49
4.0
 49
-5.0
  0
LTYPE
  2
RAND3
 70
    64
  3
ランダム線3
 72
    65
 73
     4
 40
18.0
 49
3.0
 49
-4.0
 49
5.0
 49
-6.0
  0
LTYPE
  2
RAND4
 70
    64
  3
ランダム線4
 72
    65
 73
     4
 40
22.0
 49
4.0
 49
-5.0
 49
6.0
 49
-7.0
  0
LTYPE
  2
RAND5
 70
    64
  3
ランダム線5
 72
    65
 73
     4
 40
26.0
 49
5.0
 49
-6.0
 49
7.0
 49
-8.0
  0
LTYPE
  2
LONG1
 70
    64
  3
----------  --  ----------  --  
 72
    65
 73
     4
 40
40.0
 49
32.5
 49
-2.5
 49
2.5
 49
-2.5
  0
LTYPE
  2
LONG2
 70
    64
  3
--------  -  -  --------  -  -  
 72
    65
 73
     6
 40
40.0
 49
30.0
 49
-2.5
 49
1.25
 49
-2.5
 49
1.25
 49
-2.5
  0
LTYPE
  2
LONG3
 70
    64
  3
+++++++++++++++..+++++++++++++++
 72
    65
 73
     2
 40
40.0
 49
37.5
 49
-2.5
  0
LTYPE
  2
LONG4
 70
    64
  3
+++++++++++++++..+++++++++++++++
 72
    65
 73
     2
 40
80.0
 49
75.0
 49
-5.0
  0
LTYPE
  2
LONG5
 70
    64
  3
----------  --  ----------  --  
 72
    65
 73
     4
 40
60.0
 49
37.5
 49
-7.5
 49
7.5
 49
-7.5
  0
LTYPE
  2
dashed
 70
   64
  3
-------   -------------   ------
 72
   65
 73
    2
 40
7.5
 49
6
 49
-1.5
  0
LTYPE
  2
dashed_spaced
 70
   64
  3
----        --------        ----
 72
   65
 73
    2
 40
12
 49
6
 49
-6
  0
LTYPE
  2
long_dashed_dotted
 70
   64
  3
------------- --- --------------
 72
   65
 73
    4
 40
15.25
 49
12
 49
-1.5
 49
0.25
 49
-1.5
  0
LTYPE
  2
long_dashed_double-dotted
 70
   64
  3
----------- --- --- ------------
 72
   65
 73
    6
 40
17
 49
12
 49
-1.5
 49
0.25
 49
-1.5
 49
0.25
 49
-1.5
  0
LTYPE
  2
long_dashed_triplicate-dotted
 70
   64
  3
--------- --- --- --- ----------
 72
   65
 73
    8
 40
18.75
 49
12
 49
-1.5
 49
0.25
 49
-1.5
 49
0.25
 49
-1.5
 49
0.25
 49
-1.5
  0
LTYPE
  2
dotted
 70
   64
  3
   -       -       -       -    
 72
   65
 73
    2
 40
1.75
 49
0.25
 49
-1.5
  0
LTYPE
  2
chain
 70
   64
  3
-------------- -- --------------
 72
   65
 73
    4
 40
18.5
 49
12
 49
-1.5
 49
3.5
 49
-1.5
  0
LTYPE
  2
chain_double_dash
 70
   64
  3
------------ -- -- -------------
 72
   65
 73
    6
 40
23.5
 49
12
 49
-1.5
 49
3.5
 49
-1.5
 49
3.5
 49
-1.5
  0
LTYPE
  2
dashed_dotted
 70
   64
  3
-----------     -     ----------
 72
   65
 73
    4
 40
9.25
 49
6
 49
-1.5
 49
0.25
 49
-1.5
  0
LTYPE
  2
double-dashed_dotted
 70
   64
  3
------   -----------   -   -----
 72
   65
 73
    6
 40
16.75
 49
6
 49
-1.5
 49
6
 49
-1.5
 49
0.25
 49
-1.5
  0
LTYPE
  2
dashed_double-dotted
 70
   64
  3
---------    -    -    ---------
 72
   65
 73
    6
 40
11
 49
6
 49
-1.5
 49
0.25
 49
-1.5
 49
0.25
 49
-1.5
  0
LTYPE
  2
double-dashed_double-dotted
 70
   64
  3
-----   ---------   -   -   ----
 72
   65
 73
    8
 40
18.5
 49
6
 49
-1.5
 49
6
 49
-1.5
 49
0.25
 49
-1.5
 49
0.25
 49
-1.5
  0
LTYPE
  2
dashed_triplicate-dotted
 70
   64
  3
-------    -    -    -    ------
 72
   65
 73
    8
 40
12.75
 49
6
 49
-1.5
 49
0.25
 49
-1.5
 49
0.25
 49
-1.5
 49
0.25
 49
-1.5
  0
LTYPE
  2
double-dashed_triplicate-dotted
 70
   64
  3
-----  ---------  -  -  -  -----
 72
   65
 73
   10
 40
20.25
 49
6
 49
-1.5
 49
6
 49
-1.5
 49
0.25
 49
-1.5
 49
0.25
 49
-1.5
 49
0.25
 49
-1.5
  0
LTYPE
  2
undefined
 70
   64
  3
--------------------------------
 72
   65
 73
    0
 40
0
  0
ENDTAB
  0
TABLE
  2
STYLE
  5
3
100
AcDbSymbolTable
 70
     1
  0
STYLE
  5
10
100
AcDbSymbolTableRecord
100
AcDbTextStyleTableRecord
  2
STANDARD
 70
     0
 40
0.0
 41
1.0
 50
0.0
 71
     0
 42
0.2
  3
txt
  4
bigfont.shx
  0
STYLE
  5
26
100
AcDbSymbolTableRecord
100
AcDbTextStyleTableRecord
  2
TATEGAKI
 70
    68
 40
0.0
 41
1.0
 50
0.0
 71
     0
 42
1.0
  3
txt
  4
bigfont.shx
  0
ENDTAB
  0
TABLE
  2
LAYER
 70
    6
  0
LAYER
  2
_0-0_LAYER001
 70
   64
 62
    7
  6
CONTINUOUS
  0
LAYER
  2
_0-1_LAYER003
 70
   64
 62
    7
  6
CONTINUOUS
  0
LAYER
  2
_0-2_LAYER004
 70
   64
 62
    7
  6
CONTINUOUS
  0
LAYER
  2
_0-3_LAYER005
 70
   64
 62
    7
  6
CONTINUOUS
  0
LAYER
  2
_0-4_LAYER006
 70
   64
 62
    7
  6
CONTINUOUS
  0
LAYER
  2
ADD_LINE
 70
   64
 62
    7
  6
CONTINUOUS
  0
ENDTAB
  0
ENDSEC
  0
SECTION
  2
BLOCKS
  0
ENDSEC
  0
SECTION
  2
ENTITIES
  0
LINE
  8
_0-2_LAYER004
  6
CONTINUOUS
 62
    2
 10
1784.8971999999999
 20
1045.5835
 11
1778.7417
 21
1059.2625
  0
LINE
  8
_0-2_LAYER004
  6
CONTINUOUS
 62
    2
 10
1750.3458999999998
 20
1414.8038999999999
 11
1752.2869999999998
 21
1407.5595000000001
  0
LINE
  8
_0-2_LAYER004
  6
CONTINUOUS
 62
    2
 10
1752.2869999999998
 20
1407.5595000000001
 11
1746.9837000000002
 21
1412.8628000000001
  0
LINE
  8
_0-2_LAYER004
  6
CONTINUOUS
 62
    2
 10
1752.2869999999998
 20
1407.5595000000001
 11
1707.3321999999998
 21
1485.4236000000001
  0
LINE
  8
_0-2_LAYER004
  6
CONTINUOUS
 62
    2
 10
1707.3321999999998
 20
1485.4236000000001
 11
1534.8321999999998
 21
1485.4236000000001
  0
LINE
  8
_0-0_LAYER001
  6
CONTINUOUS
 62
    2
 10
1299.4117000000001
 20
849.34619999999995
 11
1299.4117000000001
 21
856.84619999999995
  0
LINE
  8
_0-0_LAYER001
  6
CONTINUOUS
 62
    2
 10
1299.4117000000001
 20
856.84619999999995
 11
1303.1617000000001
 21
850.35100000000011
  0
LINE
  8
_0-0_LAYER001
  6
CONTINUOUS
 62
    2
 10
1299.4117000000001
 20
856.84619999999995
 11
1369.0167999999999
 21
597.07629999999995
  0
LINE
  8
_0-2_LAYER004
  6
CONTINUOUS
 62
    2
 10
1962.7438000000002
 20
1362.0325
 11
1910.2438000000002
 21
1362.0325
  0
CIRCLE
  8
_0-2_LAYER004
  6
CONTINUOUS
 62
    2
 10
1960.2438000000002
 20
1362.0325
 40
1.6999999999999997
  0
LINE
  8
_0-2_LAYER004
  6
CONTINUOUS
 62
    2
 10
1960.2438000000002
 20
1362.0325
 11
1960.2438000000002
 21
1065.0415
  0
CIRCLE
  8
_0-2_LAYER004
  6
CONTINUOUS
 62
    2
 10
1960.2438000000002
 20
1065.0415
 40
1.6999999999999997
  0
LINE
  8
_0-2_LAYER004
  6
CONTINUOUS
 62
    2
 10
1962.7438000000002
 20
1065.0415
 11
1910.2438000000002
 21
1065.0415
  0
LINE
  8
_0-2_LAYER004
  6
CONTINUOUS
 62
    2
 10
1784.8971999999999
 20
1162.7897
 11
1784.8971999999999
 21
1202.7897
  0
LINE
  8
_0-0_LAYER001
  6
CONTINUOUS
 62
    2
 10
1695.9888000000001
 20
1144.1742999999999
 11
1700.1513
 21
1129.7635
  0
LINE
  8
_0-0_LAYER001
  6
CONTINUOUS
 62
    2
 10
1784.8971999999999
 20
1154.2427
 11
1780.7345999999998
 21
1168.6534999999999
  0
LINE
  8
_0-0_LAYER001
  6
CONTINUOUS
 62
    2
 10
1672.5349000000001
 20
1122.1854000000001
 11
1696.1170000000002
 21
1130.7686000000001
  0
LINE
  8
_0-0_LAYER001
  6
CONTINUOUS
 62
    2
 10
1672.5349000000001
 20
1122.1854000000001
 11
1678.4475000000002
 21
1123.2057
  0
LINE
  8
_0-0_LAYER001
  6
CONTINUOUS
 62
    2
 10
1700.1513
 20
1129.7635
 11
1784.8971999999999
 21
1154.2427
  0
LINE
  8
_0-0_LAYER001
  6
CONTINUOUS
 62
    2
 10
1695.9888000000001
 20
1144.1742999999999
 11
1780.7345999999998
 21
1168.6534999999999
  0
LINE
  8
_0-0_LAYER001
  6
CONTINUOUS
 62
    2
 10
1693.5122999999999
 20
1145.5407
 11
1696.1170000000002
 21
1130.7686000000001
  0
LINE
  8
_0-0_LAYER001
  6
DASHED1
 62
    2
 10
1832.8782999999999
 20
1134.3217
 11
1827.8782999999999
 21
1137.3217
  0
LINE
  8
_0-0_LAYER001
  6
DASHED1
 62
    2
 10
1827.8782999999999
 20
1131.3217
 11
1832.8782999999999
 21
1134.3217
  0
LINE
  8
_0-0_LAYER001
  6
CONTINUOUS
 62
    2
 10
1760.8782000000001
 20
1131.3217
 11
1760.8782000000001
 21
1137.3217
  0
LINE
  8
_0-0_LAYER001
  6
CONTINUOUS
 62
    2
 10
1754.8782999999999
 20
1128.3216
 11
1754.8782999999999
 21
1140.3217999999999
  0
LINE
  8
_0-0_LAYER001
  6
CONTINUOUS
 62
    2
 10
1763.7653
 20
1131.3217
 11
1767.2283000000002
 21
1137.3217
  0
LINE
  8
_0-0_LAYER001
  6
CONTINUOUS
 62
    2
 10
1754.8782999999999
 20
1128.3216
 11
1760.8782000000001
 21
1131.3217
  0
LINE
  8
_0-0_LAYER001
  6
CONTINUOUS
 62
    2
 10
1760.8782000000001
 20
1137.3217
 11
1754.8782999999999
 21
1140.3217999999999
  0
LINE
  8
_0-0_LAYER001
  6
DASHED1
 62
    2
 10
1827.8782999999999
 20
1137.3217
 11
1784.8782999999999
 21
1137.3217
  0
LINE
  8
_0-0_LAYER001
  6
DASHED1
 62
    2
 10
1827.8782999999999
 20
1131.3217
 11
1784.8782999999999
 21
1131.3217
  0
LINE
  8
_0-0_LAYER001
  6
CONTINUOUS
 62
    2
 10
1784.8782999999999
 20
1130.0717
 11
1784.8782999999999
 21
1138.5717
  0
LINE
  8
_0-0_LAYER001
  6
CONTINUOUS
 62
    2
 10
1754.8782999999999
 20
1114.3217
 11
1784.8782999999999
 21
1114.3217
  0
LINE
  8
_0-0_LAYER001
  6
CONTINUOUS
 62
    2
 10
1784.8782999999999
 20
1137.3217
 11
1760.8782000000001
 21
1137.3217
  0
LINE
  8
_0-0_LAYER001
  6
CONTINUOUS
 62
    2
 10
1784.8782999999999
 20
1131.3217
 11
1760.8782000000001
 21
1131.3217
  0
LINE
  8
_0-0_LAYER001
  6
CONTINUOUS
 62
    2
 10
1769.4884000000002
 20
1131.3217
 11
1772.9515000000001
 21
1137.3217
  0
LINE
  8
_0-0_LAYER001
  6
CONTINUOUS
 62
    2
 10
1775.2114999999999
 20
1131.3217
 11
1778.6745999999998
 21
1137.3217
  0
LINE
  8
_0-0_LAYER001
  6
CONTINUOUS
 62
    2
 10
1780.9346999999998
 20
1131.3217
 11
1784.3977
 21
1137.3217
  0
LINE
  8
_0-0_LAYER001
  6
CONTINUOUS
 62
    2
 10
1754.8782999999999
 20
1114.3217
 11
1754.8782999999999
 21
1145.5716
  0
LINE
  8
_0-0_LAYER001
  6
CONTINUOUS
 62
    2
 10
1784.8782999999999
 20
1114.3217
 11
1760.2723999999998
 21
1147.1297
  0
LINE
  8
_0-0_LAYER001
  6
CONTINUOUS
 62
    2
 10
1693.5122999999999
 20
1145.5407
 11
1780.4920000000002
 21
1170.6650999999999
  0
LINE
  8
_0-0_LAYER001
  6
CONTINUOUS
 62
    2
 10
1764.2685999999999
 20
1163.7227
 11
1773.038
 21
1165.2689
  0
LINE
  8
_0-0_LAYER001
  6
CONTINUOUS
 62
    2
 10
1771.5821999999998
 20
1138.1696999999999
 11
1775.0239000000001
 21
1129.9306999999999
  0
LINE
  8
_0-0_LAYER001
  6
CONTINUOUS
 62
    2
 10
1770.9004
 20
1163.3755000000001
 11
1775.2321999999999
 21
1138.8134
  0
LINE
  8
_0-0_LAYER001
  6
CONTINUOUS
 62
    2
 10
1775.0239000000001
 20
1129.9306999999999
 11
1775.2321999999999
 21
1138.8134
  0
LINE
  8
_0-0_LAYER001
  6
CONTINUOUS
 62
    2
 10
1770.7545
 20
1163.2463
 11
1773.038
 21
1165.2689
  0
ARC
  8
_0-0_LAYER001
  6
CONTINUOUS
 62
    2
 10
1638.7103000000002
 20
1106.1993
 40
71.747425000000007
 50
331.31356
 51
20.228506999999961
  0
LINE
  8
_0-2_LAYER004
  6
CONTINUOUS
 62
    2
 10
1866.7166999999999
 20
1318.6561000000002
 11
1814.2166999999999
 21
1318.6561000000002
  0
CIRCLE
  8
_0-2_LAYER004
  6
CONTINUOUS
 62
    2
 10
1864.2166999999999
 20
1318.6561000000002
 40
1.6999999999999997
  0
LINE
  8
_0-2_LAYER004
  6
CONTINUOUS
 62
    2
 10
1864.2166999999999
 20
1318.6561000000002
 11
1864.2166999999999
 21
1170.6650999999999
  0
CIRCLE
  8
_0-2_LAYER004
  6
CONTINUOUS
 62
    2
 10
1864.2166999999999
 20
1170.6650999999999
 40
1.6999999999999997
  0
LINE
  8
_0-2_LAYER004
  6
CONTINUOUS
 62
    2
 10
1866.7166999999999
 20
1170.6650999999999
 11
1814.2166999999999
 21
1170.6650999999999
  0
LINE
  8
_0-1_LAYER003
  6
CONTINUOUS
 62
    2
 10
1129.1461999999999
 20
684.70049999999992
 11
1784.8971999999999
 21
979.78850000000011
  0
LINE
  8
_0-1_LAYER003
  6
CONTINUOUS
 62
    2
 10
1104.5242000000001
 20
739.41550000000007
 11
1784.8971999999999
 21
1045.5835
  0
LINE
  8
_0-1_LAYER003
  6
CONTINUOUS
 62
    2
 10
1098.3692000000001
 20
753.09449999999993
 11
1778.7417
 21
1059.2625
  0
LINE
  8
_0-2_LAYER004
  6
DASHED3
 62
    2
 10
1096.7272
 20
756.74250000000006
 11
1781.8362000000002
 21
1065.0415
  0
LINE
  8
_0-4_LAYER006
  6
DASHED3
 62
    2
 10
1781.8362000000002
 20
1065.0415
 11
1781.8362000000002
 21
1362.0325
  0
LINE
  8
_0-4_LAYER006
  6
CONTINUOUS
 62
    2
 10
1780.5032000000001
 20
1170.6650999999999
 11
1780.5032000000001
 21
1318.6561000000002
  0
LINE
  8
_0-4_LAYER006
  6
CONTINUOUS
 62
    2
 10
1757.5021999999999
 20
1171.3300999999999
 11
1745.5032000000001
 21
1171.3300999999999
  0
LINE
  8
_0-4_LAYER006
  6
CONTINUOUS
 62
    2
 10
1757.5021999999999
 20
1193.1180999999999
 11
1757.5021999999999
 21
1233.1180999999999
  0
LINE
  8
_0-4_LAYER006
  6
CONTINUOUS
 62
    2
 10
1757.5021999999999
 20
1233.1180999999999
 11
1777.5032000000001
 21
1233.1180999999999
  0
LINE
  8
_0-4_LAYER006
  6
CONTINUOUS
 62
    2
 10
1777.5032000000001
 20
1233.1180999999999
 11
1777.5032000000001
 21
1193.1180999999999
  0
LINE
  8
_0-4_LAYER006
  6
CONTINUOUS
 62
    2
 10
1777.5032000000001
 20
1193.1180999999999
 11
1757.5021999999999
 21
1193.1180999999999
  0
LINE
  8
_0-4_LAYER006
  6
CONTINUOUS
 62
    2
 10
1777.5032000000001
 20
1233.1180999999999
 11
1757.5021999999999
 21
1193.1180999999999
  0
LINE
  8
_0-3_LAYER005
  6
CONTINUOUS
 62
    2
 10
1724.8971999999999
 20
952.78850000000011
 11
1784.8971999999999
 21
952.78850000000011
  0
LINE
  8
_0-3_LAYER005
  6
CONTINUOUS
 62
    2
 10
1724.8971999999999
 20
847.78850000000011
 11
1784.8971999999999
 21
847.78850000000011
  0
LINE
  8
_0-3_LAYER005
  6
CONTINUOUS
 62
    2
 10
1724.8971999999999
 20
952.78850000000011
 11
1724.8971999999999
 21
847.78850000000011
  0
LINE
  8
_0-3_LAYER005
  6
CONTINUOUS
 62
    2
 10
1784.8971999999999
 20
952.78850000000011
 11
1724.8971999999999
 21
847.78850000000011
  0
LINE
  8
_0-1_LAYER003
  6
CONTINUOUS
 62
    3
 10
1784.8971999999999
 20
1480.7915
 11
1784.8971999999999
 21
647.09950000000003
  0
LINE
  8
_0-4_LAYER006
  6
CONTINUOUS
 62
    2
 10
1757.5021999999999
 20
1171.3300999999999
 11
1757.5021999999999
 21
1480.7915
  0
LINE
  8
_0-4_LAYER006
  6
CONTINUOUS
 62
    2
 10
1745.5032000000001
 20
1171.3300999999999
 11
1745.5032000000001
 21
1480.7915
  0
CIRCLE
  8
_0-3_LAYER005
  6
CONTINUOUS
 62
    2
 10
1725.7141999999999
 20
1091.1215
 40
1.018
  0
CIRCLE
  8
_0-3_LAYER005
  6
CONTINUOUS
 62
    2
 10
1718.0351999999998
 20
1090.0245
 40
1.018
  0
CIRCLE
  8
_0-3_LAYER005
  6
CONTINUOUS
 62
    2
 10
1712.5502000000001
 20
1118.3674000000001
 40
1.018
  0
CIRCLE
  8
_0-3_LAYER005
  6
CONTINUOUS
 62
    2
 10
1717.3042
 20
1113.2483999999999
 40
1.018
  0
CIRCLE
  8
_0-3_LAYER005
  6
CONTINUOUS
 62
    2
 10
1718.0351999999998
 20
1107.3974000000001
 40
1.018
  0
CIRCLE
  8
_0-3_LAYER005
  6
CONTINUOUS
 62
    2
 10
1714.3791999999999
 20
1087.9875
 40
1.018
  0
CIRCLE
  8
_0-3_LAYER005
  6
CONTINUOUS
 62
    2
 10
1725.7141999999999
 20
1085.4275
 40
1.018
  0
CIRCLE
  8
_0-3_LAYER005
  6
CONTINUOUS
 62
    2
 10
1723.8861999999999
 20
1106.6664000000001
 40
1.018
  0
CIRCLE
  8
_0-3_LAYER005
  6
CONTINUOUS
 62
    2
 10
1726.8112000000001
 20
1112.5174
 40
1.018
  0
CIRCLE
  8
_0-3_LAYER005
  6
CONTINUOUS
 62
    2
 10
1739.2431999999999
 20
1123.8524
 40
1.018
  0
CIRCLE
  8
_0-3_LAYER005
  6
CONTINUOUS
 62
    2
 10
1734.4902000000002
 20
1092.2184999999999
 40
1.018
  0
CIRCLE
  8
_0-3_LAYER005
  6
CONTINUOUS
 62
    2
 10
1741.4371999999998
 20
1113.0914
 40
1.018
  0
CIRCLE
  8
_0-3_LAYER005
  6
CONTINUOUS
 62
    2
 10
1737.4151999999999
 20
1120.4043999999999
 40
1.018
  0
CIRCLE
  8
_0-3_LAYER005
  6
CONTINUOUS
 62
    2
 10
1727.5421999999999
 20
1117.1134
 40
1.018
  0
CIRCLE
  8
_0-3_LAYER005
  6
CONTINUOUS
 62
    2
 10
1723.5201999999999
 20
1107.6074000000001
 40
1.018
  0
CIRCLE
  8
_0-3_LAYER005
  6
CONTINUOUS
 62
    2
 10
1716.5731999999998
 20
1109.4354000000001
 40
1.018
  0
CIRCLE
  8
_0-3_LAYER005
  6
CONTINUOUS
 62
    2
 10
1726.8112000000001
 20
1085.6365000000001
 40
1.018
  0
CIRCLE
  8
_0-3_LAYER005
  6
CONTINUOUS
 62
    2
 10
1733.7582000000002
 20
1124.5834
 40
1.018
  0
CIRCLE
  8
_0-3_LAYER005
  6
CONTINUOUS
 62
    2
 10
1740.3402000000001
 20
1109.5914
 40
1.018
  0
CIRCLE
  8
_0-3_LAYER005
  6
CONTINUOUS
 62
    2
 10
1742.5342000000001
 20
1105.2044000000001
 40
1.018
  0
CIRCLE
  8
_0-3_LAYER005
  6
CONTINUOUS
 62
    2
 10
1746.9222
 20
1086.8905
 40
1.018
  0
CIRCLE
  8
_0-3_LAYER005
  6
CONTINUOUS
 62
    2
 10
1753.1381999999999
 20
1112.1514
 40
1.018
  0
CIRCLE
  8
_0-3_LAYER005
  6
CONTINUOUS
 62
    2
 10
1756.0632000000001
 20
1085.6365000000001
 40
1.018
  0
CIRCLE
  8
_0-3_LAYER005
  6
CONTINUOUS
 62
    2
 10
1746.1902
 20
1128.8144
 40
1.018
  0
CIRCLE
  8
_0-3_LAYER005
  6
CONTINUOUS
 62
    2
 10
1752.4061999999999
 20
1112.3604
 40
1.018
  0
CIRCLE
  8
_0-3_LAYER005
  6
CONTINUOUS
 62
    2
 10
1746.5562
 20
1089.2935
 40
1.018
  0
CIRCLE
  8
_0-3_LAYER005
  6
CONTINUOUS
 62
    2
 10
1748.7501999999999
 20
1124.2174
 40
1.018
  0
CIRCLE
  8
_0-3_LAYER005
  6
CONTINUOUS
 62
    2
 10
1733.0272
 20
1118.0014000000001
 40
1.018
  0
CIRCLE
  8
_0-3_LAYER005
  6
CONTINUOUS
 62
    2
 10
1734.4902000000002
 20
1112.5174
 40
1.018
  0
CIRCLE
  8
_0-3_LAYER005
  6
CONTINUOUS
 62
    2
 10
1739.9742000000001
 20
1089.4494999999999
 40
1.018
  0
CIRCLE
  8
_0-3_LAYER005
  6
CONTINUOUS
 62
    2
 10
1760.0852
 20
1087.2565
 40
1.018
  0
CIRCLE
  8
_0-3_LAYER005
  6
CONTINUOUS
 62
    2
 10
1768.1291999999999
 20
1105.2044000000001
 40
1.018
  0
CIRCLE
  8
_0-3_LAYER005
  6
CONTINUOUS
 62
    2
 10
1770.6891999999998
 20
1089.4494999999999
 40
1.018
  0
CIRCLE
  8
_0-3_LAYER005
  6
CONTINUOUS
 62
    2
 10
1765.2042000000001
 20
1106.6664000000001
 40
1.018
  0
CIRCLE
  8
_0-3_LAYER005
  6
CONTINUOUS
 62
    2
 10
1772.8832000000002
 20
1088.5615
 40
1.018
  0
CIRCLE
  8
_0-3_LAYER005
  6
CONTINUOUS
 62
    2
 10
1778.7332000000001
 20
1110.5324000000001
 40
1.018
  0
CIRCLE
  8
_0-3_LAYER005
  6
CONTINUOUS
 62
    2
 10
1728.9771999999998
 20
1109.8154
 40
1.018
  0
CIRCLE
  8
_0-3_LAYER005
  6
CONTINUOUS
 62
    2
 10
1746.0781999999999
 20
1123.8394000000001
 40
1.018
  0
CIRCLE
  8
_0-3_LAYER005
  6
CONTINUOUS
 62
    2
 10
1741.5781999999999
 20
1131.0393999999999
 40
1.018
  0
CIRCLE
  8
_0-3_LAYER005
  6
CONTINUOUS
 62
    2
 10
1749.6781999999998
 20
1113.0383999999999
 40
1.018
  0
CIRCLE
  8
_0-3_LAYER005
  6
CONTINUOUS
 62
    2
 10
1739.7782000000002
 20
1116.6384
 40
1.018
  0
CIRCLE
  8
_0-3_LAYER005
  6
CONTINUOUS
 62
    2
 10
1762.2782000000002
 20
1106.2144000000001
 40
1.018
  0
LINE
  8
_0-0_LAYER001
  6
CONTINUOUS
 62
    2
 10
1695.9888000000001
 20
1144.1742999999999
 11
1784.8971999999999
 21
1154.2427
  0
LINE
  8
_0-2_LAYER004
  6
CONTINUOUS
 62
    2
 10
1729.4899999999998
 20
1164.3534
 11
1731.4310999999998
 21
1157.1089999999999
  0
LINE
  8
_0-2_LAYER004
  6
CONTINUOUS
 62
    2
 10
1731.4310999999998
 20
1157.1089999999999
 11
1726.1278000000002
 21
1162.4123
  0
LINE
  8
_0-2_LAYER004
  6
CONTINUOUS
 62
    2
 10
1731.4310999999998
 20
1157.1089999999999
 11
1614.3231999999998
 21
1359.9459999999999
  0
LINE
  8
_0-2_LAYER004
  6
CONTINUOUS
 62
    2
 10
1614.3231999999998
 20
1359.9459999999999
 11
1380.3232
 21
1359.9459999999999
  0
LINE
  8
_0-0_LAYER001
  6
CONTINUOUS
 62
    2
 10
1434.5621000000001
 20
957.91650000000004
 11
1436.5032000000001
 21
950.67200000000003
  0
LINE
  8
_0-0_LAYER001
  6
CONTINUOUS
 62
    2
 10
1436.5032000000001
 20
950.67200000000003
 11
1431.1999000000001
 21
955.97530000000006
  0
LINE
  8
_0-0_LAYER001
  6
CONTINUOUS
 62
    2
 10
1436.5032000000001
 20
950.67200000000003
 11
1381.5152
 21
1045.914
  0
LINE
  8
_0-0_LAYER001
  6
CONTINUOUS
 62
    2
 10
1381.5152
 20
1045.914
 11
1341.0151999999998
 21
1045.914
  0
LINE
  8
_0-0_LAYER001
  6
CONTINUOUS
 62
    2
 10
1666.7642000000001
 20
1341.7625
 11
1666.7642000000001
 21
1247.2438999999999
  0
CIRCLE
  8
_0-0_LAYER001
  6
CONTINUOUS
 62
    2
 10
1666.7642000000001
 20
1339.2625
 40
1.6999999999999997
  0
LINE
  8
_0-0_LAYER001
  6
CONTINUOUS
 62
    2
 10
1666.7642000000001
 20
1339.2625
 11
1745.5032000000001
 21
1339.2625
  0
CIRCLE
  8
_0-0_LAYER001
  6
CONTINUOUS
 62
    2
 10
1745.5032000000001
 20
1339.2625
 40
1.6999999999999997
  0
LINE
  8
_0-0_LAYER001
  6
CONTINUOUS
 62
    2
 10
1745.5032000000001
 20
1288.0531999999998
 11
1745.5032000000001
 21
1270.5532000000001
  0
LINE
  8
_0-2_LAYER004
  6
CONTINUOUS
 62
    2
 10
1770.0585999999998
 20
1230.954
 11
1764.7552999999998
 21
1225.6506999999999
  0
LINE
  8
_0-2_LAYER004
  6
CONTINUOUS
 62
    2
 10
1764.7552999999998
 20
1225.6506999999999
 11
1766.6965
 21
1232.8951
  0
LINE
  8
_0-2_LAYER004
  6
CONTINUOUS
 62
    2
 10
1764.7552999999998
 20
1225.6506999999999
 11
1845.5695999999998
 21
1365.6251
  0
LINE
  8
_0-2_LAYER004
  6
CONTINUOUS
 62
    2
 10
1845.5695999999998
 20
1365.6251
 11
1886.0695999999998
 21
1365.6251
  0
LINE
  8
_0-0_LAYER001
  6
CONTINUOUS
 62
    2
 10
1737.482
 20
1048.0183999999999
 11
1764.8389999999999
 21
1060.3307
  0
LINE
  8
_0-0_LAYER001
  6
CONTINUOUS
 62
    2
 10
1764.8389999999999
 20
1060.3307
 11
1758.6828
 21
1074.0092
  0
LINE
  8
_0-0_LAYER001
  6
CONTINUOUS
 62
    2
 10
1758.6828
 20
1074.0092
 11
1731.3258000000001
 21
1061.6968999999999
  0
LINE
  8
_0-0_LAYER001
  6
CONTINUOUS
 62
    2
 10
1731.3258000000001
 20
1061.6968999999999
 11
1737.482
 21
1048.0183999999999
  0
LINE
  8
_0-0_LAYER001
  6
CONTINUOUS
 62
    2
 10
1758.6828
 20
1074.0092
 11
1737.482
 21
1048.0183999999999
  0
LINE
  8
_0-0_LAYER001
  6
CONTINUOUS
 62
    4
 10
1771.4627999999998
 20
1065.8765000000001
 11
1761.1174999999998
 21
1094.2067999999999
  0
LINE
  8
_0-0_LAYER001
  6
CONTINUOUS
 62
    4
 10
1771.4627999999998
 20
1065.8765000000001
 11
1764.3683999999998
 21
1063.3026
  0
LINE
  8
_0-0_LAYER001
  6
CONTINUOUS
 62
    4
 10
1760.1120999999998
 20
1075.0344
 11
1764.3683999999998
 21
1063.3026
  0
LINE
  8
_0-0_LAYER001
  6
CONTINUOUS
 62
    4
 10
1761.1174999999998
 20
1094.2067999999999
 11
1741.4274999999998
 21
1141.086
  0
LINE
  8
_0-0_LAYER001
  6
CONTINUOUS
 62
    2
 10
1091.8568
 20
757.44620000000009
 11
1119.2138
 21
769.75859999999989
  0
LINE
  8
_0-0_LAYER001
  6
CONTINUOUS
 62
    2
 10
1119.2138
 20
769.75859999999989
 11
1113.0577000000001
 21
783.4371000000001
  0
LINE
  8
_0-0_LAYER001
  6
CONTINUOUS
 62
    2
 10
1113.0577000000001
 20
783.4371000000001
 11
1085.7007000000001
 21
771.12470000000008
  0
LINE
  8
_0-0_LAYER001
  6
CONTINUOUS
 62
    2
 10
1085.7007000000001
 20
771.12470000000008
 11
1091.8568
 21
757.44620000000009
  0
LINE
  8
_0-0_LAYER001
  6
CONTINUOUS
 62
    2
 10
1113.0577000000001
 20
783.4371000000001
 11
1091.8568
 21
757.44620000000009
  0
LINE
  8
_0-0_LAYER001
  6
CONTINUOUS
 62
    4
 10
1126.9232
 20
775.61280000000011
 11
1116.5779
 21
803.94309999999996
  0
LINE
  8
_0-0_LAYER001
  6
CONTINUOUS
 62
    2
 10
1307.0652
 20
854.30359999999996
 11
1334.4222
 21
866.61599999999999
  0
LINE
  8
_0-0_LAYER001
  6
CONTINUOUS
 62
    2
 10
1334.4222
 20
866.61599999999999
 11
1328.2660000000001
 21
880.29449999999997
  0
LINE
  8
_0-0_LAYER001
  6
CONTINUOUS
 62
    2
 10
1328.2660000000001
 20
880.29449999999997
 11
1300.9090000000001
 21
867.98209999999995
  0
LINE
  8
_0-0_LAYER001
  6
CONTINUOUS
 62
    2
 10
1300.9090000000001
 20
867.98209999999995
 11
1307.0652
 21
854.30359999999996
  0
LINE
  8
_0-0_LAYER001
  6
CONTINUOUS
 62
    2
 10
1328.2660000000001
 20
880.29449999999997
 11
1307.0652
 21
854.30359999999996
  0
LINE
  8
_0-0_LAYER001
  6
CONTINUOUS
 62
    4
 10
1341.7697000000001
 20
872.36740000000009
 11
1331.4244000000003
 21
900.69769999999994
  0
LINE
  8
_0-0_LAYER001
  6
CONTINUOUS
 62
    2
 10
1522.2736
 20
951.16100000000006
 11
1549.6306
 21
963.47340000000008
  0
LINE
  8
_0-0_LAYER001
  6
CONTINUOUS
 62
    2
 10
1549.6306
 20
963.47340000000008
 11
1543.4744000000001
 21
977.15190000000007
  0
LINE
  8
_0-0_LAYER001
  6
CONTINUOUS
 62
    2
 10
1543.4744000000001
 20
977.15190000000007
 11
1516.1174000000001
 21
964.83950000000004
  0
LINE
  8
_0-0_LAYER001
  6
CONTINUOUS
 62
    2
 10
1516.1174000000001
 20
964.83950000000004
 11
1522.2736
 21
951.16100000000006
  0
LINE
  8
_0-0_LAYER001
  6
CONTINUOUS
 62
    2
 10
1543.4744000000001
 20
977.15190000000007
 11
1522.2736
 21
951.16100000000006
  0
LINE
  8
_0-0_LAYER001
  6
CONTINUOUS
 62
    4
 10
1556.6161999999999
 20
969.1219000000001
 11
1546.2710000000002
 21
997.45219999999995
  0
LINE
  8
_0-0_LAYER001
  6
CONTINUOUS
 62
    4
 10
1556.6161999999999
 20
969.1219000000001
 11
1549.1691000000001
 21
966.42010000000005
  0
LINE
  8
_0-0_LAYER001
  6
CONTINUOUS
 62
    4
 10
1544.9128000000001
 20
978.15190000000007
 11
1549.1691000000001
 21
966.42010000000005
  0
LINE
  8
_0-0_LAYER001
  6
CONTINUOUS
 62
    4
 10
1341.7697000000001
 20
872.36740000000009
 11
1333.9699000000001
 21
869.53760000000011
  0
LINE
  8
_0-0_LAYER001
  6
CONTINUOUS
 62
    4
 10
1329.7136
 20
881.26929999999993
 11
1333.9699000000001
 21
869.53760000000011
  0
LINE
  8
_0-0_LAYER001
  6
CONTINUOUS
 62
    4
 10
1126.9232
 20
775.61280000000011
 11
1118.7706000000001
 21
772.65509999999995
  0
LINE
  8
_0-0_LAYER001
  6
CONTINUOUS
 62
    4
 10
1114.5143
 20
784.38679999999999
 11
1118.7706000000001
 21
772.65509999999995
  0
LINE
  8
_0-0_LAYER001
  6
CONTINUOUS
 62
    4
 10
1269.3932
 20
897.00019999999995
 11
1760.1120999999998
 21
1075.0344
  0
LINE
  8
_0-0_LAYER001
  6
CONTINUOUS
 62
    4
 10
1252.0733
 20
944.73929999999996
 11
1463.0482000000002
 21
1021.2816
  0
LINE
  8
_0-0_LAYER001
  6
CONTINUOUS
 62
    4
 10
1460.6649000000002
 20
1028.1613
 11
1480.4677000000001
 21
973.57860000000005
  0
ARC
  8
_0-0_LAYER001
  6
CONTINUOUS
 62
    4
 10
1470.4414000000002
 20
1031.7082
 40
10.4
 50
109.94091000000002
 51
199.94091
  0
ARC
  8
_0-0_LAYER001
  6
CONTINUOUS
 62
    4
 10
1272.9148
 20
887.21450000000004
 40
10.4
 50
109.94091000000002
 51
199.94091
  0
ARC
  8
_0-0_LAYER001
  6
CONTINUOUS
 62
    4
 10
1487.7613000000001
 20
983.96910000000003
 40
10.4
 50
109.94091000000002
 51
199.94091
  0
LINE
  8
_0-0_LAYER001
  6
CONTINUOUS
 62
    4
 10
1483.3339000000001
 20
993.42609999999991
 11
1761.1174999999998
 21
1094.2067999999999
  0
LINE
  8
_0-0_LAYER001
  6
CONTINUOUS
 62
    4
 10
1460.6649000000002
 20
1028.1613
 11
1474.4378999999999
 21
990.19859999999994
  0
LINE
  8
_0-0_LAYER001
  6
CONTINUOUS
 62
    4
 10
1116.5779
 20
803.94309999999996
 11
1329.7136
 21
881.26929999999993
  0
LINE
  8
_0-0_LAYER001
  6
CONTINUOUS
 62
    4
 10
1075.8317999999999
 20
770.35269999999991
 11
1114.5143
 21
784.38679999999999
  0
LINE
  8
_0-0_LAYER001
  6
CONTINUOUS
 62
    4
 10
1068.5562
 20
786.52070000000003
 11
1116.5779
 21
803.94309999999996
  0
LINE
  8
_0-0_LAYER001
  6
CONTINUOUS
 62
    4
 10
1040.3822
 20
849.12959999999998
 11
1248.2016000000001
 21
924.52700000000004
  0
LINE
  8
_0-0_LAYER001
  6
CONTINUOUS
 62
    4
 10
1251.8481999999999
 20
914.78670000000011
 11
1265.6212
 21
876.82410000000004
  0
LINE
  8
_0-0_LAYER001
  6
CONTINUOUS
 62
    4
 10
1061.2806
 20
802.68869999999993
 11
1544.9128000000001
 21
978.15190000000007
  0
LINE
  8
_0-0_LAYER001
  6
CONTINUOUS
 62
    4
 10
1466.0140000000001
 20
1041.1651999999999
 11
1741.4274999999998
 21
1141.086
  0
LINE
  8
_0-0_LAYER001
  6
CONTINUOUS
 62
    4
 10
1245.8184000000001
 20
931.4067
 11
1265.6212
 21
876.82410000000004
  0
ARC
  8
_0-0_LAYER001
  6
CONTINUOUS
 62
    4
 10
1255.5949000000001
 20
934.95370000000003
 40
10.4
 50
109.94091000000002
 51
199.94091
  0
LINE
  8
_0-0_LAYER001
  6
CONTINUOUS
 62
    2
 10
986.87239999999997
 20
959.29739999999993
 11
1206.2511999999999
 21
1039.4073000000001
  0
CIRCLE
  8
_0-0_LAYER001
  6
CONTINUOUS
 62
    2
 10
1206.2511999999999
 20
1039.4073000000001
 40
1.6999999999999997
  0
LINE
  8
_0-0_LAYER001
  6
CONTINUOUS
 62
    2
 10
1205.3937000000001
 20
1041.7556
 11
1223.4018000000001
 21
992.44070000000011
  0
LINE
  8
_0-0_LAYER001
  6
CONTINUOUS
 62
    2
 10
1191.6732
 20
1079.3288
 11
1209.6813
 21
1030.0139999999999
  0
CIRCLE
  8
_0-0_LAYER001
  6
CONTINUOUS
 62
    2
 10
1192.5307
 20
1076.9804999999999
 40
1.6999999999999997
  0
LINE
  8
_0-0_LAYER001
  6
CONTINUOUS
 62
    2
 10
1192.5307
 20
1076.9804999999999
 11
1413.2735
 21
1157.5884000000001
  0
CIRCLE
  8
_0-0_LAYER001
  6
CONTINUOUS
 62
    2
 10
1413.2735
 20
1157.5884000000001
 40
1.6999999999999997
  0
LINE
  8
_0-0_LAYER001
  6
CONTINUOUS
 62
    2
 10
1412.4159
 20
1159.9367
 11
1430.4241
 21
1110.6217999999999
  0
LINE
  8
_0-0_LAYER001
  6
CONTINUOUS
 62
    2
 10
1685.1914000000002
 20
1302.1287000000002
 11
1703.1995000000002
 21
1252.8137999999999
  0
CIRCLE
  8
_0-0_LAYER001
  6
CONTINUOUS
 62
    2
 10
1686.0488999999998
 20
1299.7804000000001
 40
1.6999999999999997
  0
LINE
  8
_0-0_LAYER001
  6
CONTINUOUS
 62
    2
 10
1686.0488999999998
 20
1299.7804000000001
 11
1399.5530000000003
 21
1195.1615999999999
  0
CIRCLE
  8
_0-0_LAYER001
  6
CONTINUOUS
 62
    2
 10
1399.5530000000003
 20
1195.1615999999999
 40
1.6999999999999997
  0
LINE
  8
_0-0_LAYER001
  6
CONTINUOUS
 62
    2
 10
1398.6954000000001
 20
1197.51
 11
1416.7036000000003
 21
1148.1950999999999
  0
LINE
  8
_0-0_LAYER001
  6
CONTINUOUS
 62
    2
 10
1176.9094
 20
641.56420000000003
 11
1165.6231
 21
666.64149999999995
  0
CIRCLE
  8
_0-0_LAYER001
  6
CONTINUOUS
 62
    2
 10
1175.8833999999999
 20
643.84400000000005
 40
1.6999999999999997
  0
LINE
  8
_0-0_LAYER001
  6
CONTINUOUS
 62
    2
 10
1175.8833999999999
 20
643.84400000000005
 11
1391.0917999999997
 21
740.70129999999995
  0
CIRCLE
  8
_0-0_LAYER001
  6
CONTINUOUS
 62
    2
 10
1391.0917999999997
 20
740.70129999999995
 40
1.6999999999999997
  0
LINE
  8
_0-0_LAYER001
  6
CONTINUOUS
 62
    2
 10
1392.1178
 20
738.4215999999999
 11
1380.8314999999998
 21
763.49880000000007
  0
CIRCLE
  8
_0-0_LAYER001
  6
CONTINUOUS
 62
    2
 10
1391.0917999999997
 20
740.70129999999995
 40
1.6999999999999997
  0
LINE
  8
_0-0_LAYER001
  6
CONTINUOUS
 62
    2
 10
1391.0917999999997
 20
740.70129999999995
 11
1606.3002000000001
 21
837.55870000000004
  0
CIRCLE
  8
_0-0_LAYER001
  6
CONTINUOUS
 62
    2
 10
1606.3002000000001
 20
837.55870000000004
 40
1.6999999999999997
  0
LINE
  8
_0-0_LAYER001
  6
CONTINUOUS
 62
    2
 10
1607.3262
 20
835.279
 11
1596.0398
 21
860.35619999999994
  0
CIRCLE
  8
_0-0_LAYER001
  6
CONTINUOUS
 62
    2
 10
1606.3002000000001
 20
837.55870000000004
 40
1.6999999999999997
  0
LINE
  8
_0-0_LAYER001
  6
CONTINUOUS
 62
    2
 10
1606.3002000000001
 20
837.55870000000004
 11
1821.5084999999999
 21
934.41609999999991
  0
CIRCLE
  8
_0-0_LAYER001
  6
CONTINUOUS
 62
    2
 10
1821.5084999999999
 20
934.41609999999991
 40
1.6999999999999997
  0
LINE
  8
_0-0_LAYER001
  6
CONTINUOUS
 62
    2
 10
1822.5346
 20
932.13640000000009
 11
1811.2482
 21
957.21360000000004
  0
LINE
  8
_0-2_LAYER004
  6
CONTINUOUS
 62
    2
 10
1709.5408000000002
 20
1146.6848
 11
1711.482
 21
1139.4404
  0
LINE
  8
_0-2_LAYER004
  6
CONTINUOUS
 62
    2
 10
1711.482
 20
1139.4404
 11
1706.1786999999999
 21
1144.7437
  0
LINE
  8
_0-2_LAYER004
  6
CONTINUOUS
 62
    2
 10
1711.482
 20
1139.4404
 11
1613.4933000000001
 21
1309.1617999999999
  0
LINE
  8
_0-2_LAYER004
  6
CONTINUOUS
 62
    2
 10
1613.4933000000001
 20
1309.1617999999999
 11
1464.5940999999998
 21
1309.1617999999999
  0
LINE
  8
_0-0_LAYER001
  6
CONTINUOUS
 62
    2
 10
1362.6731
 20
626.94290000000001
 11
1534.3445000000002
 21
626.94290000000001
  0
LINE
  8
_0-0_LAYER001
  6
CONTINUOUS
 62
    2
 10
1761.6309000000001
 20
1092.6172999999999
 11
1759.6898000000001
 21
1099.8616999999999
  0
LINE
  8
_0-0_LAYER001
  6
CONTINUOUS
 62
    2
 10
1759.6898000000001
 20
1099.8616999999999
 11
1764.9931000000001
 21
1094.5583999999999
  0
LINE
  8
_0-0_LAYER001
  6
CONTINUOUS
 62
    2
 10
1759.6898000000001
 20
1099.8616999999999
 11
1828.0038
 21
981.53839999999991
  0
LINE
  8
_0-0_LAYER001
  6
CONTINUOUS
 62
    2
 10
1828.0038
 20
981.53839999999991
 11
1905.4517999999998
 21
981.53839999999991
  0
LINE
  8
_0-0_LAYER001
  6
CONTINUOUS
 62
    2
 10
1353.1300000000001
 20
657.03819999999996
 11
1590.7629999999999
 21
657.03819999999996
  0
LINE
  8
_0-0_LAYER001
  6
CONTINUOUS
 62
    2
 10
1369.0167999999999
 20
597.07629999999995
 11
1431.6075000000001
 21
597.07629999999995
  0
LINE
  8
_0-0_LAYER001
  6
CONTINUOUS
 62
    2
 10
1344.5006000000001
 20
687.13359999999989
 11
1549.3233
 21
687.13359999999989
  0
LINE
  8
_0-1_LAYER003
  6
CONTINUOUS
 62
    7
 10
1534.8321999999998
 20
1485.4236000000001
 11
1707.3321999999998
 21
1485.4236000000001
  0
LINE
  8
_0-1_LAYER003
  6
CONTINUOUS
 62
    7
 10
1845.5695999999998
 20
1365.6251
 11
1886.0695999999998
 21
1365.6251
  0
LINE
  8
_0-1_LAYER003
  6
CONTINUOUS
 62
    7
 10
1380.3232
 20
1359.9459999999999
 11
1614.3231999999998
 21
1359.9459999999999
  0
LINE
  8
_0-1_LAYER003
  6
CONTINUOUS
 62
    7
 10
1464.5940999999998
 20
1309.1617999999999
 11
1613.4933000000001
 21
1309.1617999999999
  0
LINE
  8
_0-1_LAYER003
  6
CONTINUOUS
 62
    7
 10
1666.7642000000001
 20
1341.7625
 11
1666.7642000000001
 21
1247.2438999999999
  0
LINE
  8
_0-1_LAYER003
  6
CONTINUOUS
 62
    7
 10
1668.4642000000003
 20
1339.2625
 11
1745.5032000000001
 21
1339.2625
  0
LINE
  8
_0-1_LAYER003
  6
CONTINUOUS
 62
    7
 10
1745.5032000000001
 20
1480.7915
 11
1745.5032000000001
 21
1171.3300999999999
  0
LINE
  8
_0-1_LAYER003
  6
CONTINUOUS
 62
    7
 10
1745.5032000000001
 20
1171.3300999999999
 11
1757.5021999999999
 21
1171.3300999999999
  0
LINE
  8
_0-1_LAYER003
  6
CONTINUOUS
 62
    7
 10
1757.5021999999999
 20
1171.3300999999999
 11
1757.5021999999999
 21
1480.7915
  0
LINE
  8
_0-1_LAYER003
  6
CONTINUOUS
 62
    7
 10
1818.4520209519737
 20
1318.6561000000002
 11
1864.2166999999999
 21
1318.6561000000002
  0
LINE
  8
_0-1_LAYER003
  6
CONTINUOUS
 62
    7
 10
1814.2166999999999
 20
1170.6650999999999
 11
1866.7166999999999
 21
1170.6650999999999
  0
LINE
  8
_0-1_LAYER003
  6
CONTINUOUS
 62
    7
 10
1910.2438000000002
 20
1362.0325
 11
1962.7438000000002
 21
1362.0325
  0
LINE
  8
_0-1_LAYER003
  6
CONTINUOUS
 62
    7
 10
1960.2438000000002
 20
1360.3325
 11
1960.2438000000002
 21
1066.7415000000001
  0
LINE
  8
_0-1_LAYER003
  6
CONTINUOUS
 62
    7
 10
1910.2438000000002
 20
1065.0415
 11
1960.2438000000002
 21
1065.0415
  0
LINE
  8
_0-1_LAYER003
  6
CONTINUOUS
 62
    7
 10
1958.5438000000001
 20
1065.0415
 11
1962.7438000000002
 21
1065.0415
  0
LINE
  8
_0-1_LAYER003
  6
CONTINUOUS
 62
    7
 10
1828.0038
 20
981.53839999999991
 11
1905.4517999999998
 21
981.53839999999991
  0
LINE
  8
_0-1_LAYER003
  6
CONTINUOUS
 62
    7
 10
1724.897210166459
 20
952.78850000000011
 11
1784.8971999999999
 21
952.78850000000011
  0
LINE
  8
_0-1_LAYER003
  6
CONTINUOUS
 62
    7
 10
1724.897210166459
 20
952.78850000000011
 11
1724.897210166459
 21
847.78850000000011
  0
LINE
  8
_0-1_LAYER003
  6
CONTINUOUS
 62
    7
 10
1724.8971999999999
 20
847.78850000000011
 11
1784.8971999999999
 21
847.78850000000011
  0
LINE
  8
_0-1_LAYER003
  6
CONTINUOUS
 62
    7
 10
1784.8971999999999
 20
647.09950000000003
 11
1784.8971999999999
 21
1480.7915
  0
LINE
  8
_0-1_LAYER003
  6
CONTINUOUS
 62
    7
 10
1754.8782999999999
 20
1145.5716
 11
1754.8782999999999
 21
1114.3217
  0
LINE
  8
_0-1_LAYER003
  6
CONTINUOUS
 62
    7
 10
1754.8782999999999
 20
1114.3217
 11
1784.8782999999999
 21
1114.3217
  0
LINE
  8
_0-1_LAYER003
  6
CONTINUOUS
 62
    7
 10
1781.8362000000002
 20
1065.0415
 11
1781.8362000000002
 21
1362.0325
  0
LINE
  8
_0-1_LAYER003
  6
CONTINUOUS
 62
    7
 10
1780.5032000000001
 20
1318.6561000000002
 11
1780.5032000000001
 21
1170.6650999999999
  0
LINE
  8
_0-1_LAYER003
  6
CONTINUOUS
 62
    7
 10
1757.5021999999999
 20
1193.1180999999999
 11
1777.5032000000001
 21
1193.1180999999999
  0
LINE
  8
_0-1_LAYER003
  6
CONTINUOUS
 62
    7
 10
1777.5032000000001
 20
1193.1180999999999
 11
1777.5032000000001
 21
1233.1180999999999
  0
LINE
  8
_0-1_LAYER003
  6
CONTINUOUS
 62
    7
 10
1777.5032000000001
 20
1233.1180999999999
 11
1757.5021999999999
 21
1233.1180999999999
  0
LINE
  8
_0-1_LAYER003
  6
CONTINUOUS
 62
    7
 10
1344.8860312995848
 20
687.13359999999989
 11
1549.3233
 21
687.13359999999989
  0
LINE
  8
_0-1_LAYER003
  6
CONTINUOUS
 62
    7
 10
1353.1300000000001
 20
657.03819999999996
 11
1590.7629999999999
 21
657.03819999999996
  0
LINE
  8
_0-1_LAYER003
  6
CONTINUOUS
 62
    7
 10
1534.3445000000002
 20
626.94290000000001
 11
1362.6731
 21
626.94290000000001
  0
LINE
  8
_0-1_LAYER003
  6
CONTINUOUS
 62
    7
 10
1369.0167999999999
 20
597.07629999999995
 11
1431.6075000000001
 21
597.07629999999995
  0
LINE
  8
_0-1_LAYER003
  6
CONTINUOUS
 62
    7
 10
1165.6231
 20
666.64149999999995
 11
1176.5810581429398
 21
642.29375062793451
  0
LINE
  8
_0-1_LAYER003
  6
CONTINUOUS
 62
    7
 10
1175.8833999999999
 20
643.84400000000005
 11
1821.5084999999999
 21
934.41609999999991
  0
LINE
  8
_0-1_LAYER003
  6
CONTINUOUS
 62
    7
 10
1822.2062752162333
 20
932.86590331970092
 11
1811.2482
 21
957.21360000000004
  0
LINE
  8
_0-1_LAYER003
  6
CONTINUOUS
 62
    7
 10
1784.8971999999999
 20
952.78850000000011
 11
1724.897210166459
 21
847.78851779130321
  0
LINE
  8
_0-1_LAYER003
  6
CONTINUOUS
 62
    7
 10
1828.0038
 20
981.53839999999991
 11
1759.6898000000001
 21
1099.8616999999999
  0
LINE
  8
_0-1_LAYER003
  6
CONTINUOUS
 62
    7
 10
1759.6898000000001
 20
1099.8616999999999
 11
1764.9931000000001
 21
1094.5583999999999
  0
LINE
  8
_0-1_LAYER003
  6
CONTINUOUS
 62
    7
 10
1759.6898000000001
 20
1099.8616999999999
 11
1761.6309000000001
 21
1092.6172999999999
  0
LINE
  8
_0-1_LAYER003
  6
CONTINUOUS
 62
    7
 10
1778.7417
 20
1059.2625
 11
1784.8971999999999
 21
1045.5835
  0
LINE
  8
_0-1_LAYER003
  6
CONTINUOUS
 62
    7
 10
1784.8971999999999
 20
1045.5835
 11
1104.5242000000001
 21
739.41550000000007
  0
LINE
  8
_0-1_LAYER003
  6
CONTINUOUS
 62
    7
 10
1098.3692000000001
 20
753.09449999999993
 11
1778.7417
 21
1059.2625
  0
LINE
  8
_0-1_LAYER003
  6
CONTINUOUS
 62
    7
 10
1129.1461999999999
 20
684.70049999999992
 11
1784.8971999999999
 21
979.78850000000011
  0
LINE
  8
_0-1_LAYER003
  6
CONTINUOUS
 62
    7
 10
1096.7272
 20
756.74250000000006
 11
1781.8362000000002
 21
1065.0415
  0
LINE
  8
_0-1_LAYER003
  6
CONTINUOUS
 62
    7
 10
1737.482
 20
1048.0183999999999
 11
1731.3258000000001
 21
1061.6968999999999
  0
LINE
  8
_0-1_LAYER003
  6
CONTINUOUS
 62
    7
 10
1731.3258000000001
 20
1061.6968999999999
 11
1758.6828
 21
1074.0092
  0
LINE
  8
_0-1_LAYER003
  6
CONTINUOUS
 62
    7
 10
1758.6828
 20
1074.0092
 11
1764.8389999999999
 21
1060.3307
  0
LINE
  8
_0-1_LAYER003
  6
CONTINUOUS
 62
    7
 10
1764.8389999999999
 20
1060.3307
 11
1737.482
 21
1048.0183999999999
  0
LINE
  8
_0-1_LAYER003
  6
CONTINUOUS
 62
    7
 10
1737.482
 20
1048.0183999999999
 11
1758.6828
 21
1074.0092
  0
LINE
  8
_0-1_LAYER003
  6
CONTINUOUS
 62
    7
 10
1522.2736
 20
951.16100000000006
 11
1516.1174000000001
 21
964.83950000000004
  0
LINE
  8
_0-1_LAYER003
  6
CONTINUOUS
 62
    7
 10
1516.1174000000001
 20
964.83950000000004
 11
1543.4744000000001
 21
977.15190000000007
  0
LINE
  8
_0-1_LAYER003
  6
CONTINUOUS
 62
    7
 10
1543.4744000000001
 20
977.15190000000007
 11
1549.6306
 21
963.47340000000008
  0
LINE
  8
_0-1_LAYER003
  6
CONTINUOUS
 62
    7
 10
1549.6306
 20
963.47340000000008
 11
1522.2736
 21
951.16100000000006
  0
LINE
  8
_0-1_LAYER003
  6
CONTINUOUS
 62
    7
 10
1522.2736
 20
951.16100000000006
 11
1543.4744000000001
 21
977.15190000000007
  0
LINE
  8
_0-1_LAYER003
  6
CONTINUOUS
 62
    7
 10
1341.0151999999998
 20
1045.914
 11
1381.5152
 21
1045.914
  0
LINE
  8
_0-1_LAYER003
  6
CONTINUOUS
 62
    7
 10
1381.5152
 20
1045.914
 11
1436.5032000000001
 21
950.67200000000003
  0
LINE
  8
_0-1_LAYER003
  6
CONTINUOUS
 62
    7
 10
1436.5032000000001
 20
950.67200000000003
 11
1434.5621000000001
 21
957.91650000000004
  0
LINE
  8
_0-1_LAYER003
  6
CONTINUOUS
 62
    7
 10
1436.5032000000001
 20
950.67200000000003
 11
1431.1999000000001
 21
955.97530000000006
  0
LINE
  8
_0-1_LAYER003
  6
CONTINUOUS
 62
    7
 10
1299.4117000000001
 20
849.34619999999995
 11
1299.4117000000001
 21
856.84619999999995
  0
LINE
  8
_0-1_LAYER003
  6
CONTINUOUS
 62
    7
 10
1299.4117000000001
 20
856.84619999999995
 11
1303.1617000000001
 21
850.35100000000011
  0
LINE
  8
_0-1_LAYER003
  6
CONTINUOUS
 62
    7
 10
1299.4117000000001
 20
856.84619999999995
 11
1369.0167999999999
 21
597.07629999999995
  0
LINE
  8
_0-1_LAYER003
  6
CONTINUOUS
 62
    7
 10
1391.789494479875
 20
739.15106698114369
 11
1380.8314999999998
 21
763.49880000000007
  0
LINE
  8
_0-1_LAYER003
  6
CONTINUOUS
 62
    7
 10
1606.9978920609549
 20
836.00846589249215
 11
1596.0398
 21
860.35619999999994
  0
LINE
  8
_0-1_LAYER003
  6
CONTINUOUS
 62
    7
 10
1307.0652
 20
854.30359999999996
 11
1300.9090000000001
 21
867.98209999999995
  0
LINE
  8
_0-1_LAYER003
  6
CONTINUOUS
 62
    7
 10
1300.9090000000001
 20
867.98209999999995
 11
1328.2660000000001
 21
880.29449999999997
  0
LINE
  8
_0-1_LAYER003
  6
CONTINUOUS
 62
    7
 10
1328.2660000000001
 20
880.29449999999997
 11
1334.4222
 21
866.61599999999999
  0
LINE
  8
_0-1_LAYER003
  6
CONTINUOUS
 62
    7
 10
1334.4222
 20
866.61599999999999
 11
1307.0652
 21
854.30359999999996
  0
LINE
  8
_0-1_LAYER003
  6
CONTINUOUS
 62
    7
 10
1307.0652
 20
854.30359999999996
 11
1328.2660000000001
 21
880.29449999999997
  0
LINE
  8
_0-1_LAYER003
  6
CONTINUOUS
 62
    7
 10
1091.8568
 20
757.44620000000009
 11
1085.7007000000001
 21
771.12470000000008
  0
LINE
  8
_0-1_LAYER003
  6
CONTINUOUS
 62
    7
 10
1085.7007000000001
 20
771.12470000000008
 11
1113.0577000000001
 21
783.4371000000001
  0
LINE
  8
_0-1_LAYER003
  6
CONTINUOUS
 62
    7
 10
1113.0577000000001
 20
783.4371000000001
 11
1119.2138
 21
769.75859999999989
  0
LINE
  8
_0-1_LAYER003
  6
CONTINUOUS
 62
    7
 10
1119.2138
 20
769.75859999999989
 11
1091.8568
 21
757.44620000000009
  0
LINE
  8
_0-1_LAYER003
  6
CONTINUOUS
 62
    7
 10
1091.8568
 20
757.44620000000009
 11
1113.0577000000001
 21
783.4371000000001
  0
LINE
  8
_0-1_LAYER003
  6
CONTINUOUS
 62
    7
 10
986.87239999999997
 20
959.29739999999993
 11
1206.2511999999999
 21
1039.4073000000001
  0
LINE
  8
_0-1_LAYER003
  6
CONTINUOUS
 62
    7
 10
1223.4018000000001
 20
992.44070000000011
 11
1192.5307
 21
1076.9804999999999
  0
LINE
  8
_0-1_LAYER003
  6
CONTINUOUS
 62
    7
 10
1192.5307175383205
 20
1076.9805064044087
 11
1191.9475971751692
 21
1078.577369154212
  0
LINE
  8
_0-1_LAYER003
  6
CONTINUOUS
 62
    7
 10
1192.5307
 20
1076.9804999999999
 11
1413.2735
 21
1157.5884000000001
  0
LINE
  8
_0-1_LAYER003
  6
CONTINUOUS
 62
    7
 10
1430.4241
 20
1110.6217999999999
 11
1398.9698420148429
 21
1196.7584490111301
  0
LINE
  8
_0-1_LAYER003
  6
CONTINUOUS
 62
    7
 10
1399.5530000000003
 20
1195.1615999999999
 11
1686.0488999999998
 21
1299.7804000000001
  0
LINE
  8
_0-1_LAYER003
  6
CONTINUOUS
 62
    7
 10
1685.4657966842155
 20
1301.3772689749387
 11
1703.1995000000002
 21
1252.8137999999999
  0
LINE
  8
_0-1_LAYER003
  6
CONTINUOUS
 62
    7
 10
1614.3231999999998
 20
1359.9459999999999
 11
1731.4310999999998
 21
1157.1089999999999
  0
LINE
  8
_0-1_LAYER003
  6
CONTINUOUS
 62
    7
 10
1731.4310999999998
 20
1157.1089999999999
 11
1729.4899999999998
 21
1164.3534
  0
LINE
  8
_0-1_LAYER003
  6
CONTINUOUS
 62
    7
 10
1731.4310999999998
 20
1157.1089999999999
 11
1726.1278000000002
 21
1162.4123
  0
LINE
  8
_0-1_LAYER003
  6
CONTINUOUS
 62
    7
 10
1726.1278000000002
 20
1162.4123
 11
1731.4310999999998
 21
1157.1089999999999
  0
LINE
  8
_0-1_LAYER003
  6
CONTINUOUS
 62
    7
 10
1711.482
 20
1139.4404
 11
1709.5408000000002
 21
1146.6848
  0
LINE
  8
_0-1_LAYER003
  6
CONTINUOUS
 62
    7
 10
1711.482
 20
1139.4404
 11
1706.1786999999999
 21
1144.7437
  0
LINE
  8
_0-1_LAYER003
  6
CONTINUOUS
 62
    7
 10
1711.482
 20
1139.4404
 11
1613.4933000000001
 21
1309.1617999999999
  0
LINE
  8
_0-1_LAYER003
  6
CONTINUOUS
 62
    7
 10
1678.4475000000002
 20
1123.2057
 11
1672.5349000000001
 21
1122.1854000000001
  0
LINE
  8
_0-1_LAYER003
  6
CONTINUOUS
 62
    7
 10
1672.5349000000001
 20
1122.1854000000001
 11
1696.1170000000002
 21
1130.7686000000001
  0
LINE
  8
_0-1_LAYER003
  6
CONTINUOUS
 62
    7
 10
1696.1170000000002
 20
1130.7686000000001
 11
1693.5122999999999
 21
1145.5407
  0
LINE
  8
_0-1_LAYER003
  6
CONTINUOUS
 62
    7
 10
1693.5122999999999
 20
1145.5407
 11
1780.5032000000001
 21
1170.6650999999999
  0
LINE
  8
_0-1_LAYER003
  6
CONTINUOUS
 62
    7
 10
1780.7345999999998
 20
1168.6534999999999
 11
1784.8971999999999
 21
1154.2427
  0
LINE
  8
_0-1_LAYER003
  6
CONTINUOUS
 62
    7
 10
1784.8971999999999
 20
1154.2427
 11
1700.1513
 21
1129.7635
  0
LINE
  8
_0-1_LAYER003
  6
CONTINUOUS
 62
    7
 10
1700.1513
 20
1129.7635
 11
1695.9888000000001
 21
1144.1742999999999
  0
LINE
  8
_0-1_LAYER003
  6
CONTINUOUS
 62
    7
 10
1695.9888000000001
 20
1144.1742999999999
 11
1780.7345999999998
 21
1168.6534999999999
  0
LINE
  8
_0-1_LAYER003
  6
CONTINUOUS
 62
    7
 10
1695.9888000000001
 20
1144.1742999999999
 11
1784.8971999999999
 21
1154.2427
  0
LINE
  8
_0-1_LAYER003
  6
CONTINUOUS
 62
    7
 10
1764.2685999999999
 20
1163.7227
 11
1773.038
 21
1165.2689
  0
LINE
  8
_0-1_LAYER003
  6
CONTINUOUS
 62
    7
 10
1773.038
 20
1165.2689
 11
1770.9004
 21
1163.3755000000001
  0
LINE
  8
_0-1_LAYER003
  6
CONTINUOUS
 62
    7
 10
1770.9004
 20
1163.3755000000001
 11
1775.2321999999999
 21
1138.8134
  0
LINE
  8
_0-1_LAYER003
  6
CONTINUOUS
 62
    7
 10
1771.5821999999998
 20
1138.1696999999999
 11
1775.0239000000001
 21
1129.9306999999999
  0
LINE
  8
_0-1_LAYER003
  6
CONTINUOUS
 62
    7
 10
1775.0239000000001
 20
1129.9306999999999
 11
1775.2321999999999
 21
1138.8134
  0
LINE
  8
_0-1_LAYER003
  6
CONTINUOUS
 62
    7
 10
1754.8782999999999
 20
1140.3217999999999
 11
1760.8782000000001
 21
1137.3217
  0
LINE
  8
_0-1_LAYER003
  6
CONTINUOUS
 62
    7
 10
1760.8782000000001
 20
1137.3217
 11
1760.8782000000001
 21
1131.3217
  0
LINE
  8
_0-1_LAYER003
  6
CONTINUOUS
 62
    7
 10
1760.8782000000001
 20
1131.3217
 11
1754.8782999999999
 21
1128.3216
  0
LINE
  8
_0-1_LAYER003
  6
CONTINUOUS
 62
    7
 10
1760.8782000000001
 20
1137.3217
 11
1827.8782999999999
 21
1137.3217
  0
LINE
  8
_0-1_LAYER003
  6
CONTINUOUS
 62
    7
 10
1827.8782999999999
 20
1137.3217
 11
1832.8782999999999
 21
1134.3217
  0
LINE
  8
_0-1_LAYER003
  6
CONTINUOUS
 62
    7
 10
1832.8782999999999
 20
1134.3217
 11
1827.8782999999999
 21
1131.3217
  0
LINE
  8
_0-1_LAYER003
  6
CONTINUOUS
 62
    7
 10
1827.8782999999999
 20
1131.3217
 11
1760.8782000000001
 21
1131.3217
  0
LINE
  8
_0-1_LAYER003
  6
CONTINUOUS
 62
    7
 10
1784.8782999999999
 20
1114.3217
 11
1760.2723999999998
 21
1147.1297
  0
LINE
  8
_0-0_LAYER001
  6
CONTINUOUS
 62
    2
 10
1767.2858016374471
 20
1162.5325224711523
 11
1764.2685999999999
 21
1163.7227
  0
LINE
  8
_0-1_LAYER003
  6
CONTINUOUS
 62
    7
 10
1764.2685999999999
 20
1163.7227
 11
1767.2858016374471
 21
1162.5325224711523
  0
LINE
  8
_0-0_LAYER001
  6
CONTINUOUS
 62
    2
 10
1767.2858016374471
 20
1162.5325224711523
 11
1771.5821999999998
 21
1138.1696999999999
  0
LINE
  8
_0-1_LAYER003
  6
CONTINUOUS
 62
    7
 10
1767.2858016374471
 20
1162.5325224711523
 11
1771.5821999999998
 21
1138.1696999999999
  0
LINE
  8
_0-1_LAYER003
  6
CONTINUOUS
 62
    7
 10
1864.2166999999999
 20
1170.6650999999999
 11
1864.2166999999999
 21
1318.6561000000002
  0
LINE
  8
_0-1_LAYER003
  6
CONTINUOUS
 62
    7
 10
1777.5032000000001
 20
1233.1180999999999
 11
1757.5021999999999
 21
1193.1180999999999
  0
LINE
  8
_0-1_LAYER003
  6
CONTINUOUS
 62
    7
 10
1766.6965
 20
1232.8951
 11
1764.7552999999998
 21
1225.6506999999999
  0
LINE
  8
_0-1_LAYER003
  6
CONTINUOUS
 62
    7
 10
1764.7552999999998
 20
1225.6506999999999
 11
1770.0585999999998
 21
1230.954
  0
LINE
  8
_0-1_LAYER003
  6
CONTINUOUS
 62
    7
 10
1764.7552999999998
 20
1225.6506999999999
 11
1845.5695999999998
 21
1365.6251
  0
LINE
  8
_0-1_LAYER003
  6
CONTINUOUS
 62
    7
 10
1750.3458999999998
 20
1414.8038999999999
 11
1752.2869999999998
 21
1407.5595000000001
  0
LINE
  8
_0-1_LAYER003
  6
CONTINUOUS
 62
    7
 10
1746.9837000000002
 20
1412.8628000000001
 11
1752.2869999999998
 21
1407.5595000000001
  0
LINE
  8
_0-1_LAYER003
  6
CONTINUOUS
 62
    7
 10
1752.2869999999998
 20
1407.5595000000001
 11
1707.3321999999998
 21
1485.4236000000001
  0
TEXT
  8
_0-2_LAYER004
 62
    7
 10
1845.5695999999994
 20
1368.1251
 40
20
 41
1
 50
0
  1
胴　縁
  0
TEXT
  8
_0-0_LAYER001
 62
    7
 10
1369.8463000000004
 20
599.57629999999995
 40
20
 41
1
 50
0
  1
　垂木
  0
TEXT
  8
_0-0_LAYER001
 62
    7
 10
1331.3372270494563
 20
1056.1535511384284
 40
20
 41
1
 50
0
  1
桟　瓦
  0
TEXT
  8
_0-0_LAYER001
 62
    7
 10
1828.8682748418682
 20
991.32374794123496
 40
20
 41
1
 50
0
  1
　葺　土
  0
TEXT
  8
_0-0_LAYER001
 62
    7
 10
1083.6709625493493
 20
1003.7536755186873
 40
20
 41
1
 50
20.060507000000005
  1
235
  0
TEXT
  8
_0-0_LAYER001
 62
    7
 10
1286.1998197615953
 20
1125.2709898460348
 40
20
 41
1
 50
20.060506999999991
  1
235
  0
TEXT
  8
_0-0_LAYER001
 62
    7
 10
1704.468908600353
 20
1308.7579876714519
 40
20
 41
1
 50
0
  1
75
  0
TEXT
  8
_0-2_LAYER004
 62
    7
 10
1853.2806199558834
 20
1238.6871498848918
 40
20
 41
1
 50
90
  1
150
  0
TEXT
  8
_0-0_LAYER001
 62
    7
 10
1687.6985722543936
 20
884.46847811867201
 40
20
 41
1
 50
24.230757999999991
  1
236
  0
TEXT
  8
_0-0_LAYER001
 62
    7
 10
1493.1626706412612
 20
795.58569548508569
 40
20
 41
1
 50
24.230758000000005
  1
236
  0
TEXT
  8
_0-0_LAYER001
 62
    7
 10
1256.7009281632297
 20
694.96367740932772
 40
20
 41
1
 50
24.230758000000019
  1
236
  0
TEXT
  8
_0-0_LAYER001
 62
    7
 10
1348.9377780660079
 20
689.93257650553971
 40
20
 41
1
 50
0
  1
　瓦桟：１５ｘ３０以上
  0
TEXT
  8
_0-0_LAYER001
 62
    7
 10
1365.7081144119675
 20
632.91343292927695
 40
20
 41
1
 50
0
  1
　野地板：杉ｔ＝１２
  0
TEXT
  8
_0-0_LAYER001
 62
    7
 10
1353.1300000000006
 20
659.53819999999996
 40
20
 41
1
 50
0
  1
　下葺材：ルーフィング
  0
TEXT
  8
_0-2_LAYER004
 62
    7
 10
1950.9928528859605
 20
1193.0426668843302
 40
20
 41
1
 50
90
  1
300
  0
TEXT
  8
_0-1_LAYER003
 62
    7
 10
1994.5957273854556
 20
1114.2220860583197
 40
20
 41
1
 50
90
  1
下葺き材立上がり寸法
  0
TEXT
  8
_0-2_LAYER004
 62
    7
 10
1895.6507429442934
 20
1132.6694560388753
 40
20
 41
1
 50
90
  1
水切り立上がり寸法
  0
TEXT
  8
_0-2_LAYER004
 62
    7
 10
1356.967614359974
 20
1365.225868706442
 40
20
 41
1
 50
0
  1
雨押水切カラー鋼板0.35ｍｍ以上
  0
TEXT
  8
_0-0_LAYER001
 62
    7
 10
1514.9641078910088
 20
1246.7077431914011
 40
20
 41
1
 50
20.060506999999969
  1
305
  0
TEXT
  8
_0-2_LAYER004
 62
    7
 10
1434.4664934304024
 20
1313.7890885752399
 40
20
 41
1
 50
0
  1
笠木：１５ｘ１０５
  0
TEXT
  8
_0-2_LAYER004
 62
    7
 10
1514.9641078910088
 20
1491.5546538424123
 40
20
 41
1
 50
0
  1
外壁　防火サイディング
  0
ENDSEC
  0
EOF
