  0
SECTION
  2
HEADER
  9
$ACADVER
  1
AC1009
  9
$INSBASE
 10
0
 20
0
 30
0
  9
$EXTMIN
 10
0
 20
0
  9
$EXTMAX
 10
2970
 20
2100
  9
$LIMMIN
 10
0
 20
0
  9
$LIMMAX
 10
2970
 20
2100
  9
$LTSCALE
 40
10
  0
ENDSEC
  0
SECTION
  2
TABLES
  0
TABLE
  2
LTYPE
 70
     9
  0
LTYPE
  2
CONTINUOUS
 70
    64
  3
実線
 72
    65
 73
     0
 40
0.0
  0
LTYPE
  2
DASHED1
 70
    64
  3
--  --  --  --  --  --  --  --  
 72
    65
 73
     2
 40
2.5
 49
1.25
 49
-1.25
  0
LTYPE
  2
DASHED2
 70
    64
  3
----    ----    ----    ----    
 72
    65
 73
     2
 40
5.0
 49
2.5
 49
-2.5
  0
LTYPE
  2
DASHED3
 70
    64
  3
------  ------  ------  ------  
 72
    65
 73
     2
 40
5.0
 49
3.75
 49
-1.25
  0
LTYPE
  2
CENTER1
 70
    64
  3
----- - ----- - ----- - ----- - 
 72
    65
 73
     4
 40
10.0
 49
6.25
 49
-1.25
 49
1.25
 49
-1.25
  0
LTYPE
  2
CENTER2
 70
    64
  3
----------  --  ----------  --  
 72
    65
 73
     4
 40
20.0
 49
12.5
 49
-2.5
 49
2.5
 49
-2.5
  0
LTYPE
  2
PHANTOM1
 70
    64
  3
--- - - --- - - --- - - --- - - 
 72
    65
 73
     6
 40
10.0
 49
3.25
 49
-1.25
 49
1.25
 49
-1.25
 49
1.25
 49
-1.25
  0
LTYPE
  2
PHANTOM2
 70
    64
  3
--------  -  -  --------  -  -  
 72
    65
 73
     6
 40
20.0
 49
10.0
 49
-2.5
 49
1.25
 49
-2.5
 49
1.25
 49
-2.5
  0
LTYPE
  2
DOT
 70
    64
  3
-   -   -   -   -   -   -   -   
 72
    65
 73
     2
 40
2.5
 49
0.625
 49
-1.875
  0
LTYPE
  2
DUMMY
 70
    64
  3
ダミー
 72
    65
 73
     0
 40
0.0
  0
LTYPE
  2
RAND1
 70
    64
  3
ランダム線1
 72
    65
 73
     4
 40
10.0
 49
1.0
 49
-2.0
 49
3.0
 49
-4.0
  0
LTYPE
  2
RAND2
 70
    64
  3
ランダム線2
 72
    65
 73
     4
 40
14.0
 49
2.0
 49
-3.0
 49
4.0
 49
-5.0
  0
LTYPE
  2
RAND3
 70
    64
  3
ランダム線3
 72
    65
 73
     4
 40
18.0
 49
3.0
 49
-4.0
 49
5.0
 49
-6.0
  0
LTYPE
  2
RAND4
 70
    64
  3
ランダム線4
 72
    65
 73
     4
 40
22.0
 49
4.0
 49
-5.0
 49
6.0
 49
-7.0
  0
LTYPE
  2
RAND5
 70
    64
  3
ランダム線5
 72
    65
 73
     4
 40
26.0
 49
5.0
 49
-6.0
 49
7.0
 49
-8.0
  0
LTYPE
  2
LONG1
 70
    64
  3
----------  --  ----------  --  
 72
    65
 73
     4
 40
40.0
 49
32.5
 49
-2.5
 49
2.5
 49
-2.5
  0
LTYPE
  2
LONG2
 70
    64
  3
--------  -  -  --------  -  -  
 72
    65
 73
     6
 40
40.0
 49
30.0
 49
-2.5
 49
1.25
 49
-2.5
 49
1.25
 49
-2.5
  0
LTYPE
  2
LONG3
 70
    64
  3
+++++++++++++++..+++++++++++++++
 72
    65
 73
     2
 40
40.0
 49
37.5
 49
-2.5
  0
LTYPE
  2
LONG4
 70
    64
  3
+++++++++++++++..+++++++++++++++
 72
    65
 73
     2
 40
80.0
 49
75.0
 49
-5.0
  0
LTYPE
  2
LONG5
 70
    64
  3
----------  --  ----------  --  
 72
    65
 73
     4
 40
60.0
 49
37.5
 49
-7.5
 49
7.5
 49
-7.5
  0
LTYPE
  2
dashed
 70
   64
  3
-------   -------------   ------
 72
   65
 73
    2
 40
7.5
 49
6
 49
-1.5
  0
LTYPE
  2
dashed_spaced
 70
   64
  3
----        --------        ----
 72
   65
 73
    2
 40
12
 49
6
 49
-6
  0
LTYPE
  2
long_dashed_dotted
 70
   64
  3
------------- --- --------------
 72
   65
 73
    4
 40
15.25
 49
12
 49
-1.5
 49
0.25
 49
-1.5
  0
LTYPE
  2
long_dashed_double-dotted
 70
   64
  3
----------- --- --- ------------
 72
   65
 73
    6
 40
17
 49
12
 49
-1.5
 49
0.25
 49
-1.5
 49
0.25
 49
-1.5
  0
LTYPE
  2
long_dashed_triplicate-dotted
 70
   64
  3
--------- --- --- --- ----------
 72
   65
 73
    8
 40
18.75
 49
12
 49
-1.5
 49
0.25
 49
-1.5
 49
0.25
 49
-1.5
 49
0.25
 49
-1.5
  0
LTYPE
  2
dotted
 70
   64
  3
   -       -       -       -    
 72
   65
 73
    2
 40
1.75
 49
0.25
 49
-1.5
  0
LTYPE
  2
chain
 70
   64
  3
-------------- -- --------------
 72
   65
 73
    4
 40
18.5
 49
12
 49
-1.5
 49
3.5
 49
-1.5
  0
LTYPE
  2
chain_double_dash
 70
   64
  3
------------ -- -- -------------
 72
   65
 73
    6
 40
23.5
 49
12
 49
-1.5
 49
3.5
 49
-1.5
 49
3.5
 49
-1.5
  0
LTYPE
  2
dashed_dotted
 70
   64
  3
-----------     -     ----------
 72
   65
 73
    4
 40
9.25
 49
6
 49
-1.5
 49
0.25
 49
-1.5
  0
LTYPE
  2
double-dashed_dotted
 70
   64
  3
------   -----------   -   -----
 72
   65
 73
    6
 40
16.75
 49
6
 49
-1.5
 49
6
 49
-1.5
 49
0.25
 49
-1.5
  0
LTYPE
  2
dashed_double-dotted
 70
   64
  3
---------    -    -    ---------
 72
   65
 73
    6
 40
11
 49
6
 49
-1.5
 49
0.25
 49
-1.5
 49
0.25
 49
-1.5
  0
LTYPE
  2
double-dashed_double-dotted
 70
   64
  3
-----   ---------   -   -   ----
 72
   65
 73
    8
 40
18.5
 49
6
 49
-1.5
 49
6
 49
-1.5
 49
0.25
 49
-1.5
 49
0.25
 49
-1.5
  0
LTYPE
  2
dashed_triplicate-dotted
 70
   64
  3
-------    -    -    -    ------
 72
   65
 73
    8
 40
12.75
 49
6
 49
-1.5
 49
0.25
 49
-1.5
 49
0.25
 49
-1.5
 49
0.25
 49
-1.5
  0
LTYPE
  2
double-dashed_triplicate-dotted
 70
   64
  3
-----  ---------  -  -  -  -----
 72
   65
 73
   10
 40
20.25
 49
6
 49
-1.5
 49
6
 49
-1.5
 49
0.25
 49
-1.5
 49
0.25
 49
-1.5
 49
0.25
 49
-1.5
  0
LTYPE
  2
undefined
 70
   64
  3
--------------------------------
 72
   65
 73
    0
 40
0
  0
ENDTAB
  0
TABLE
  2
STYLE
  5
3
100
AcDbSymbolTable
 70
     1
  0
STYLE
  5
10
100
AcDbSymbolTableRecord
100
AcDbTextStyleTableRecord
  2
STANDARD
 70
     0
 40
0.0
 41
1.0
 50
0.0
 71
     0
 42
0.2
  3
txt
  4
bigfont.shx
  0
STYLE
  5
26
100
AcDbSymbolTableRecord
100
AcDbTextStyleTableRecord
  2
TATEGAKI
 70
    68
 40
0.0
 41
1.0
 50
0.0
 71
     0
 42
1.0
  3
txt
  4
bigfont.shx
  0
ENDTAB
  0
TABLE
  2
LAYER
 70
    6
  0
LAYER
  2
_0-0_LAYER001
 70
   64
 62
    7
  6
CONTINUOUS
  0
LAYER
  2
_0-1_LAYER003
 70
   64
 62
    7
  6
CONTINUOUS
  0
LAYER
  2
_0-2_LAYER004
 70
   64
 62
    7
  6
CONTINUOUS
  0
LAYER
  2
_0-3_LAYER006
 70
   64
 62
    7
  6
CONTINUOUS
  0
LAYER
  2
_0-4_LAYER007
 70
   64
 62
    7
  6
CONTINUOUS
  0
LAYER
  2
ADD_LINE
 70
   64
 62
    7
  6
CONTINUOUS
  0
ENDTAB
  0
ENDSEC
  0
SECTION
  2
BLOCKS
  0
ENDSEC
  0
SECTION
  2
ENTITIES
  0
LINE
  8
_0-0_LAYER001
  6
CONTINUOUS
 62
    2
 10
1851.279
 20
1070.2462
 11
1846.5479
 21
1063.0998999999999
  0
LINE
  8
_0-0_LAYER001
  6
CONTINUOUS
 62
    2
 10
1853.8099999999999
 20
1074.5147999999999
 11
1868.8099999999999
 21
984.6733999999999
  0
LINE
  8
_0-0_LAYER001
  6
CONTINUOUS
 62
    2
 10
1808.3135000000002
 20
1120.1585
 11
1810.2547
 21
1112.914
  0
LINE
  8
_0-0_LAYER001
  6
CONTINUOUS
 62
    2
 10
1810.2547
 20
1112.914
 11
1804.9513999999999
 21
1118.2173
  0
LINE
  8
_0-0_LAYER001
  6
CONTINUOUS
 62
    2
 10
1810.2547
 20
1112.914
 11
1739.2145999999998
 21
1235.9591
  0
LINE
  8
_0-0_LAYER001
  6
CONTINUOUS
 62
    2
 10
1739.2145999999998
 20
1235.9591
 11
1505.2145999999998
 21
1235.9591
  0
LINE
  8
_0-0_LAYER001
  6
CONTINUOUS
 62
    2
 10
1842.5158999999999
 20
1297.7277999999999
 11
1844.4571000000001
 21
1290.4834000000001
  0
LINE
  8
_0-0_LAYER001
  6
CONTINUOUS
 62
    2
 10
1844.4571000000001
 20
1290.4834000000001
 11
1839.1538
 21
1295.7867000000001
  0
LINE
  8
_0-0_LAYER001
  6
CONTINUOUS
 62
    2
 10
1844.4571000000001
 20
1290.4834000000001
 11
1783.3814000000002
 21
1396.2695000000003
  0
LINE
  8
_0-0_LAYER001
  6
CONTINUOUS
 62
    2
 10
1783.3814000000002
 20
1396.2695000000003
 11
1610.8814000000002
 21
1396.2695000000003
  0
LINE
  8
_0-3_LAYER006
  6
CONTINUOUS
 62
    2
 10
1865.3031999999998
 20
1095.9521999999999
 11
1859.9998999999998
 21
1090.6488999999999
  0
LINE
  8
_0-3_LAYER006
  6
CONTINUOUS
 62
    2
 10
1859.9998999999998
 20
1090.6488999999999
 11
1861.9411
 21
1097.8933999999999
  0
LINE
  8
_0-3_LAYER006
  6
CONTINUOUS
 62
    2
 10
1859.9998999999998
 20
1090.6488999999999
 11
1897.1632
 21
1155.0175999999999
  0
LINE
  8
_0-3_LAYER006
  6
CONTINUOUS
 62
    2
 10
1897.1632
 20
1155.0175999999999
 11
1978.1632
 21
1155.0175999999999
  0
LINE
  8
_0-0_LAYER001
  6
CONTINUOUS
 62
    2
 10
1861.6694000000002
 20
1178.0050000000001
 11
1863.6104999999998
 21
1170.7606000000001
  0
LINE
  8
_0-0_LAYER001
  6
CONTINUOUS
 62
    2
 10
1863.6104999999998
 20
1170.7606000000001
 11
1858.3072000000002
 21
1176.0639000000001
  0
LINE
  8
_0-0_LAYER001
  6
CONTINUOUS
 62
    2
 10
1863.6104999999998
 20
1170.7606000000001
 11
1768.8613999999998
 21
1334.8708999999999
  0
LINE
  8
_0-0_LAYER001
  6
CONTINUOUS
 62
    2
 10
1768.8613999999998
 20
1334.8708999999999
 11
1728.3613999999998
 21
1334.8708999999999
  0
LINE
  8
_0-0_LAYER001
  6
CONTINUOUS
 62
    2
 10
1863.3784000000001
 20
1003.6039000000001
 11
1861.4371999999998
 21
1010.8484000000001
  0
LINE
  8
_0-0_LAYER001
  6
CONTINUOUS
 62
    2
 10
1861.4371999999998
 20
1010.8484000000001
 11
1866.7404999999999
 21
1005.5451
  0
LINE
  8
_0-0_LAYER001
  6
CONTINUOUS
 62
    2
 10
1861.4371999999998
 20
1010.8484000000001
 11
1922.2301000000002
 21
905.55199999999991
  0
LINE
  8
_0-0_LAYER001
  6
CONTINUOUS
 62
    2
 10
1922.2301000000002
 20
905.55199999999991
 11
2085.7301000000002
 21
905.55199999999991
  0
LINE
  8
_0-0_LAYER001
  6
CONTINUOUS
 62
    2
 10
2109.8289
 20
980.42740000000003
 11
2057.3289
 21
980.42740000000003
  0
CIRCLE
  8
_0-0_LAYER001
  6
CONTINUOUS
 62
    2
 10
2107.3289
 20
980.42740000000003
 40
1.6999999999999997
  0
LINE
  8
_0-0_LAYER001
  6
CONTINUOUS
 62
    2
 10
2107.3289
 20
980.42740000000003
 11
2107.3289
 21
1124.7911999999999
  0
CIRCLE
  8
_0-0_LAYER001
  6
CONTINUOUS
 62
    2
 10
2107.3289
 20
1124.7911999999999
 40
1.6999999999999997
  0
LINE
  8
_0-0_LAYER001
  6
CONTINUOUS
 62
    2
 10
2109.8289
 20
1124.7911999999999
 11
2057.3289
 21
1124.7911999999999
  0
CIRCLE
  8
_0-0_LAYER001
  6
CONTINUOUS
 62
    2
 10
2107.3289
 20
1124.7911999999999
 40
1.6999999999999997
  0
LINE
  8
_0-0_LAYER001
  6
CONTINUOUS
 62
    2
 10
2107.3289
 20
1124.7911999999999
 11
2107.3289
 21
1274.7911999999999
  0
CIRCLE
  8
_0-0_LAYER001
  6
CONTINUOUS
 62
    2
 10
2107.3289
 20
1274.7911999999999
 40
1.6999999999999997
  0
LINE
  8
_0-0_LAYER001
  6
CONTINUOUS
 62
    2
 10
2109.8289
 20
1274.7911999999999
 11
2057.3289
 21
1274.7911999999999
  0
CIRCLE
  8
_0-3_LAYER006
  6
CONTINUOUS
 62
    2
 10
2025.2085000000002
 20
1280.4284000000002
 40
1.6999999999999997
  0
LINE
  8
_0-3_LAYER006
  6
CONTINUOUS
 62
    2
 10
2025.2085000000002
 20
1280.4284000000002
 11
2025.2085000000002
 21
980.42740000000003
  0
CIRCLE
  8
_0-3_LAYER006
  6
CONTINUOUS
 62
    2
 10
2025.2085000000002
 20
980.42740000000003
 40
1.6999999999999997
  0
LINE
  8
_0-3_LAYER006
  6
CONTINUOUS
 62
    2
 10
2027.7085000000002
 20
1280.4284000000002
 11
1975.2085000000002
 21
1280.4284000000002
  0
LINE
  8
_0-3_LAYER006
  6
CONTINUOUS
 62
    2
 10
2027.7085000000002
 20
980.42740000000003
 11
1975.2085000000002
 21
980.42740000000003
  0
LINE
  8
_0-3_LAYER006
  6
CONTINUOUS
 62
    2
 10
1873.616
 20
1104.5147999999999
 11
1857.2863000000002
 21
1104.5147999999999
  0
LINE
  8
_0-3_LAYER006
  6
CONTINUOUS
 62
    2
 10
1843.616
 20
1102.0107
 11
1843.616
 21
1074.5147999999999
  0
LINE
  8
_0-3_LAYER006
  6
CONTINUOUS
 62
    2
 10
1843.616
 20
1074.5147999999999
 11
1873.616
 21
1074.5147999999999
  0
LINE
  8
_0-3_LAYER006
  6
CONTINUOUS
 62
    2
 10
1873.616
 20
1074.5147999999999
 11
1873.616
 21
1104.5147999999999
  0
LINE
  8
_0-3_LAYER006
  6
CONTINUOUS
 62
    2
 10
1873.616
 20
1104.5147999999999
 11
1843.616
 21
1074.5147999999999
  0
LINE
  8
_0-0_LAYER001
  6
CONTINUOUS
 62
    2
 10
1763.616
 20
1190.5709999999999
 11
1763.616
 21
1173.0709999999999
  0
CIRCLE
  8
_0-0_LAYER001
  6
CONTINUOUS
 62
    2
 10
1763.616
 20
1188.0709999999999
 40
1.6999999999999997
  0
LINE
  8
_0-0_LAYER001
  6
CONTINUOUS
 62
    2
 10
1763.616
 20
1188.0709999999999
 11
1838.616
 21
1188.0709999999999
  0
CIRCLE
  8
_0-0_LAYER001
  6
CONTINUOUS
 62
    2
 10
1838.616
 20
1188.0709999999999
 40
1.6999999999999997
  0
LINE
  8
_0-0_LAYER001
  6
CONTINUOUS
 62
    2
 10
1838.616
 20
1190.5709999999999
 11
1838.616
 21
1173.0709999999999
  0
LINE
  8
_0-0_LAYER001
  6
CONTINUOUS
 62
    2
 10
1968.7066
 20
980.42740000000003
 11
1916.2066
 21
980.42740000000003
  0
CIRCLE
  8
_0-0_LAYER001
  6
CONTINUOUS
 62
    2
 10
1966.2066
 20
980.42740000000003
 40
1.6999999999999997
  0
LINE
  8
_0-0_LAYER001
  6
CONTINUOUS
 62
    2
 10
1966.2066
 20
980.42740000000003
 11
1966.2066
 21
1074.5147999999999
  0
CIRCLE
  8
_0-0_LAYER001
  6
CONTINUOUS
 62
    2
 10
1966.2066
 20
1074.5147999999999
 40
1.6999999999999997
  0
LINE
  8
_0-0_LAYER001
  6
CONTINUOUS
 62
    2
 10
1968.7066
 20
1074.5147999999999
 11
1916.2066
 21
1074.5147999999999
  0
LINE
  8
_0-0_LAYER001
  6
CONTINUOUS
 62
    2
 10
1494.1765
 20
1015.5232000000001
 11
1496.1176999999998
 21
1008.2788
  0
LINE
  8
_0-0_LAYER001
  6
CONTINUOUS
 62
    2
 10
1496.1176999999998
 20
1008.2788
 11
1490.8144000000002
 21
1013.5821000000001
  0
LINE
  8
_0-0_LAYER001
  6
CONTINUOUS
 62
    2
 10
1496.1176999999998
 20
1008.2788
 11
1455.5781000000002
 21
1078.4953
  0
LINE
  8
_0-0_LAYER001
  6
CONTINUOUS
 62
    2
 10
1455.5781000000002
 20
1078.4953
 11
1415.0781000000002
 21
1078.4953
  0
LINE
  8
_0-0_LAYER001
  6
CONTINUOUS
 62
    2
 10
1828.7516999999998
 20
978.05500000000006
 11
1826.8105
 21
985.29940000000011
  0
LINE
  8
_0-0_LAYER001
  6
CONTINUOUS
 62
    2
 10
1826.8105
 20
985.29940000000011
 11
1832.1138000000001
 21
979.99610000000007
  0
LINE
  8
_0-0_LAYER001
  6
CONTINUOUS
 62
    2
 10
1826.8105
 20
985.29940000000011
 11
1919.7557000000002
 21
824.31359999999995
  0
LINE
  8
_0-0_LAYER001
  6
CONTINUOUS
 62
    2
 10
1919.7557000000002
 20
824.31359999999995
 11
2120.7557000000002
 21
824.31359999999995
  0
LINE
  8
_0-0_LAYER001
  6
CONTINUOUS
 62
    2
 10
1731.7049999999999
 20
873.25949999999989
 11
1731.7049999999999
 21
925.75949999999989
  0
CIRCLE
  8
_0-0_LAYER001
  6
CONTINUOUS
 62
    2
 10
1731.7049999999999
 20
875.75949999999989
 40
1.6999999999999997
  0
LINE
  8
_0-0_LAYER001
  6
CONTINUOUS
 62
    2
 10
1731.7049999999999
 20
875.75949999999989
 11
1851.279
 21
875.75949999999989
  0
CIRCLE
  8
_0-0_LAYER001
  6
CONTINUOUS
 62
    2
 10
1851.279
 20
875.75949999999989
 40
1.6999999999999997
  0
LINE
  8
_0-0_LAYER001
  6
CONTINUOUS
 62
    2
 10
1851.279
 20
873.25949999999989
 11
1851.279
 21
925.75949999999989
  0
LINE
  8
_0-0_LAYER001
  6
CONTINUOUS
 62
    2
 10
1834.8737999999998
 20
1118.1705999999999
 11
1836.8150000000001
 21
1110.9260999999999
  0
LINE
  8
_0-0_LAYER001
  6
CONTINUOUS
 62
    2
 10
1836.8150000000001
 20
1110.9260999999999
 11
1831.5117
 21
1116.2293999999999
  0
LINE
  8
_0-0_LAYER001
  6
CONTINUOUS
 62
    2
 10
1836.8150000000001
 20
1110.9260999999999
 11
1738.9463999999998
 21
1280.4395
  0
LINE
  8
_0-0_LAYER001
  6
CONTINUOUS
 62
    2
 10
1738.9463999999998
 20
1280.4395
 11
1591.9463999999998
 21
1280.4395
  0
LINE
  8
_0-0_LAYER001
  6
CONTINUOUS
 62
    2
 10
1182.0266999999999
 20
716.09699999999998
 11
1010.3553999999999
 21
716.09699999999998
  0
LINE
  8
_0-0_LAYER001
  6
CONTINUOUS
 62
    2
 10
1199.4023
 20
746.19229999999993
 11
957.64820000000009
 21
746.19229999999993
  0
LINE
  8
_0-0_LAYER001
  6
CONTINUOUS
 62
    2
 10
1164.7832000000001
 20
686.23039999999992
 11
1095.6190999999999
 21
686.23039999999992
  0
LINE
  8
_0-0_LAYER001
  6
CONTINUOUS
 62
    2
 10
1340.7201
 20
994.84439999999995
 11
1346.0234
 21
1000.1477
  0
LINE
  8
_0-0_LAYER001
  6
CONTINUOUS
 62
    2
 10
1346.0234
 20
1000.1477
 11
1344.0823
 21
992.90319999999997
  0
LINE
  8
_0-0_LAYER001
  6
CONTINUOUS
 62
    2
 10
1346.0234
 20
1000.1477
 11
1164.7832000000001
 21
686.23039999999992
  0
LINE
  8
_0-0_LAYER001
  6
CONTINUOUS
 62
    2
 10
1216.7118
 20
776.17329999999993
 11
1011.8891000000001
 21
776.17329999999993
  0
LINE
  8
_0-2_LAYER004
  6
CONTINUOUS
 62
    2
 10
1873.616
 20
1319.3833999999997
 11
1873.616
 21
902.66139999999996
  0
LINE
  8
_0-2_LAYER004
  6
CONTINUOUS
 62
    2
 10
1853.8099999999999
 20
984.6733999999999
 11
1853.8099999999999
 21
1074.5147999999999
  0
LINE
  8
_0-2_LAYER004
  6
CONTINUOUS
 62
    2
 10
1868.8099999999999
 20
1074.5147999999999
 11
1868.8099999999999
 21
984.6733999999999
  0
LINE
  8
_0-2_LAYER004
  6
CONTINUOUS
 62
    2
 10
844.69599999999991
 20
1000.4126000000001
 11
1726.4299999999998
 21
1000.4126000000001
  0
LINE
  8
_0-2_LAYER004
  6
CONTINUOUS
 62
    2
 10
844.69599999999991
 20
985.41260000000011
 11
1726.4299999999998
 21
985.41260000000011
  0
LINE
  8
_0-2_LAYER004
  6
CONTINUOUS
 62
    2
 10
1726.4299999999998
 20
1000.4126000000001
 11
1726.4299999999998
 21
985.41260000000011
  0
LINE
  8
_0-2_LAYER004
  6
CONTINUOUS
 62
    2
 10
1731.7049999999999
 20
985.29940000000011
 11
1731.7049999999999
 21
1000.4126000000001
  0
LINE
  8
_0-2_LAYER004
  6
CONTINUOUS
 62
    2
 10
1731.7049999999999
 20
1000.4126000000001
 11
1752.2489999999998
 21
1000.4126000000001
  0
LINE
  8
_0-2_LAYER004
  6
CONTINUOUS
 62
    2
 10
1851.279
 20
985.29940000000011
 11
1851.279
 21
1070.2462
  0
LINE
  8
_0-2_LAYER004
  6
CONTINUOUS
 62
    2
 10
1873.616
 20
968.42740000000003
 11
844.69599999999991
 21
968.42740000000003
  0
LINE
  8
_0-2_LAYER004
  6
CONTINUOUS
 62
    2
 10
1873.616
 20
980.42740000000003
 11
844.69599999999991
 21
980.42740000000003
  0
LINE
  8
_0-2_LAYER004
  6
CONTINUOUS
 62
    2
 10
1731.7049999999999
 20
985.29940000000011
 11
1851.279
 21
985.29940000000011
  0
LINE
  8
_0-2_LAYER004
  6
DASHED3
 62
    2
 10
1871.2930000000001
 20
982.92440000000011
 11
844.69599999999991
 21
982.92440000000011
  0
LINE
  8
_0-2_LAYER004
  6
DASHED3
 62
    2
 10
1871.2930000000001
 20
982.92440000000011
 11
1871.2930000000001
 21
1280.4274
  0
LINE
  8
_0-2_LAYER004
  6
CONTINUOUS
 62
    2
 10
1868.8099999999999
 20
984.6733999999999
 11
1853.8099999999999
 21
984.6733999999999
  0
LINE
  8
_0-2_LAYER004
  6
CONTINUOUS
 62
    3
 10
1873.616
 20
902.66139999999996
 11
1873.616
 21
748.57140000000004
  0
LINE
  8
_0-2_LAYER004
  6
CONTINUOUS
 62
    2
 10
1813.616
 20
908.42740000000003
 11
1813.616
 21
968.42740000000003
  0
LINE
  8
_0-2_LAYER004
  6
CONTINUOUS
 62
    2
 10
1813.616
 20
968.42740000000003
 11
1873.616
 21
968.42740000000003
  0
LINE
  8
_0-2_LAYER004
  6
CONTINUOUS
 62
    2
 10
1873.616
 20
968.42740000000003
 11
1873.616
 21
908.42740000000003
  0
LINE
  8
_0-2_LAYER004
  6
CONTINUOUS
 62
    2
 10
1873.616
 20
908.42740000000003
 11
1813.616
 21
908.42740000000003
  0
LINE
  8
_0-2_LAYER004
  6
CONTINUOUS
 62
    2
 10
1873.616
 20
968.42740000000003
 11
1813.616
 21
908.42740000000003
  0
LINE
  8
_0-2_LAYER004
  6
CONTINUOUS
 62
    2
 10
1772.8560000000002
 20
1089.0491999999999
 11
1770.1529999999998
 21
1103.8042
  0
LINE
  8
_0-2_LAYER004
  6
CONTINUOUS
 62
    2
 10
1770.1529999999998
 20
1103.8042
 11
1858.681
 21
1120.0192
  0
LINE
  8
_0-2_LAYER004
  6
CONTINUOUS
 62
    2
 10
1858.681
 20
1120.0192
 11
1861.3829999999998
 21
1105.2652
  0
LINE
  8
_0-2_LAYER004
  6
CONTINUOUS
 62
    2
 10
1861.3829999999998
 20
1105.2652
 11
1772.8560000000002
 21
1089.0491999999999
  0
LINE
  8
_0-2_LAYER004
  6
CONTINUOUS
 62
    2
 10
1770.1529999999998
 20
1103.8042
 11
1861.3829999999998
 21
1105.2652
  0
LINE
  8
_0-2_LAYER004
  6
CONTINUOUS
 62
    2
 10
1850.616
 20
1140.4176
 11
1850.616
 21
1180.4176
  0
LINE
  8
_0-2_LAYER004
  6
CONTINUOUS
 62
    2
 10
1850.616
 20
1180.4176
 11
1868.616
 21
1180.4176
  0
LINE
  8
_0-2_LAYER004
  6
CONTINUOUS
 62
    2
 10
1868.616
 20
1180.4176
 11
1868.616
 21
1140.4176
  0
LINE
  8
_0-2_LAYER004
  6
CONTINUOUS
 62
    2
 10
1868.616
 20
1140.4176
 11
1850.616
 21
1140.4176
  0
LINE
  8
_0-2_LAYER004
  6
CONTINUOUS
 62
    2
 10
1868.616
 20
1180.4176
 11
1850.616
 21
1140.4176
  0
LINE
  8
_0-4_LAYER007
  6
CONTINUOUS
 62
    3
 10
1873.616
 20
1397.2554
 11
1873.616
 21
885.92840000000001
  0
LINE
  8
_0-2_LAYER004
  6
CONTINUOUS
 62
    3
 10
1873.616
 20
1319.3833999999997
 11
1873.616
 21
1397.2554
  0
LINE
  8
_0-2_LAYER004
  6
CONTINUOUS
 62
    2
 10
1510.616
 20
908.42740000000003
 11
1510.616
 21
968.42740000000003
  0
LINE
  8
_0-2_LAYER004
  6
CONTINUOUS
 62
    2
 10
1510.616
 20
968.42740000000003
 11
1570.616
 21
968.42740000000003
  0
LINE
  8
_0-2_LAYER004
  6
CONTINUOUS
 62
    2
 10
1570.616
 20
968.42740000000003
 11
1570.616
 21
908.42740000000003
  0
LINE
  8
_0-2_LAYER004
  6
CONTINUOUS
 62
    2
 10
1570.616
 20
908.42740000000003
 11
1510.616
 21
908.42740000000003
  0
LINE
  8
_0-2_LAYER004
  6
CONTINUOUS
 62
    2
 10
1570.616
 20
968.42740000000003
 11
1510.616
 21
908.42740000000003
  0
LINE
  8
_0-2_LAYER004
  6
CONTINUOUS
 62
    2
 10
1207.616
 20
908.42740000000003
 11
1207.616
 21
968.42740000000003
  0
LINE
  8
_0-2_LAYER004
  6
CONTINUOUS
 62
    2
 10
1207.616
 20
968.42740000000003
 11
1267.616
 21
968.42740000000003
  0
LINE
  8
_0-2_LAYER004
  6
CONTINUOUS
 62
    2
 10
1267.616
 20
968.42740000000003
 11
1267.616
 21
908.42740000000003
  0
LINE
  8
_0-2_LAYER004
  6
CONTINUOUS
 62
    2
 10
1267.616
 20
908.42740000000003
 11
1207.616
 21
908.42740000000003
  0
LINE
  8
_0-2_LAYER004
  6
CONTINUOUS
 62
    2
 10
1267.616
 20
968.42740000000003
 11
1207.616
 21
908.42740000000003
  0
LINE
  8
_0-2_LAYER004
  6
CONTINUOUS
 62
    2
 10
904.61599999999999
 20
908.42740000000003
 11
904.61599999999999
 21
968.42740000000003
  0
LINE
  8
_0-2_LAYER004
  6
CONTINUOUS
 62
    2
 10
904.61599999999999
 20
968.42740000000003
 11
964.61599999999999
 21
968.42740000000003
  0
LINE
  8
_0-2_LAYER004
  6
CONTINUOUS
 62
    2
 10
964.61599999999999
 20
968.42740000000003
 11
964.61599999999999
 21
908.42740000000003
  0
LINE
  8
_0-2_LAYER004
  6
CONTINUOUS
 62
    2
 10
964.61599999999999
 20
908.42740000000003
 11
904.61599999999999
 21
908.42740000000003
  0
LINE
  8
_0-2_LAYER004
  6
CONTINUOUS
 62
    2
 10
964.61599999999999
 20
968.42740000000003
 11
904.61599999999999
 21
908.42740000000003
  0
LINE
  8
_0-2_LAYER004
  6
CONTINUOUS
 62
    2
 10
1870.0309999999999
 20
1124.7911999999999
 11
1870.0309999999999
 21
1274.7911999999999
  0
LINE
  8
_0-3_LAYER006
  6
CONTINUOUS
 62
    2
 10
1763.616
 20
1105.2994000000001
 11
1761.2350000000001
 21
1079.7084
  0
LINE
  8
_0-3_LAYER006
  6
CONTINUOUS
 62
    2
 10
1763.616
 20
1105.2994000000001
 11
1870.0309999999999
 21
1124.7911999999999
  0
LINE
  8
_0-3_LAYER006
  6
CONTINUOUS
 62
    2
 10
1761.2350000000001
 20
1079.7084
 11
1766.5320000000002
 21
1085.6674
  0
LINE
  8
_0-2_LAYER004
  6
CONTINUOUS
 62
    2
 10
1838.616
 20
1399.2231999999999
 11
1838.616
 21
1123.9631999999999
  0
LINE
  8
_0-2_LAYER004
  6
CONTINUOUS
 62
    2
 10
1838.616
 20
1123.9631999999999
 11
1850.616
 21
1123.9631999999999
  0
LINE
  8
_0-2_LAYER004
  6
CONTINUOUS
 62
    2
 10
1850.616
 20
1123.9631999999999
 11
1850.616
 21
1397.2554
  0
LINE
  8
_0-0_LAYER001
  6
CONTINUOUS
 62
    2
 10
1011.7652
 20
823.71469999999999
 11
1011.7652
 21
876.21469999999999
  0
CIRCLE
  8
_0-0_LAYER001
  6
CONTINUOUS
 62
    2
 10
1011.7652
 20
826.21469999999999
 40
1.6999999999999997
  0
LINE
  8
_0-0_LAYER001
  6
CONTINUOUS
 62
    2
 10
1011.7652
 20
826.21469999999999
 11
1276.7652
 21
826.21469999999999
  0
CIRCLE
  8
_0-0_LAYER001
  6
CONTINUOUS
 62
    2
 10
1276.7652
 20
826.21469999999999
 40
1.6999999999999997
  0
LINE
  8
_0-0_LAYER001
  6
CONTINUOUS
 62
    2
 10
1276.7652
 20
823.71469999999999
 11
1276.7652
 21
876.21469999999999
  0
CIRCLE
  8
_0-0_LAYER001
  6
CONTINUOUS
 62
    2
 10
1276.7652
 20
826.21469999999999
 40
1.6999999999999997
  0
LINE
  8
_0-0_LAYER001
  6
CONTINUOUS
 62
    2
 10
1276.7652
 20
826.21469999999999
 11
1541.7651999999998
 21
826.21469999999999
  0
CIRCLE
  8
_0-0_LAYER001
  6
CONTINUOUS
 62
    2
 10
1541.7651999999998
 20
826.21469999999999
 40
1.6999999999999997
  0
LINE
  8
_0-0_LAYER001
  6
CONTINUOUS
 62
    2
 10
1541.7651999999998
 20
823.71469999999999
 11
1541.7651999999998
 21
876.21469999999999
  0
CIRCLE
  8
_0-0_LAYER001
  6
CONTINUOUS
 62
    2
 10
1541.7651999999998
 20
826.21469999999999
 40
1.6999999999999997
  0
LINE
  8
_0-0_LAYER001
  6
CONTINUOUS
 62
    2
 10
1541.7651999999998
 20
826.21469999999999
 11
1846.7651999999998
 21
826.21469999999999
  0
CIRCLE
  8
_0-0_LAYER001
  6
CONTINUOUS
 62
    2
 10
1846.7651999999998
 20
826.21469999999999
 40
1.6999999999999997
  0
LINE
  8
_0-0_LAYER001
  6
CONTINUOUS
 62
    2
 10
1846.7651999999998
 20
823.71469999999999
 11
1846.7651999999998
 21
876.21469999999999
  0
LINE
  8
_0-0_LAYER001
  6
CONTINUOUS
 62
    4
 10
1807.0493999999999
 20
1040.7399
 11
1807.0493999999999
 21
1057.9373000000001
  0
LINE
  8
_0-0_LAYER001
  6
CONTINUOUS
 62
    4
 10
1667.3227999999999
 20
996.90059999999994
 11
1658.7874000000002
 21
1011.4339
  0
LINE
  8
_0-0_LAYER001
  6
CONTINUOUS
 62
    4
 10
1675.4906999999998
 20
996.25029999999992
 11
1683.7968999999998
 21
1006.3158000000001
  0
ARC
  8
_0-0_LAYER001
  6
CONTINUOUS
 62
    4
 10
1671.6343000000002
 20
999.43270000000007
 40
5
 50
210.42578
 51
320.47001
  0
LINE
  8
_0-0_LAYER001
  6
CONTINUOUS
 62
    4
 10
1751.4362999999998
 20
995.7804000000001
 11
1744.1109000000001
 21
1007.0864999999999
  0
LINE
  8
_0-0_LAYER001
  6
CONTINUOUS
 62
    4
 10
1759.9459000000002
 20
995.97029999999995
 11
1768.8843000000002
 21
1011.2159999999999
  0
ARC
  8
_0-0_LAYER001
  6
CONTINUOUS
 62
    4
 10
1755.6325000000002
 20
998.49919999999997
 40
5
 50
212.93986000000001
 51
329.61716000000001
  0
LINE
  8
_0-0_LAYER001
  6
CONTINUOUS
 62
    4
 10
1799.2278999999999
 20
1035.528
 11
1801.6559999999999
 21
1035.9318000000001
  0
LINE
  8
_0-0_LAYER001
  6
CONTINUOUS
 62
    4
 10
1795.0389
 20
1034.8317
 11
1799.2278999999999
 21
1035.528
  0
LINE
  8
_0-0_LAYER001
  6
CONTINUOUS
 62
    4
 10
1790.8451
 20
1034.1360999999999
 11
1795.0389
 21
1034.8317
  0
LINE
  8
_0-0_LAYER001
  6
CONTINUOUS
 62
    4
 10
1786.6462999999999
 20
1033.4422
 11
1790.8451
 21
1034.1360999999999
  0
LINE
  8
_0-0_LAYER001
  6
CONTINUOUS
 62
    4
 10
1782.4422
 20
1032.7507000000001
 11
1786.6462999999999
 21
1033.4422
  0
LINE
  8
_0-0_LAYER001
  6
CONTINUOUS
 62
    4
 10
1778.2354
 20
1032.0630000000001
 11
1782.4422
 21
1032.7507000000001
  0
LINE
  8
_0-0_LAYER001
  6
CONTINUOUS
 62
    4
 10
1775.7831000000001
 20
1031.6645000000001
 11
1778.2354
 21
1032.0630000000001
  0
LINE
  8
_0-0_LAYER001
  6
CONTINUOUS
 62
    4
 10
1771.0502999999999
 20
1030.9021
 11
1775.7831000000001
 21
1031.6645000000001
  0
LINE
  8
_0-0_LAYER001
  6
CONTINUOUS
 62
    4
 10
1762.8458999999998
 20
1029.6181999999999
 11
1771.0502999999999
 21
1030.9021
  0
LINE
  8
_0-0_LAYER001
  6
CONTINUOUS
 62
    4
 10
1754.5383999999999
 20
1028.3984
 11
1762.8458999999998
 21
1029.6181999999999
  0
LINE
  8
_0-0_LAYER001
  6
CONTINUOUS
 62
    4
 10
1746.1302000000001
 20
1027.2819999999999
 11
1754.5383999999999
 21
1028.3984
  0
LINE
  8
_0-0_LAYER001
  6
CONTINUOUS
 62
    4
 10
1737.6176
 20
1026.3086000000001
 11
1746.1302000000001
 21
1027.2819999999999
  0
LINE
  8
_0-0_LAYER001
  6
CONTINUOUS
 62
    4
 10
1729.0583999999999
 20
1025.5246
 11
1737.6176
 21
1026.3086000000001
  0
LINE
  8
_0-0_LAYER001
  6
CONTINUOUS
 62
    4
 10
1723.9969000000001
 20
1025.1666
 11
1729.0583999999999
 21
1025.5246
  0
LINE
  8
_0-0_LAYER001
  6
CONTINUOUS
 62
    4
 10
1721.1943000000001
 20
1025.0050000000001
 11
1723.9969000000001
 21
1025.1666
  0
LINE
  8
_0-0_LAYER001
  6
CONTINUOUS
 62
    4
 10
1716.4733000000001
 20
1024.8010999999999
 11
1721.1943000000001
 21
1025.0050000000001
  0
LINE
  8
_0-0_LAYER001
  6
CONTINUOUS
 62
    4
 10
1711.6441
 20
1024.6956
 11
1716.4733000000001
 21
1024.8010999999999
  0
LINE
  8
_0-0_LAYER001
  6
CONTINUOUS
 62
    4
 10
1706.7424000000001
 20
1024.711
 11
1711.6441
 21
1024.6956
  0
LINE
  8
_0-0_LAYER001
  6
CONTINUOUS
 62
    4
 10
1701.7714000000001
 20
1024.8688999999999
 11
1706.7424000000001
 21
1024.711
  0
LINE
  8
_0-0_LAYER001
  6
CONTINUOUS
 62
    4
 10
1696.8139999999999
 20
1025.1866
 11
1701.7714000000001
 21
1024.8688999999999
  0
LINE
  8
_0-0_LAYER001
  6
CONTINUOUS
 62
    4
 10
1693.7624000000001
 20
1025.4680000000001
 11
1696.8139999999999
 21
1025.1866
  0
LINE
  8
_0-0_LAYER001
  6
CONTINUOUS
 62
    4
 10
1689.8335000000002
 20
1025.9303
 11
1693.7624000000001
 21
1025.4680000000001
  0
LINE
  8
_0-0_LAYER001
  6
CONTINUOUS
 62
    4
 10
1683.3195999999998
 20
1026.9528
 11
1689.8335000000002
 21
1025.9303
  0
LINE
  8
_0-0_LAYER001
  6
CONTINUOUS
 62
    4
 10
1676.7728999999999
 20
1028.3050000000001
 11
1683.3195999999998
 21
1026.9528
  0
LINE
  8
_0-0_LAYER001
  6
CONTINUOUS
 62
    4
 10
1670.3099999999999
 20
1029.9608000000001
 11
1676.7728999999999
 21
1028.3050000000001
  0
LINE
  8
_0-0_LAYER001
  6
CONTINUOUS
 62
    4
 10
1663.9441000000002
 20
1031.9114999999999
 11
1670.3099999999999
 21
1029.9608000000001
  0
LINE
  8
_0-0_LAYER001
  6
CONTINUOUS
 62
    4
 10
1657.7793000000001
 20
1034.1165000000001
 11
1663.9441000000002
 21
1031.9114999999999
  0
LINE
  8
_0-0_LAYER001
  6
CONTINUOUS
 62
    4
 10
1654.0927000000001
 20
1035.5882999999999
 11
1657.7793000000001
 21
1034.1165000000001
  0
LINE
  8
_0-0_LAYER001
  6
CONTINUOUS
 62
    4
 10
1649.7284
 20
1037.4808
 11
1654.0927000000001
 21
1035.5882999999999
  0
LINE
  8
_0-0_LAYER001
  6
CONTINUOUS
 62
    4
 10
1642.6592999999998
 20
1040.8958
 11
1649.7284
 21
1037.4808
  0
LINE
  8
_0-0_LAYER001
  6
CONTINUOUS
 62
    4
 10
1635.7664
 20
1044.6253999999999
 11
1642.6592999999998
 21
1040.8958
  0
LINE
  8
_0-0_LAYER001
  6
CONTINUOUS
 62
    4
 10
1629.1293999999998
 20
1048.559
 11
1635.7664
 21
1044.6253999999999
  0
LINE
  8
_0-0_LAYER001
  6
CONTINUOUS
 62
    4
 10
1622.7201
 20
1052.6415
 11
1629.1293999999998
 21
1048.559
  0
LINE
  8
_0-0_LAYER001
  6
CONTINUOUS
 62
    4
 10
1616.5358999999999
 20
1056.8036
 11
1622.7201
 21
1052.6415
  0
LINE
  8
_0-0_LAYER001
  6
CONTINUOUS
 62
    4
 10
1612.9935999999998
 20
1059.2673
 11
1616.5358999999999
 21
1056.8036
  0
LINE
  8
_0-0_LAYER001
  6
CONTINUOUS
 62
    4
 10
1610.7615999999998
 20
1060.8407999999999
 11
1612.9935999999998
 21
1059.2673
  0
LINE
  8
_0-0_LAYER001
  6
CONTINUOUS
 62
    4
 10
1607.1379999999999
 20
1063.3800000000001
 11
1610.7615999999998
 21
1060.8407999999999
  0
LINE
  8
_0-0_LAYER001
  6
CONTINUOUS
 62
    4
 10
1603.7683000000002
 20
1065.6455000000001
 11
1607.1379999999999
 21
1063.3800000000001
  0
LINE
  8
_0-0_LAYER001
  6
CONTINUOUS
 62
    4
 10
1600.6532999999999
 20
1067.5726
 11
1603.7683000000002
 21
1065.6455000000001
  0
LINE
  8
_0-0_LAYER001
  6
CONTINUOUS
 62
    4
 10
1597.7860999999998
 20
1069.1283000000001
 11
1600.6532999999999
 21
1067.5726
  0
LINE
  8
_0-0_LAYER001
  6
CONTINUOUS
 62
    4
 10
1594.9549999999999
 20
1070.3968
 11
1597.7860999999998
 21
1069.1283000000001
  0
LINE
  8
_0-0_LAYER001
  6
CONTINUOUS
 62
    4
 10
1593.4917999999998
 20
1070.9289000000001
 11
1594.9549999999999
 21
1070.3968
  0
LINE
  8
_0-0_LAYER001
  6
CONTINUOUS
 62
    4
 10
1593.3107
 20
1070.9867999999999
 11
1593.4917999999998
 21
1070.9289000000001
  0
LINE
  8
_0-0_LAYER001
  6
CONTINUOUS
 62
    4
 10
1592.5223999999998
 20
1071.2148
 11
1593.3107
 21
1070.9867999999999
  0
LINE
  8
_0-0_LAYER001
  6
CONTINUOUS
 62
    4
 10
1591.8652999999999
 20
1071.3775000000001
 11
1592.5223999999998
 21
1071.2148
  0
LINE
  8
_0-0_LAYER001
  6
CONTINUOUS
 62
    4
 10
1591.2835
 20
1071.4955
 11
1591.8652999999999
 21
1071.3775000000001
  0
LINE
  8
_0-0_LAYER001
  6
CONTINUOUS
 62
    4
 10
1591.2433999999998
 20
1071.5017
 11
1591.2835
 21
1071.4955
  0
LINE
  8
_0-0_LAYER001
  6
CONTINUOUS
 62
    4
 10
1795.2172999999998
 20
1016.3405
 11
1796.8314
 21
1016.6089999999999
  0
LINE
  8
_0-0_LAYER001
  6
CONTINUOUS
 62
    4
 10
1791.0286999999998
 20
1015.6442999999999
 11
1795.2172999999998
 21
1016.3405
  0
LINE
  8
_0-0_LAYER001
  6
CONTINUOUS
 62
    4
 10
1786.8357999999998
 20
1014.9489000000001
 11
1791.0286999999998
 21
1015.6442999999999
  0
LINE
  8
_0-0_LAYER001
  6
CONTINUOUS
 62
    4
 10
1782.6383000000001
 20
1014.2551000000001
 11
1786.8357999999998
 21
1014.9489000000001
  0
LINE
  8
_0-0_LAYER001
  6
CONTINUOUS
 62
    4
 10
1778.4360000000001
 20
1013.5639000000001
 11
1782.6383000000001
 21
1014.2551000000001
  0
LINE
  8
_0-0_LAYER001
  6
CONTINUOUS
 62
    4
 10
1774.2311
 20
1012.8766000000001
 11
1778.4360000000001
 21
1013.5639000000001
  0
LINE
  8
_0-0_LAYER001
  6
CONTINUOUS
 62
    4
 10
1771.7811000000002
 20
1012.4784999999999
 11
1774.2311
 21
1012.8766000000001
  0
LINE
  8
_0-0_LAYER001
  6
CONTINUOUS
 62
    4
 10
1767.0540999999998
 20
1011.7168999999999
 11
1771.7811000000002
 21
1012.4784999999999
  0
LINE
  8
_0-0_LAYER001
  6
CONTINUOUS
 62
    4
 10
1758.8634000000002
 20
1010.4351999999999
 11
1767.0540999999998
 21
1011.7168999999999
  0
LINE
  8
_0-0_LAYER001
  6
CONTINUOUS
 62
    4
 10
1750.5789
 20
1009.2188000000001
 11
1758.8634000000002
 21
1010.4351999999999
  0
LINE
  8
_0-0_LAYER001
  6
CONTINUOUS
 62
    4
 10
1742.2022999999999
 20
1008.1066000000001
 11
1750.5789
 21
1009.2188000000001
  0
LINE
  8
_0-0_LAYER001
  6
CONTINUOUS
 62
    4
 10
1733.7302
 20
1007.1378
 11
1742.2022999999999
 21
1008.1066000000001
  0
LINE
  8
_0-0_LAYER001
  6
CONTINUOUS
 62
    4
 10
1725.2141000000001
 20
1006.3578
 11
1733.7302
 21
1007.1378
  0
LINE
  8
_0-0_LAYER001
  6
CONTINUOUS
 62
    4
 10
1720.1862000000001
 20
1006.0021999999999
 11
1725.2141000000001
 21
1006.3578
  0
LINE
  8
_0-0_LAYER001
  6
CONTINUOUS
 62
    4
 10
1717.4110000000001
 20
1005.8421000000001
 11
1720.1862000000001
 21
1006.0021999999999
  0
LINE
  8
_0-0_LAYER001
  6
CONTINUOUS
 62
    4
 10
1712.7257
 20
1005.6396999999999
 11
1717.4110000000001
 21
1005.8421000000001
  0
LINE
  8
_0-0_LAYER001
  6
CONTINUOUS
 62
    4
 10
1707.9427999999998
 20
1005.5353
 11
1712.7257
 21
1005.6396999999999
  0
LINE
  8
_0-0_LAYER001
  6
CONTINUOUS
 62
    4
 10
1703.0947000000001
 20
1005.5505000000001
 11
1707.9427999999998
 21
1005.5353
  0
LINE
  8
_0-0_LAYER001
  6
CONTINUOUS
 62
    4
 10
1698.1846
 20
1005.7064
 11
1703.0947000000001
 21
1005.5505000000001
  0
LINE
  8
_0-0_LAYER001
  6
CONTINUOUS
 62
    4
 10
1693.2873
 20
1006.0202999999999
 11
1698.1846
 21
1005.7064
  0
LINE
  8
_0-0_LAYER001
  6
CONTINUOUS
 62
    4
 10
1690.2885000000001
 20
1006.2969000000001
 11
1693.2873
 21
1006.0202999999999
  0
LINE
  8
_0-0_LAYER001
  6
CONTINUOUS
 62
    4
 10
1686.4229999999998
 20
1006.7517
 11
1690.2885000000001
 21
1006.2969000000001
  0
LINE
  8
_0-0_LAYER001
  6
CONTINUOUS
 62
    4
 10
1679.9944999999998
 20
1007.7608
 11
1686.4229999999998
 21
1006.7517
  0
LINE
  8
_0-0_LAYER001
  6
CONTINUOUS
 62
    4
 10
1673.5410999999999
 20
1009.0936999999999
 11
1679.9944999999998
 21
1007.7608
  0
LINE
  8
_0-0_LAYER001
  6
CONTINUOUS
 62
    4
 10
1667.1689000000001
 20
1010.7263
 11
1673.5410999999999
 21
1009.0936999999999
  0
LINE
  8
_0-0_LAYER001
  6
CONTINUOUS
 62
    4
 10
1660.8915999999999
 20
1012.6498999999999
 11
1667.1689000000001
 21
1010.7263
  0
LINE
  8
_0-0_LAYER001
  6
CONTINUOUS
 62
    4
 10
1654.8045000000002
 20
1014.827
 11
1660.8915999999999
 21
1012.6498999999999
  0
LINE
  8
_0-0_LAYER001
  6
CONTINUOUS
 62
    4
 10
1651.1788000000001
 20
1016.2744
 11
1654.8045000000002
 21
1014.827
  0
LINE
  8
_0-0_LAYER001
  6
CONTINUOUS
 62
    4
 10
1646.8789999999999
 20
1018.1389999999999
 11
1651.1788000000001
 21
1016.2744
  0
LINE
  8
_0-0_LAYER001
  6
CONTINUOUS
 62
    4
 10
1639.8881000000001
 20
1021.5162
 11
1646.8789999999999
 21
1018.1389999999999
  0
LINE
  8
_0-0_LAYER001
  6
CONTINUOUS
 62
    4
 10
1633.0700000000002
 20
1025.2054000000001
 11
1639.8881000000001
 21
1021.5162
  0
LINE
  8
_0-0_LAYER001
  6
CONTINUOUS
 62
    4
 10
1626.4942000000001
 20
1029.1027999999999
 11
1633.0700000000002
 21
1025.2054000000001
  0
LINE
  8
_0-0_LAYER001
  6
CONTINUOUS
 62
    4
 10
1620.1333
 20
1033.1543999999999
 11
1626.4942000000001
 21
1029.1027999999999
  0
LINE
  8
_0-0_LAYER001
  6
CONTINUOUS
 62
    4
 10
1613.9827
 20
1037.2938999999999
 11
1620.1333
 21
1033.1543999999999
  0
LINE
  8
_0-0_LAYER001
  6
CONTINUOUS
 62
    4
 10
1610.4582
 20
1039.7452000000001
 11
1613.9827
 21
1037.2938999999999
  0
LINE
  8
_0-0_LAYER001
  6
CONTINUOUS
 62
    4
 10
1608.2289999999998
 20
1041.3167000000001
 11
1610.4582
 21
1039.7452000000001
  0
LINE
  8
_0-0_LAYER001
  6
CONTINUOUS
 62
    4
 10
1604.5873000000001
 20
1043.8686
 11
1608.2289999999998
 21
1041.3167000000001
  0
LINE
  8
_0-0_LAYER001
  6
CONTINUOUS
 62
    4
 10
1601.1702
 20
1046.1659999999999
 11
1604.5873000000001
 21
1043.8686
  0
LINE
  8
_0-0_LAYER001
  6
CONTINUOUS
 62
    4
 10
1597.9746
 20
1048.1429000000001
 11
1601.1702
 21
1046.1659999999999
  0
LINE
  8
_0-0_LAYER001
  6
CONTINUOUS
 62
    4
 10
1594.9906000000001
 20
1049.7619999999999
 11
1597.9746
 21
1048.1429000000001
  0
LINE
  8
_0-0_LAYER001
  6
CONTINUOUS
 62
    4
 10
1592.0241000000001
 20
1051.0912000000001
 11
1594.9906000000001
 21
1049.7619999999999
  0
LINE
  8
_0-0_LAYER001
  6
CONTINUOUS
 62
    4
 10
1591.2741000000001
 20
1051.3639000000001
 11
1592.0241000000001
 21
1051.0912000000001
  0
LINE
  8
_0-0_LAYER001
  6
CONTINUOUS
 62
    4
 10
1591.6071999999999
 20
1071.4069999999999
 11
1591.4310999999998
 21
1051.2336
  0
LINE
  8
_0-0_LAYER001
  6
CONTINUOUS
 62
    4
 10
1791.9328
 20
1005.9192
 11
1789.6873999999998
 21
1014.4927
  0
ARC
  8
_0-0_LAYER001
  6
CONTINUOUS
 62
    4
 10
1794.8348999999998
 20
1006.6793
 40
3
 50
194.67639000000003
 51
270.00000000000006
  0
LINE
  8
_0-0_LAYER001
  6
CONTINUOUS
 62
    4
 10
1798.2773999999999
 20
1003.675
 11
1794.8595999999998
 21
1003.675
  0
LINE
  8
_0-0_LAYER001
  6
CONTINUOUS
 62
    4
 10
1801.2366000000002
 20
1006.1818000000001
 11
1803.1705999999999
 21
1017.7860000000001
  0
ARC
  8
_0-0_LAYER001
  6
CONTINUOUS
 62
    4
 10
1798.2773999999999
 20
1006.675
 40
3
 50
270
 51
350.53766999999999
  0
LINE
  8
_0-0_LAYER001
  6
CONTINUOUS
 62
    4
 10
1544.511
 20
1080.7972
 11
1545.3249000000001
 21
1081.1039000000001
  0
LINE
  8
_0-0_LAYER001
  6
CONTINUOUS
 62
    4
 10
1545.3249000000001
 20
1081.1039000000001
 11
1548.8742000000002
 21
1082.4435000000001
  0
LINE
  8
_0-0_LAYER001
  6
CONTINUOUS
 62
    4
 10
1548.8742000000002
 20
1082.4435000000001
 11
1552.4308000000001
 21
1083.7923000000001
  0
LINE
  8
_0-0_LAYER001
  6
CONTINUOUS
 62
    4
 10
1552.4308000000001
 20
1083.7923000000001
 11
1555.9994999999999
 21
1085.1564000000001
  0
LINE
  8
_0-0_LAYER001
  6
CONTINUOUS
 62
    4
 10
1555.9994999999999
 20
1085.1564000000001
 11
1559.5848000000001
 21
1086.5414000000001
  0
LINE
  8
_0-0_LAYER001
  6
CONTINUOUS
 62
    4
 10
1559.5848000000001
 20
1086.5414000000001
 11
1563.1914999999999
 21
1087.9534000000001
  0
LINE
  8
_0-0_LAYER001
  6
CONTINUOUS
 62
    4
 10
1563.1914999999999
 20
1087.9534000000001
 11
1565.2950000000001
 21
1088.787
  0
LINE
  8
_0-0_LAYER001
  6
CONTINUOUS
 62
    4
 10
1565.2950000000001
 20
1088.787
 11
1567.3744000000002
 21
1089.6159
  0
LINE
  8
_0-0_LAYER001
  6
CONTINUOUS
 62
    4
 10
1567.3744000000002
 20
1089.6159
 11
1570.9809
 21
1091.0173
  0
LINE
  8
_0-0_LAYER001
  6
CONTINUOUS
 62
    4
 10
1570.9809
 20
1091.0173
 11
1574.6136999999999
 21
1092.3000999999999
  0
LINE
  8
_0-0_LAYER001
  6
CONTINUOUS
 62
    4
 10
1574.6136999999999
 20
1092.3000999999999
 11
1578.2716
 21
1093.3667
  0
LINE
  8
_0-0_LAYER001
  6
CONTINUOUS
 62
    4
 10
1578.2716
 20
1093.3667
 11
1581.9537
 21
1094.1198999999999
  0
LINE
  8
_0-0_LAYER001
  6
CONTINUOUS
 62
    4
 10
1581.9537
 20
1094.1198999999999
 11
1585.6590000000001
 21
1094.4623999999999
  0
LINE
  8
_0-0_LAYER001
  6
CONTINUOUS
 62
    4
 10
1585.6590000000001
 20
1094.4623999999999
 11
1587.8182999999999
 21
1094.4345000000001
  0
LINE
  8
_0-0_LAYER001
  6
CONTINUOUS
 62
    4
 10
1587.8182999999999
 20
1094.4345000000001
 11
1588.6675
 21
1094.3732
  0
LINE
  8
_0-0_LAYER001
  6
CONTINUOUS
 62
    4
 10
1588.6675
 20
1094.3732
 11
1590.1318000000001
 21
1094.2026000000001
  0
LINE
  8
_0-0_LAYER001
  6
CONTINUOUS
 62
    4
 10
1590.1318000000001
 20
1094.2026000000001
 11
1591.5929000000001
 21
1093.9558999999999
  0
LINE
  8
_0-0_LAYER001
  6
CONTINUOUS
 62
    4
 10
1591.5929000000001
 20
1093.9558999999999
 11
1593.0466000000001
 21
1093.6397999999999
  0
LINE
  8
_0-0_LAYER001
  6
CONTINUOUS
 62
    4
 10
1593.0466000000001
 20
1093.6397999999999
 11
1594.4886999999999
 21
1093.2612999999999
  0
LINE
  8
_0-0_LAYER001
  6
CONTINUOUS
 62
    4
 10
1594.4886999999999
 20
1093.2612999999999
 11
1595.9151000000002
 21
1092.8271999999999
  0
LINE
  8
_0-0_LAYER001
  6
CONTINUOUS
 62
    4
 10
1595.9151000000002
 20
1092.8271999999999
 11
1596.7336
 21
1092.5526
  0
LINE
  8
_0-0_LAYER001
  6
CONTINUOUS
 62
    4
 10
1596.7336
 20
1092.5526
 11
1599.2319000000002
 21
1091.6043999999999
  0
LINE
  8
_0-0_LAYER001
  6
CONTINUOUS
 62
    4
 10
1599.2319000000002
 20
1091.6043999999999
 11
1603.3908000000001
 21
1089.6708000000001
  0
LINE
  8
_0-0_LAYER001
  6
CONTINUOUS
 62
    4
 10
1603.3908000000001
 20
1089.6708000000001
 11
1607.3946000000001
 21
1087.4254000000001
  0
LINE
  8
_0-0_LAYER001
  6
CONTINUOUS
 62
    4
 10
1607.3946000000001
 20
1087.4254000000001
 11
1611.2813999999998
 21
1084.9452000000001
  0
LINE
  8
_0-0_LAYER001
  6
CONTINUOUS
 62
    4
 10
1611.2813999999998
 20
1084.9452000000001
 11
1615.0893999999998
 21
1082.307
  0
LINE
  8
_0-0_LAYER001
  6
CONTINUOUS
 62
    4
 10
1615.0893999999998
 20
1082.307
 11
1618.8566999999998
 21
1079.5879
  0
LINE
  8
_0-0_LAYER001
  6
CONTINUOUS
 62
    4
 10
1618.8566999999998
 20
1079.5879
 11
1621.038
 21
1078.0041000000001
  0
LINE
  8
_0-0_LAYER001
  6
CONTINUOUS
 62
    4
 10
1621.038
 20
1078.0041000000001
 11
1624.3696
 21
1075.6172999999999
  0
LINE
  8
_0-0_LAYER001
  6
CONTINUOUS
 62
    4
 10
1624.3696
 20
1075.6172999999999
 11
1630.1617999999999
 21
1071.6004
  0
LINE
  8
_0-0_LAYER001
  6
CONTINUOUS
 62
    4
 10
1630.1617999999999
 20
1071.6004
 11
1636.0340000000001
 21
1067.7437
  0
LINE
  8
_0-0_LAYER001
  6
CONTINUOUS
 62
    4
 10
1636.0340000000001
 20
1067.7437
 11
1642.0082000000002
 21
1064.0893000000001
  0
LINE
  8
_0-0_LAYER001
  6
CONTINUOUS
 62
    4
 10
1642.0082000000002
 20
1064.0893000000001
 11
1648.1064000000001
 21
1060.6786999999999
  0
LINE
  8
_0-0_LAYER001
  6
CONTINUOUS
 62
    4
 10
1648.1064000000001
 20
1060.6786999999999
 11
1654.3506000000002
 21
1057.5539000000001
  0
LINE
  8
_0-0_LAYER001
  6
CONTINUOUS
 62
    4
 10
1654.3506000000002
 20
1057.5539000000001
 11
1658.0479
 21
1055.8888999999999
  0
LINE
  8
_0-0_LAYER001
  6
CONTINUOUS
 62
    4
 10
1658.0479
 20
1055.8888999999999
 11
1661.1071999999999
 21
1054.6178
  0
LINE
  8
_0-0_LAYER001
  6
CONTINUOUS
 62
    4
 10
1661.1071999999999
 20
1054.6178
 11
1666.4677000000001
 21
1052.6157000000001
  0
LINE
  8
_0-0_LAYER001
  6
CONTINUOUS
 62
    4
 10
1666.4677000000001
 20
1052.6157000000001
 11
1671.9234000000001
 21
1050.8602000000001
  0
LINE
  8
_0-0_LAYER001
  6
CONTINUOUS
 62
    4
 10
1671.9234000000001
 20
1050.8602000000001
 11
1677.4584
 21
1049.3594000000001
  0
LINE
  8
_0-0_LAYER001
  6
CONTINUOUS
 62
    4
 10
1677.4584
 20
1049.3594000000001
 11
1683.0567000000001
 21
1048.1214
  0
LINE
  8
_0-0_LAYER001
  6
CONTINUOUS
 62
    4
 10
1683.0567000000001
 20
1048.1214
 11
1688.7024000000001
 21
1047.1541999999999
  0
LINE
  8
_0-0_LAYER001
  6
CONTINUOUS
 62
    4
 10
1688.7024000000001
 20
1047.1541999999999
 11
1691.9924000000001
 21
1046.7204999999999
  0
LINE
  8
_0-0_LAYER001
  6
CONTINUOUS
 62
    4
 10
1691.9924000000001
 20
1046.7204999999999
 11
1694.5117
 21
1046.4526000000001
  0
LINE
  8
_0-0_LAYER001
  6
CONTINUOUS
 62
    4
 10
1694.5117
 20
1046.4526000000001
 11
1698.8638000000001
 21
1046.1125999999999
  0
LINE
  8
_0-0_LAYER001
  6
CONTINUOUS
 62
    4
 10
1698.8638000000001
 20
1046.1125999999999
 11
1703.2240000000002
 21
1045.9131
  0
LINE
  8
_0-0_LAYER001
  6
CONTINUOUS
 62
    4
 10
1703.2240000000002
 20
1045.9131
 11
1707.5891999999999
 21
1045.8385000000001
  0
LINE
  8
_0-0_LAYER001
  6
CONTINUOUS
 62
    4
 10
1707.5891999999999
 20
1045.8385000000001
 11
1711.9562999999998
 21
1045.8729000000001
  0
LINE
  8
_0-0_LAYER001
  6
CONTINUOUS
 62
    4
 10
1711.9562999999998
 20
1045.8729000000001
 11
1716.3222000000001
 21
1046.0003999999999
  0
LINE
  8
_0-0_LAYER001
  6
CONTINUOUS
 62
    4
 10
1716.3222000000001
 20
1046.0003999999999
 11
1718.8526000000002
 21
1046.1108999999999
  0
LINE
  8
_0-0_LAYER001
  6
CONTINUOUS
 62
    4
 10
1718.8526000000002
 20
1046.1108999999999
 11
1723.5817000000002
 21
1046.3791000000001
  0
LINE
  8
_0-0_LAYER001
  6
CONTINUOUS
 62
    4
 10
1723.5817000000002
 20
1046.3791000000001
 11
1731.7199000000001
 21
1047.0101
  0
LINE
  8
_0-0_LAYER001
  6
CONTINUOUS
 62
    4
 10
1731.7199000000001
 20
1047.0101
 11
1739.8407000000002
 21
1047.8240000000001
  0
LINE
  8
_0-0_LAYER001
  6
CONTINUOUS
 62
    4
 10
1739.8407000000002
 20
1047.8240000000001
 11
1747.9465
 21
1048.7853
  0
LINE
  8
_0-0_LAYER001
  6
CONTINUOUS
 62
    4
 10
1747.9465
 20
1048.7853
 11
1756.04
 21
1049.8584000000001
  0
LINE
  8
_0-0_LAYER001
  6
CONTINUOUS
 62
    4
 10
1756.04
 20
1049.8584000000001
 11
1764.1235000000001
 21
1051.008
  0
LINE
  8
_0-0_LAYER001
  6
CONTINUOUS
 62
    4
 10
1764.1235000000001
 20
1051.008
 11
1768.8083999999999
 21
1051.6958
  0
LINE
  8
_0-0_LAYER001
  6
CONTINUOUS
 62
    4
 10
1768.8083999999999
 20
1051.6958
 11
1771.2433000000001
 21
1052.0565999999999
  0
LINE
  8
_0-0_LAYER001
  6
CONTINUOUS
 62
    4
 10
1771.2433000000001
 20
1052.0565999999999
 11
1775.4403000000002
 21
1052.6826000000001
  0
LINE
  8
_0-0_LAYER001
  6
CONTINUOUS
 62
    4
 10
1775.4403000000002
 20
1052.6826000000001
 11
1779.6361000000002
 21
1053.3126999999999
  0
LINE
  8
_0-0_LAYER001
  6
CONTINUOUS
 62
    4
 10
1779.6361000000002
 20
1053.3126999999999
 11
1783.8308999999999
 21
1053.9459999999999
  0
LINE
  8
_0-0_LAYER001
  6
CONTINUOUS
 62
    4
 10
1783.8308999999999
 20
1053.9459999999999
 11
1788.0250999999998
 21
1054.5816
  0
LINE
  8
_0-0_LAYER001
  6
CONTINUOUS
 62
    4
 10
1788.0250999999998
 20
1054.5816
 11
1792.2188000000001
 21
1055.2185999999999
  0
LINE
  8
_0-0_LAYER001
  6
CONTINUOUS
 62
    4
 10
1792.2188000000001
 20
1055.2185999999999
 11
1794.6511
 21
1055.5884000000001
  0
LINE
  8
_0-0_LAYER001
  6
CONTINUOUS
 62
    4
 10
1549.6142
 20
1063.4847
 11
1551.6761000000001
 21
1064.2616
  0
LINE
  8
_0-0_LAYER001
  6
CONTINUOUS
 62
    4
 10
1551.6761000000001
 20
1064.2616
 11
1555.2437
 21
1065.6080999999999
  0
LINE
  8
_0-0_LAYER001
  6
CONTINUOUS
 62
    4
 10
1555.2437
 20
1065.6080999999999
 11
1558.8355999999999
 21
1066.9703999999999
  0
LINE
  8
_0-0_LAYER001
  6
CONTINUOUS
 62
    4
 10
1558.8355999999999
 20
1066.9703999999999
 11
1562.4560000000001
 21
1068.3542
  0
LINE
  8
_0-0_LAYER001
  6
CONTINUOUS
 62
    4
 10
1562.4560000000001
 20
1068.3542
 11
1566.1089999999999
 21
1069.7654
  0
LINE
  8
_0-0_LAYER001
  6
CONTINUOUS
 62
    4
 10
1566.1089999999999
 20
1069.7654
 11
1569.7882
 21
1071.2057
  0
LINE
  8
_0-0_LAYER001
  6
CONTINUOUS
 62
    4
 10
1569.7882
 20
1071.2057
 11
1571.9434000000001
 21
1072.0598
  0
LINE
  8
_0-0_LAYER001
  6
CONTINUOUS
 62
    4
 10
1571.9434000000001
 20
1072.0598
 11
1573.9668999999999
 21
1072.8664000000001
  0
LINE
  8
_0-0_LAYER001
  6
CONTINUOUS
 62
    4
 10
1573.9668999999999
 20
1072.8664000000001
 11
1577.2388000000001
 21
1074.1378
  0
LINE
  8
_0-0_LAYER001
  6
CONTINUOUS
 62
    4
 10
1577.2388000000001
 20
1074.1378
 11
1580.1338999999998
 21
1075.1601000000001
  0
LINE
  8
_0-0_LAYER001
  6
CONTINUOUS
 62
    4
 10
1580.1338999999998
 20
1075.1601000000001
 11
1582.6021000000001
 21
1075.8797999999999
  0
LINE
  8
_0-0_LAYER001
  6
CONTINUOUS
 62
    4
 10
1582.6021000000001
 20
1075.8797999999999
 11
1584.5938000000001
 21
1076.2872
  0
LINE
  8
_0-0_LAYER001
  6
CONTINUOUS
 62
    4
 10
1584.5938000000001
 20
1076.2872
 11
1586.3730999999998
 21
1076.4517000000001
  0
LINE
  8
_0-0_LAYER001
  6
CONTINUOUS
 62
    4
 10
1586.3730999999998
 20
1076.4517000000001
 11
1587.0526
 21
1076.4429
  0
LINE
  8
_0-0_LAYER001
  6
CONTINUOUS
 62
    4
 10
1587.0526
 20
1076.4429
 11
1586.9765000000002
 21
1076.4484
  0
LINE
  8
_0-0_LAYER001
  6
CONTINUOUS
 62
    4
 10
1586.9765000000002
 20
1076.4484
 11
1587.5902000000001
 21
1076.3769
  0
LINE
  8
_0-0_LAYER001
  6
CONTINUOUS
 62
    4
 10
1587.5902000000001
 20
1076.3769
 11
1588.1806000000001
 21
1076.2773
  0
LINE
  8
_0-0_LAYER001
  6
CONTINUOUS
 62
    4
 10
1588.1806000000001
 20
1076.2773
 11
1588.848
 21
1076.1322
  0
LINE
  8
_0-0_LAYER001
  6
CONTINUOUS
 62
    4
 10
1588.848
 20
1076.1322
 11
1589.5816
 21
1075.9395999999999
  0
LINE
  8
_0-0_LAYER001
  6
CONTINUOUS
 62
    4
 10
1589.5816
 20
1075.9395999999999
 11
1590.4306999999999
 21
1075.6812
  0
LINE
  8
_0-0_LAYER001
  6
CONTINUOUS
 62
    4
 10
1590.4306999999999
 20
1075.6812
 11
1590.6747999999998
 21
1075.5993000000001
  0
LINE
  8
_0-0_LAYER001
  6
CONTINUOUS
 62
    4
 10
1590.6747999999998
 20
1075.5993000000001
 11
1592.2347
 21
1075.0072
  0
LINE
  8
_0-0_LAYER001
  6
CONTINUOUS
 62
    4
 10
1592.2347
 20
1075.0072
 11
1595.1824000000001
 21
1073.6368
  0
LINE
  8
_0-0_LAYER001
  6
CONTINUOUS
 62
    4
 10
1595.1824000000001
 20
1073.6368
 11
1598.1435000000001
 21
1071.9762000000001
  0
LINE
  8
_0-0_LAYER001
  6
CONTINUOUS
 62
    4
 10
1598.1435000000001
 20
1071.9762000000001
 11
1601.3112000000001
 21
1069.9548
  0
LINE
  8
_0-0_LAYER001
  6
CONTINUOUS
 62
    4
 10
1601.3112000000001
 20
1069.9548
 11
1604.6959000000002
 21
1067.6098999999999
  0
LINE
  8
_0-0_LAYER001
  6
CONTINUOUS
 62
    4
 10
1604.6959000000002
 20
1067.6098999999999
 11
1608.3015999999998
 21
1065.0074
  0
LINE
  8
_0-0_LAYER001
  6
CONTINUOUS
 62
    4
 10
1608.3015999999998
 20
1065.0074
 11
1610.5086000000001
 21
1063.405
  0
LINE
  8
_0-0_LAYER001
  6
CONTINUOUS
 62
    4
 10
1610.5086000000001
 20
1063.405
 11
1613.9985999999999
 21
1060.9047
  0
LINE
  8
_0-0_LAYER001
  6
CONTINUOUS
 62
    4
 10
1613.9985999999999
 20
1060.9047
 11
1620.0907999999999
 21
1056.6796999999999
  0
LINE
  8
_0-0_LAYER001
  6
CONTINUOUS
 62
    4
 10
1620.0907999999999
 20
1056.6796999999999
 11
1626.3944999999999
 21
1052.5397
  0
LINE
  8
_0-0_LAYER001
  6
CONTINUOUS
 62
    4
 10
1626.3944999999999
 20
1052.5397
 11
1632.9151999999999
 21
1048.5509
  0
LINE
  8
_0-0_LAYER001
  6
CONTINUOUS
 62
    4
 10
1632.9151999999999
 20
1048.5509
 11
1639.6812
 21
1044.7669000000001
  0
LINE
  8
_0-0_LAYER001
  6
CONTINUOUS
 62
    4
 10
1639.6812
 20
1044.7669000000001
 11
1646.6242000000002
 21
1041.2924
  0
LINE
  8
_0-0_LAYER001
  6
CONTINUOUS
 62
    4
 10
1646.6242000000002
 20
1041.2924
 11
1650.8975999999998
 21
1039.3679999999999
  0
LINE
  8
_0-0_LAYER001
  6
CONTINUOUS
 62
    4
 10
1650.8975999999998
 20
1039.3679999999999
 11
1654.5027
 21
1037.8699999999999
  0
LINE
  8
_0-0_LAYER001
  6
CONTINUOUS
 62
    4
 10
1654.5027
 20
1037.8699999999999
 11
1660.5587999999998
 21
1035.6080999999999
  0
LINE
  8
_0-0_LAYER001
  6
CONTINUOUS
 62
    4
 10
1660.5587999999998
 20
1035.6080999999999
 11
1666.8087
 21
1033.5971
  0
LINE
  8
_0-0_LAYER001
  6
CONTINUOUS
 62
    4
 10
1666.8087
 20
1033.5971
 11
1673.1574000000001
 21
1031.8757000000001
  0
LINE
  8
_0-0_LAYER001
  6
CONTINUOUS
 62
    4
 10
1673.1574000000001
 20
1031.8757000000001
 11
1679.5916000000002
 21
1030.4528
  0
LINE
  8
_0-0_LAYER001
  6
CONTINUOUS
 62
    4
 10
1679.5916000000002
 20
1030.4528
 11
1686.0052999999998
 21
1029.354
  0
LINE
  8
_0-0_LAYER001
  6
CONTINUOUS
 62
    4
 10
1686.0052999999998
 20
1029.354
 11
1689.8642
 21
1028.8453
  0
LINE
  8
_0-0_LAYER001
  6
CONTINUOUS
 62
    4
 10
1689.8642
 20
1028.8453
 11
1692.8588
 21
1028.5269000000001
  0
LINE
  8
_0-0_LAYER001
  6
CONTINUOUS
 62
    4
 10
1692.8588
 20
1028.5269000000001
 11
1697.7512000000002
 21
1028.1447000000001
  0
LINE
  8
_0-0_LAYER001
  6
CONTINUOUS
 62
    4
 10
1697.7512000000002
 20
1028.1447000000001
 11
1702.6587
 21
1027.9202
  0
LINE
  8
_0-0_LAYER001
  6
CONTINUOUS
 62
    4
 10
1702.6587
 20
1027.9202
 11
1707.5061000000001
 21
1027.8372999999999
  0
LINE
  8
_0-0_LAYER001
  6
CONTINUOUS
 62
    4
 10
1707.5061000000001
 20
1027.8372999999999
 11
1712.29
 21
1027.8749
  0
LINE
  8
_0-0_LAYER001
  6
CONTINUOUS
 62
    4
 10
1712.29
 20
1027.8749
 11
1716.9776999999999
 21
1028.0119
  0
LINE
  8
_0-0_LAYER001
  6
CONTINUOUS
 62
    4
 10
1716.9776999999999
 20
1028.0119
 11
1719.7548000000002
 21
1028.1332
  0
LINE
  8
_0-0_LAYER001
  6
CONTINUOUS
 62
    4
 10
1719.7548000000002
 20
1028.1332
 11
1724.7872000000002
 21
1028.4186
  0
LINE
  8
_0-0_LAYER001
  6
CONTINUOUS
 62
    4
 10
1724.7872000000002
 20
1028.4186
 11
1733.3132999999998
 21
1029.0796
  0
LINE
  8
_0-0_LAYER001
  6
CONTINUOUS
 62
    4
 10
1733.3132999999998
 20
1029.0796
 11
1741.7982000000002
 21
1029.9300000000001
  0
LINE
  8
_0-0_LAYER001
  6
CONTINUOUS
 62
    4
 10
1741.7982000000002
 20
1029.9300000000001
 11
1750.1895
 21
1030.9250999999999
  0
LINE
  8
_0-0_LAYER001
  6
CONTINUOUS
 62
    4
 10
1750.1895
 20
1030.9250999999999
 11
1758.4902000000002
 21
1032.0257999999999
  0
LINE
  8
_0-0_LAYER001
  6
CONTINUOUS
 62
    4
 10
1758.4902000000002
 20
1032.0257999999999
 11
1766.6979999999999
 21
1033.193
  0
LINE
  8
_0-0_LAYER001
  6
CONTINUOUS
 62
    4
 10
1766.6979999999999
 20
1033.193
 11
1771.4351000000001
 21
1033.8885
  0
LINE
  8
_0-0_LAYER001
  6
CONTINUOUS
 62
    4
 10
1771.4351000000001
 20
1033.8885
 11
1773.8904000000002
 21
1034.2524000000001
  0
LINE
  8
_0-0_LAYER001
  6
CONTINUOUS
 62
    4
 10
1773.8904000000002
 20
1034.2524000000001
 11
1778.1046000000001
 21
1034.8809000000001
  0
LINE
  8
_0-0_LAYER001
  6
CONTINUOUS
 62
    4
 10
1778.1046000000001
 20
1034.8809000000001
 11
1782.3161
 21
1035.5134
  0
LINE
  8
_0-0_LAYER001
  6
CONTINUOUS
 62
    4
 10
1782.3161
 20
1035.5134
 11
1786.5228000000002
 21
1036.1485
  0
LINE
  8
_0-0_LAYER001
  6
CONTINUOUS
 62
    4
 10
1786.5228000000002
 20
1036.1485
 11
1790.7249999999999
 21
1036.7853
  0
LINE
  8
_0-0_LAYER001
  6
CONTINUOUS
 62
    4
 10
1790.7249999999999
 20
1036.7853
 11
1794.9229
 21
1037.4229
  0
LINE
  8
_0-0_LAYER001
  6
CONTINUOUS
 62
    4
 10
1794.9229
 20
1037.4229
 11
1796.5405999999998
 21
1037.6687999999999
  0
LINE
  8
_0-0_LAYER001
  6
CONTINUOUS
 62
    4
 10
1544.0853999999999
 20
1080.6349
 11
1544.5113999999999
 21
1080.798
  0
ARC
  8
_0-0_LAYER001
  6
CONTINUOUS
 62
    4
 10
1545.1579999999999
 20
1077.8332
 40
3
 50
110.94902000000002
 51
178.70000000000002
  0
LINE
  8
_0-0_LAYER001
  6
CONTINUOUS
 62
    4
 10
1542.0493999999999
 20
1062.0621000000001
 11
1542.0493999999999
 21
1077.7846
  0
LINE
  8
_0-0_LAYER001
  6
CONTINUOUS
 62
    4
 10
1543.4034000000001
 20
1061.1269
 11
1549.5783000000001
 21
1063.4640999999999
  0
ARC
  8
_0-0_LAYER001
  6
CONTINUOUS
 62
    4
 10
1543.0493999999999
 20
1062.0621000000001
 40
1
 50
180
 51
290.73165999999998
  0
LINE
  8
_0-0_LAYER001
  6
CONTINUOUS
 62
    4
 10
1794.7759999999998
 20
1055.6237000000001
 11
1839.2303000000002
 21
1065.2716
  0
LINE
  8
_0-0_LAYER001
  6
CONTINUOUS
 62
    4
 10
1801.5212000000001
 20
1035.79
 11
1840.1930000000002
 21
1044.8399999999999
  0
LINE
  8
_0-0_LAYER001
  6
CONTINUOUS
 62
    4
 10
1840.1930000000002
 20
1045.7964999999999
 11
1840.1930000000002
 21
1044.8399999999999
  0
ARC
  8
_0-0_LAYER001
  6
CONTINUOUS
 62
    4
 10
1841.1930000000002
 20
1045.7964999999999
 40
1
 50
102.72435
 51
180
  0
LINE
  8
_0-0_LAYER001
  6
CONTINUOUS
 62
    4
 10
1846.0100000000002
 20
1047.9094
 11
1840.9728
 21
1046.7719
  0
ARC
  8
_0-0_LAYER001
  6
CONTINUOUS
 62
    4
 10
1846.2303000000002
 20
1046.9339
 40
1
 50
0
 51
102.72435
  0
LINE
  8
_0-0_LAYER001
  6
CONTINUOUS
 62
    4
 10
1846.4423999999999
 20
1048.4177999999999
 11
1796.3083999999999
 21
1037.5373
  0
ARC
  8
_0-0_LAYER001
  6
CONTINUOUS
 62
    4
 10
1846.2303000000002
 20
1049.3951
 40
1
 50
282.24497000000002
 51
0
  0
LINE
  8
_0-0_LAYER001
  6
CONTINUOUS
 62
    4
 10
1846.4481000000001
 20
1027.6771000000001
 11
1796.8642
 21
1016.6092000000001
  0
LINE
  8
_0-0_LAYER001
  6
CONTINUOUS
 62
    4
 10
1847.2303000000002
 20
1028.6531
 11
1847.2303000000002
 21
1046.9339
  0
ARC
  8
_0-0_LAYER001
  6
CONTINUOUS
 62
    4
 10
1846.2303000000002
 20
1028.6531
 40
1
 50
282.58296000000001
 51
0.0000000000000254
  0
LINE
  8
_0-0_LAYER001
  6
CONTINUOUS
 62
    4
 10
1839.2303000000002
 20
1066.7286999999999
 11
1839.2303000000002
 21
1065.2716
  0
ARC
  8
_0-0_LAYER001
  6
CONTINUOUS
 62
    4
 10
1840.2303000000002
 20
1066.7286999999999
 40
1
 50
101.73308
 51
180
  0
LINE
  8
_0-0_LAYER001
  6
CONTINUOUS
 62
    4
 10
1846.0268999999998
 20
1068.9539
 11
1840.0268999999998
 21
1067.7077999999999
  0
LINE
  8
_0-0_LAYER001
  6
CONTINUOUS
 62
    4
 10
1847.2303000000002
 20
1067.9748
 11
1847.2303000000002
 21
1049.3951
  0
ARC
  8
_0-0_LAYER001
  6
CONTINUOUS
 62
    4
 10
1846.2303000000002
 20
1067.9748
 40
1
 50
0
 51
101.73308
  0
LINE
  8
_0-0_LAYER001
  6
CONTINUOUS
 62
    4
 10
1402.4997000000003
 20
997.08490000000006
 11
1393.9641999999999
 21
1011.6183000000001
  0
LINE
  8
_0-0_LAYER001
  6
CONTINUOUS
 62
    4
 10
1410.6675999999998
 20
996.43460000000005
 11
1418.9738
 21
1006.5001
  0
ARC
  8
_0-0_LAYER001
  6
CONTINUOUS
 62
    4
 10
1406.8110999999999
 20
999.61699999999996
 40
5
 50
210.42578
 51
320.47001
  0
LINE
  8
_0-0_LAYER001
  6
CONTINUOUS
 62
    4
 10
1486.6131999999998
 20
995.96479999999997
 11
1479.2878000000001
 21
1007.2708
  0
LINE
  8
_0-0_LAYER001
  6
CONTINUOUS
 62
    4
 10
1495.1226999999999
 20
996.15470000000005
 11
1504.0612000000001
 21
1011.4003
  0
ARC
  8
_0-0_LAYER001
  6
CONTINUOUS
 62
    4
 10
1490.8094000000001
 20
998.68350000000009
 40
5
 50
212.93986000000001
 51
329.61716000000001
  0
LINE
  8
_0-0_LAYER001
  6
CONTINUOUS
 62
    4
 10
1534.4047999999998
 20
1035.7122999999999
 11
1536.8328999999999
 21
1036.1161999999999
  0
LINE
  8
_0-0_LAYER001
  6
CONTINUOUS
 62
    4
 10
1530.2157000000002
 20
1035.0161000000001
 11
1534.4047999999998
 21
1035.7122999999999
  0
LINE
  8
_0-0_LAYER001
  6
CONTINUOUS
 62
    4
 10
1526.0219000000002
 20
1034.3205
 11
1530.2157000000002
 21
1035.0161000000001
  0
LINE
  8
_0-0_LAYER001
  6
CONTINUOUS
 62
    4
 10
1521.8231000000001
 20
1033.6265000000001
 11
1526.0219000000002
 21
1034.3205
  0
LINE
  8
_0-0_LAYER001
  6
CONTINUOUS
 62
    4
 10
1517.6190999999999
 20
1032.9349999999999
 11
1521.8231000000001
 21
1033.6265000000001
  0
LINE
  8
_0-0_LAYER001
  6
CONTINUOUS
 62
    4
 10
1513.4123
 20
1032.2474
 11
1517.6190999999999
 21
1032.9349999999999
  0
LINE
  8
_0-0_LAYER001
  6
CONTINUOUS
 62
    4
 10
1510.96
 20
1031.8489
 11
1513.4123
 21
1032.2474
  0
LINE
  8
_0-0_LAYER001
  6
CONTINUOUS
 62
    4
 10
1506.2271999999998
 20
1031.0863999999999
 11
1510.96
 21
1031.8489
  0
LINE
  8
_0-0_LAYER001
  6
CONTINUOUS
 62
    4
 10
1498.0228000000002
 20
1029.8025
 11
1506.2271999999998
 21
1031.0863999999999
  0
LINE
  8
_0-0_LAYER001
  6
CONTINUOUS
 62
    4
 10
1489.7152999999998
 20
1028.5826999999999
 11
1498.0228000000002
 21
1029.8025
  0
LINE
  8
_0-0_LAYER001
  6
CONTINUOUS
 62
    4
 10
1481.3069999999998
 20
1027.4663
 11
1489.7152999999998
 21
1028.5826999999999
  0
LINE
  8
_0-0_LAYER001
  6
CONTINUOUS
 62
    4
 10
1472.7944000000002
 20
1026.4929999999999
 11
1481.3069999999998
 21
1027.4663
  0
LINE
  8
_0-0_LAYER001
  6
CONTINUOUS
 62
    4
 10
1464.2352999999998
 20
1025.7090000000001
 11
1472.7944000000002
 21
1026.4929999999999
  0
LINE
  8
_0-0_LAYER001
  6
CONTINUOUS
 62
    4
 10
1459.1738
 20
1025.3510000000001
 11
1464.2352999999998
 21
1025.7090000000001
  0
LINE
  8
_0-0_LAYER001
  6
CONTINUOUS
 62
    4
 10
1456.3712
 20
1025.1894
 11
1459.1738
 21
1025.3510000000001
  0
LINE
  8
_0-0_LAYER001
  6
CONTINUOUS
 62
    4
 10
1451.6502
 20
1024.9854
 11
1456.3712
 21
1025.1894
  0
LINE
  8
_0-0_LAYER001
  6
CONTINUOUS
 62
    4
 10
1446.8209000000002
 20
1024.8800000000001
 11
1451.6502
 21
1024.9854
  0
LINE
  8
_0-0_LAYER001
  6
CONTINUOUS
 62
    4
 10
1441.9193
 20
1024.8952999999999
 11
1446.8209000000002
 21
1024.8800000000001
  0
LINE
  8
_0-0_LAYER001
  6
CONTINUOUS
 62
    4
 10
1436.9483
 20
1025.0532000000001
 11
1441.9193
 21
1024.8952999999999
  0
LINE
  8
_0-0_LAYER001
  6
CONTINUOUS
 62
    4
 10
1431.9908999999998
 20
1025.3708999999999
 11
1436.9483
 21
1025.0532000000001
  0
LINE
  8
_0-0_LAYER001
  6
CONTINUOUS
 62
    4
 10
1428.9392
 20
1025.6523999999999
 11
1431.9908999999998
 21
1025.3708999999999
  0
LINE
  8
_0-0_LAYER001
  6
CONTINUOUS
 62
    4
 10
1425.0103999999999
 20
1026.1146000000001
 11
1428.9392
 21
1025.6523999999999
  0
LINE
  8
_0-0_LAYER001
  6
CONTINUOUS
 62
    4
 10
1418.4964
 20
1027.1371999999999
 11
1425.0103999999999
 21
1026.1146000000001
  0
LINE
  8
_0-0_LAYER001
  6
CONTINUOUS
 62
    4
 10
1411.9498000000001
 20
1028.4893
 11
1418.4964
 21
1027.1371999999999
  0
LINE
  8
_0-0_LAYER001
  6
CONTINUOUS
 62
    4
 10
1405.4869000000003
 20
1030.1451999999999
 11
1411.9498000000001
 21
1028.4893
  0
LINE
  8
_0-0_LAYER001
  6
CONTINUOUS
 62
    4
 10
1399.1208999999999
 20
1032.0959
 11
1405.4869000000003
 21
1030.1451999999999
  0
LINE
  8
_0-0_LAYER001
  6
CONTINUOUS
 62
    4
 10
1392.9562000000001
 20
1034.3008
 11
1399.1208999999999
 21
1032.0959
  0
LINE
  8
_0-0_LAYER001
  6
CONTINUOUS
 62
    4
 10
1389.2695000000001
 20
1035.7726
 11
1392.9562000000001
 21
1034.3008
  0
LINE
  8
_0-0_LAYER001
  6
CONTINUOUS
 62
    4
 10
1384.9052000000001
 20
1037.6650999999999
 11
1389.2695000000001
 21
1035.7726
  0
LINE
  8
_0-0_LAYER001
  6
CONTINUOUS
 62
    4
 10
1377.8361999999997
 20
1041.0800999999999
 11
1384.9052000000001
 21
1037.6650999999999
  0
LINE
  8
_0-0_LAYER001
  6
CONTINUOUS
 62
    4
 10
1370.9432999999999
 20
1044.8097
 11
1377.8361999999997
 21
1041.0800999999999
  0
LINE
  8
_0-0_LAYER001
  6
CONTINUOUS
 62
    4
 10
1364.3063000000002
 20
1048.7434000000001
 11
1370.9432999999999
 21
1044.8097
  0
LINE
  8
_0-0_LAYER001
  6
CONTINUOUS
 62
    4
 10
1357.8969999999999
 20
1052.8258000000001
 11
1364.3063000000002
 21
1048.7434000000001
  0
LINE
  8
_0-0_LAYER001
  6
CONTINUOUS
 62
    4
 10
1351.7128
 20
1056.9880000000001
 11
1357.8969999999999
 21
1052.8258000000001
  0
LINE
  8
_0-0_LAYER001
  6
CONTINUOUS
 62
    4
 10
1348.1704
 20
1059.4517000000001
 11
1351.7128
 21
1056.9880000000001
  0
LINE
  8
_0-0_LAYER001
  6
CONTINUOUS
 62
    4
 10
1345.9384
 20
1061.0251000000001
 11
1348.1704
 21
1059.4517000000001
  0
LINE
  8
_0-0_LAYER001
  6
CONTINUOUS
 62
    4
 10
1342.3148000000001
 20
1063.5643
 11
1345.9384
 21
1061.0251000000001
  0
LINE
  8
_0-0_LAYER001
  6
CONTINUOUS
 62
    4
 10
1338.9452000000001
 20
1065.8298
 11
1342.3148000000001
 21
1063.5643
  0
LINE
  8
_0-0_LAYER001
  6
CONTINUOUS
 62
    4
 10
1335.8302000000001
 20
1067.7569000000001
 11
1338.9452000000001
 21
1065.8298
  0
LINE
  8
_0-0_LAYER001
  6
CONTINUOUS
 62
    4
 10
1332.963
 20
1069.3126
 11
1335.8302000000001
 21
1067.7569000000001
  0
LINE
  8
_0-0_LAYER001
  6
CONTINUOUS
 62
    4
 10
1330.1319000000001
 20
1070.5811000000001
 11
1332.963
 21
1069.3126
  0
LINE
  8
_0-0_LAYER001
  6
CONTINUOUS
 62
    4
 10
1328.6687000000002
 20
1071.1132
 11
1330.1319000000001
 21
1070.5811000000001
  0
LINE
  8
_0-0_LAYER001
  6
CONTINUOUS
 62
    4
 10
1328.4875999999999
 20
1071.1712
 11
1328.6687000000002
 21
1071.1132
  0
LINE
  8
_0-0_LAYER001
  6
CONTINUOUS
 62
    4
 10
1327.6992999999998
 20
1071.3991000000001
 11
1328.4875999999999
 21
1071.1712
  0
LINE
  8
_0-0_LAYER001
  6
CONTINUOUS
 62
    4
 10
1327.0420999999999
 20
1071.5617999999999
 11
1327.6992999999998
 21
1071.3991000000001
  0
LINE
  8
_0-0_LAYER001
  6
CONTINUOUS
 62
    4
 10
1326.4603
 20
1071.6797999999999
 11
1327.0420999999999
 21
1071.5617999999999
  0
LINE
  8
_0-0_LAYER001
  6
CONTINUOUS
 62
    4
 10
1326.4203
 20
1071.6859999999999
 11
1326.4603
 21
1071.6797999999999
  0
LINE
  8
_0-0_LAYER001
  6
CONTINUOUS
 62
    4
 10
1530.3941
 20
1016.5247999999999
 11
1532.0082000000002
 21
1016.7933
  0
LINE
  8
_0-0_LAYER001
  6
CONTINUOUS
 62
    4
 10
1526.2055999999998
 20
1015.8286000000001
 11
1530.3941
 21
1016.5247999999999
  0
LINE
  8
_0-0_LAYER001
  6
CONTINUOUS
 62
    4
 10
1522.0127000000002
 20
1015.1332
 11
1526.2055999999998
 21
1015.8286000000001
  0
LINE
  8
_0-0_LAYER001
  6
CONTINUOUS
 62
    4
 10
1517.8152
 20
1014.4395
 11
1522.0127000000002
 21
1015.1332
  0
LINE
  8
_0-0_LAYER001
  6
CONTINUOUS
 62
    4
 10
1513.6129000000001
 20
1013.7483
 11
1517.8152
 21
1014.4395
  0
LINE
  8
_0-0_LAYER001
  6
CONTINUOUS
 62
    4
 10
1509.4079999999999
 20
1013.0608999999999
 11
1513.6129000000001
 21
1013.7483
  0
LINE
  8
_0-0_LAYER001
  6
CONTINUOUS
 62
    4
 10
1506.9578999999999
 20
1012.6628000000001
 11
1509.4079999999999
 21
1013.0608999999999
  0
LINE
  8
_0-0_LAYER001
  6
CONTINUOUS
 62
    4
 10
1502.2310000000002
 20
1011.9013
 11
1506.9578999999999
 21
1012.6628000000001
  0
LINE
  8
_0-0_LAYER001
  6
CONTINUOUS
 62
    4
 10
1494.0403000000001
 20
1010.6196
 11
1502.2310000000002
 21
1011.9013
  0
LINE
  8
_0-0_LAYER001
  6
CONTINUOUS
 62
    4
 10
1485.7557999999999
 20
1009.4031
 11
1494.0403000000001
 21
1010.6196
  0
LINE
  8
_0-0_LAYER001
  6
CONTINUOUS
 62
    4
 10
1477.3791999999999
 20
1008.2909
 11
1485.7557999999999
 21
1009.4031
  0
LINE
  8
_0-0_LAYER001
  6
CONTINUOUS
 62
    4
 10
1468.9070000000002
 20
1007.3222000000001
 11
1477.3791999999999
 21
1008.2909
  0
LINE
  8
_0-0_LAYER001
  6
CONTINUOUS
 62
    4
 10
1460.3908999999999
 20
1006.5420999999999
 11
1468.9070000000002
 21
1007.3222000000001
  0
LINE
  8
_0-0_LAYER001
  6
CONTINUOUS
 62
    4
 10
1455.3631
 20
1006.1865
 11
1460.3908999999999
 21
1006.5420999999999
  0
LINE
  8
_0-0_LAYER001
  6
CONTINUOUS
 62
    4
 10
1452.5879
 20
1006.0264999999999
 11
1455.3631
 21
1006.1865
  0
LINE
  8
_0-0_LAYER001
  6
CONTINUOUS
 62
    4
 10
1447.9025999999999
 20
1005.8241
 11
1452.5879
 21
1006.0264999999999
  0
LINE
  8
_0-0_LAYER001
  6
CONTINUOUS
 62
    4
 10
1443.1196
 20
1005.7195999999999
 11
1447.9025999999999
 21
1005.8241
  0
LINE
  8
_0-0_LAYER001
  6
CONTINUOUS
 62
    4
 10
1438.2716
 20
1005.7348
 11
1443.1196
 21
1005.7195999999999
  0
LINE
  8
_0-0_LAYER001
  6
CONTINUOUS
 62
    4
 10
1433.3613999999998
 20
1005.8907999999999
 11
1438.2716
 21
1005.7348
  0
LINE
  8
_0-0_LAYER001
  6
CONTINUOUS
 62
    4
 10
1428.4640999999999
 20
1006.2047
 11
1433.3613999999998
 21
1005.8907999999999
  0
LINE
  8
_0-0_LAYER001
  6
CONTINUOUS
 62
    4
 10
1425.4654
 20
1006.4811999999999
 11
1428.4640999999999
 21
1006.2047
  0
LINE
  8
_0-0_LAYER001
  6
CONTINUOUS
 62
    4
 10
1421.5998
 20
1006.9359999999999
 11
1425.4654
 21
1006.4811999999999
  0
LINE
  8
_0-0_LAYER001
  6
CONTINUOUS
 62
    4
 10
1415.1713999999997
 20
1007.9450999999999
 11
1421.5998
 21
1006.9359999999999
  0
LINE
  8
_0-0_LAYER001
  6
CONTINUOUS
 62
    4
 10
1408.7179000000001
 20
1009.278
 11
1415.1713999999997
 21
1007.9450999999999
  0
LINE
  8
_0-0_LAYER001
  6
CONTINUOUS
 62
    4
 10
1402.3458000000001
 20
1010.9105999999999
 11
1408.7179000000001
 21
1009.278
  0
LINE
  8
_0-0_LAYER001
  6
CONTINUOUS
 62
    4
 10
1396.0684000000001
 20
1012.8342
 11
1402.3458000000001
 21
1010.9105999999999
  0
LINE
  8
_0-0_LAYER001
  6
CONTINUOUS
 62
    4
 10
1389.9813999999997
 20
1015.0114000000001
 11
1396.0684000000001
 21
1012.8342
  0
LINE
  8
_0-0_LAYER001
  6
CONTINUOUS
 62
    4
 10
1386.3557000000001
 20
1016.4588000000001
 11
1389.9813999999997
 21
1015.0114000000001
  0
LINE
  8
_0-0_LAYER001
  6
CONTINUOUS
 62
    4
 10
1382.0558000000001
 20
1018.3234
 11
1386.3557000000001
 21
1016.4588000000001
  0
LINE
  8
_0-0_LAYER001
  6
CONTINUOUS
 62
    4
 10
1375.0650000000001
 20
1021.7005999999999
 11
1382.0558000000001
 21
1018.3234
  0
LINE
  8
_0-0_LAYER001
  6
CONTINUOUS
 62
    4
 10
1368.2467999999999
 20
1025.3896999999999
 11
1375.0650000000001
 21
1021.7005999999999
  0
LINE
  8
_0-0_LAYER001
  6
CONTINUOUS
 62
    4
 10
1361.6711
 20
1029.2871
 11
1368.2467999999999
 21
1025.3896999999999
  0
LINE
  8
_0-0_LAYER001
  6
CONTINUOUS
 62
    4
 10
1355.3100999999997
 20
1033.3387
 11
1361.6711
 21
1029.2871
  0
LINE
  8
_0-0_LAYER001
  6
CONTINUOUS
 62
    4
 10
1349.1596
 20
1037.4782
 11
1355.3100999999997
 21
1033.3387
  0
LINE
  8
_0-0_LAYER001
  6
CONTINUOUS
 62
    4
 10
1345.635
 20
1039.9295999999999
 11
1349.1596
 21
1037.4782
  0
LINE
  8
_0-0_LAYER001
  6
CONTINUOUS
 62
    4
 10
1343.4059
 20
1041.501
 11
1345.635
 21
1039.9295999999999
  0
LINE
  8
_0-0_LAYER001
  6
CONTINUOUS
 62
    4
 10
1339.7642000000001
 20
1044.0528999999999
 11
1343.4059
 21
1041.501
  0
LINE
  8
_0-0_LAYER001
  6
CONTINUOUS
 62
    4
 10
1336.3471
 20
1046.3503000000001
 11
1339.7642000000001
 21
1044.0528999999999
  0
LINE
  8
_0-0_LAYER001
  6
CONTINUOUS
 62
    4
 10
1333.1513999999997
 20
1048.3272999999999
 11
1336.3471
 21
1046.3503000000001
  0
LINE
  8
_0-0_LAYER001
  6
CONTINUOUS
 62
    4
 10
1330.1675
 20
1049.9464
 11
1333.1513999999997
 21
1048.3272999999999
  0
LINE
  8
_0-0_LAYER001
  6
CONTINUOUS
 62
    4
 10
1327.2009
 20
1051.2755
 11
1330.1675
 21
1049.9464
  0
LINE
  8
_0-0_LAYER001
  6
CONTINUOUS
 62
    4
 10
1326.451
 20
1051.5482999999999
 11
1327.2009
 21
1051.2755
  0
LINE
  8
_0-0_LAYER001
  6
CONTINUOUS
 62
    4
 10
1326.7840000000001
 20
1071.5914
 11
1326.6079999999999
 21
1051.4178999999999
  0
LINE
  8
_0-0_LAYER001
  6
CONTINUOUS
 62
    4
 10
1527.1097
 20
1006.1035999999999
 11
1524.8642
 21
1014.6769999999999
  0
ARC
  8
_0-0_LAYER001
  6
CONTINUOUS
 62
    4
 10
1530.0118000000002
 20
1006.8637000000001
 40
3
 50
194.67639000000003
 51
270.00000000000006
  0
LINE
  8
_0-0_LAYER001
  6
CONTINUOUS
 62
    4
 10
1533.4542999999999
 20
1003.8594000000001
 11
1530.0364
 21
1003.8594000000001
  0
LINE
  8
_0-0_LAYER001
  6
CONTINUOUS
 62
    4
 10
1536.4133999999999
 20
1006.3661999999999
 11
1538.3474999999999
 21
1017.9703
  0
ARC
  8
_0-0_LAYER001
  6
CONTINUOUS
 62
    4
 10
1533.4542999999999
 20
1006.8594000000001
 40
3
 50
270
 51
350.53766999999999
  0
LINE
  8
_0-0_LAYER001
  6
CONTINUOUS
 62
    4
 10
1279.6878999999999
 20
1080.9816000000001
 11
1280.5018
 21
1081.2882
  0
LINE
  8
_0-0_LAYER001
  6
CONTINUOUS
 62
    4
 10
1280.5018
 20
1081.2882
 11
1284.0509999999999
 21
1082.6278
  0
LINE
  8
_0-0_LAYER001
  6
CONTINUOUS
 62
    4
 10
1284.0509999999999
 20
1082.6278
 11
1287.6077
 21
1083.9766999999999
  0
LINE
  8
_0-0_LAYER001
  6
CONTINUOUS
 62
    4
 10
1287.6077
 20
1083.9766999999999
 11
1291.1763000000001
 21
1085.3407
  0
LINE
  8
_0-0_LAYER001
  6
CONTINUOUS
 62
    4
 10
1291.1763000000001
 20
1085.3407
 11
1294.7617
 21
1086.7257999999999
  0
LINE
  8
_0-0_LAYER001
  6
CONTINUOUS
 62
    4
 10
1294.7617
 20
1086.7257999999999
 11
1298.3683999999998
 21
1088.1378
  0
LINE
  8
_0-0_LAYER001
  6
CONTINUOUS
 62
    4
 10
1298.3683999999998
 20
1088.1378
 11
1300.4719
 21
1088.9713999999999
  0
LINE
  8
_0-0_LAYER001
  6
CONTINUOUS
 62
    4
 10
1300.4719
 20
1088.9713999999999
 11
1302.5513000000001
 21
1089.8001999999999
  0
LINE
  8
_0-0_LAYER001
  6
CONTINUOUS
 62
    4
 10
1302.5513000000001
 20
1089.8001999999999
 11
1306.1578
 21
1091.2017000000001
  0
LINE
  8
_0-0_LAYER001
  6
CONTINUOUS
 62
    4
 10
1306.1578
 20
1091.2017000000001
 11
1309.7905000000001
 21
1092.4844000000001
  0
LINE
  8
_0-0_LAYER001
  6
CONTINUOUS
 62
    4
 10
1309.7905000000001
 20
1092.4844000000001
 11
1313.4485
 21
1093.5509999999999
  0
LINE
  8
_0-0_LAYER001
  6
CONTINUOUS
 62
    4
 10
1313.4485
 20
1093.5509999999999
 11
1317.1306
 21
1094.3043
  0
LINE
  8
_0-0_LAYER001
  6
CONTINUOUS
 62
    4
 10
1317.1306
 20
1094.3043
 11
1320.8359
 21
1094.6468
  0
LINE
  8
_0-0_LAYER001
  6
CONTINUOUS
 62
    4
 10
1320.8359
 20
1094.6468
 11
1322.9951000000001
 21
1094.6188999999999
  0
LINE
  8
_0-0_LAYER001
  6
CONTINUOUS
 62
    4
 10
1322.9951000000001
 20
1094.6188999999999
 11
1323.8443000000002
 21
1094.5574999999999
  0
LINE
  8
_0-0_LAYER001
  6
CONTINUOUS
 62
    4
 10
1323.8443000000002
 20
1094.5574999999999
 11
1325.3086000000003
 21
1094.3869
  0
LINE
  8
_0-0_LAYER001
  6
CONTINUOUS
 62
    4
 10
1325.3086000000003
 20
1094.3869
 11
1326.7697000000001
 21
1094.1402
  0
LINE
  8
_0-0_LAYER001
  6
CONTINUOUS
 62
    4
 10
1326.7697000000001
 20
1094.1402
 11
1328.2233999999999
 21
1093.8242
  0
LINE
  8
_0-0_LAYER001
  6
CONTINUOUS
 62
    4
 10
1328.2233999999999
 20
1093.8242
 11
1329.6656000000003
 21
1093.4457
  0
LINE
  8
_0-0_LAYER001
  6
CONTINUOUS
 62
    4
 10
1329.6656000000003
 20
1093.4457
 11
1331.0920000000001
 21
1093.0115000000001
  0
LINE
  8
_0-0_LAYER001
  6
CONTINUOUS
 62
    4
 10
1331.0920000000001
 20
1093.0115000000001
 11
1331.9105
 21
1092.7369000000001
  0
LINE
  8
_0-0_LAYER001
  6
CONTINUOUS
 62
    4
 10
1331.9105
 20
1092.7369000000001
 11
1334.4087
 21
1091.7887000000001
  0
LINE
  8
_0-0_LAYER001
  6
CONTINUOUS
 62
    4
 10
1334.4087
 20
1091.7887000000001
 11
1338.5676000000001
 21
1089.8552
  0
LINE
  8
_0-0_LAYER001
  6
CONTINUOUS
 62
    4
 10
1338.5676000000001
 20
1089.8552
 11
1342.5713999999998
 21
1087.6098
  0
LINE
  8
_0-0_LAYER001
  6
CONTINUOUS
 62
    4
 10
1342.5713999999998
 20
1087.6098
 11
1346.4582999999998
 21
1085.1295
  0
LINE
  8
_0-0_LAYER001
  6
CONTINUOUS
 62
    4
 10
1346.4582999999998
 20
1085.1295
 11
1350.2663000000002
 21
1082.4914000000001
  0
LINE
  8
_0-0_LAYER001
  6
CONTINUOUS
 62
    4
 10
1350.2663000000002
 20
1082.4914000000001
 11
1354.0336
 21
1079.7723000000001
  0
LINE
  8
_0-0_LAYER001
  6
CONTINUOUS
 62
    4
 10
1354.0336
 20
1079.7723000000001
 11
1356.2148999999999
 21
1078.1885
  0
LINE
  8
_0-0_LAYER001
  6
CONTINUOUS
 62
    4
 10
1356.2148999999999
 20
1078.1885
 11
1359.5464999999999
 21
1075.8016
  0
LINE
  8
_0-0_LAYER001
  6
CONTINUOUS
 62
    4
 10
1359.5464999999999
 20
1075.8016
 11
1365.3387
 21
1071.7846999999999
  0
LINE
  8
_0-0_LAYER001
  6
CONTINUOUS
 62
    4
 10
1365.3387
 20
1071.7846999999999
 11
1371.2109
 21
1067.9281000000001
  0
LINE
  8
_0-0_LAYER001
  6
CONTINUOUS
 62
    4
 10
1371.2109
 20
1067.9281000000001
 11
1377.1849999999999
 21
1064.2736
  0
LINE
  8
_0-0_LAYER001
  6
CONTINUOUS
 62
    4
 10
1377.1849999999999
 20
1064.2736
 11
1383.2832000000003
 21
1060.8631
  0
LINE
  8
_0-0_LAYER001
  6
CONTINUOUS
 62
    4
 10
1383.2832000000003
 20
1060.8631
 11
1389.5274999999997
 21
1057.7383
  0
LINE
  8
_0-0_LAYER001
  6
CONTINUOUS
 62
    4
 10
1389.5274999999997
 20
1057.7383
 11
1393.2248
 21
1056.0733
  0
LINE
  8
_0-0_LAYER001
  6
CONTINUOUS
 62
    4
 10
1393.2248
 20
1056.0733
 11
1396.2840000000001
 21
1054.8022000000001
  0
LINE
  8
_0-0_LAYER001
  6
CONTINUOUS
 62
    4
 10
1396.2840000000001
 20
1054.8022000000001
 11
1401.6446000000001
 21
1052.8
  0
LINE
  8
_0-0_LAYER001
  6
CONTINUOUS
 62
    4
 10
1401.6446000000001
 20
1052.8
 11
1407.1003000000001
 21
1051.0445
  0
LINE
  8
_0-0_LAYER001
  6
CONTINUOUS
 62
    4
 10
1407.1003000000001
 20
1051.0445
 11
1412.6351999999999
 21
1049.5437999999999
  0
LINE
  8
_0-0_LAYER001
  6
CONTINUOUS
 62
    4
 10
1412.6351999999999
 20
1049.5437999999999
 11
1418.2335
 21
1048.3058000000001
  0
LINE
  8
_0-0_LAYER001
  6
CONTINUOUS
 62
    4
 10
1418.2335
 20
1048.3058000000001
 11
1423.8793000000001
 21
1047.3385000000001
  0
LINE
  8
_0-0_LAYER001
  6
CONTINUOUS
 62
    4
 10
1423.8793000000001
 20
1047.3385000000001
 11
1427.1692000000003
 21
1046.9048
  0
LINE
  8
_0-0_LAYER001
  6
CONTINUOUS
 62
    4
 10
1427.1692000000003
 20
1046.9048
 11
1429.6885
 21
1046.6369999999999
  0
LINE
  8
_0-0_LAYER001
  6
CONTINUOUS
 62
    4
 10
1429.6885
 20
1046.6369999999999
 11
1434.0405999999998
 21
1046.2969000000001
  0
LINE
  8
_0-0_LAYER001
  6
CONTINUOUS
 62
    4
 10
1434.0405999999998
 20
1046.2969000000001
 11
1438.4007999999999
 21
1046.0975000000001
  0
LINE
  8
_0-0_LAYER001
  6
CONTINUOUS
 62
    4
 10
1438.4007999999999
 20
1046.0975000000001
 11
1442.7660000000001
 21
1046.0228
  0
LINE
  8
_0-0_LAYER001
  6
CONTINUOUS
 62
    4
 10
1442.7660000000001
 20
1046.0228
 11
1447.1331
 21
1046.0572
  0
LINE
  8
_0-0_LAYER001
  6
CONTINUOUS
 62
    4
 10
1447.1331
 20
1046.0572
 11
1451.4989999999998
 21
1046.1848
  0
LINE
  8
_0-0_LAYER001
  6
CONTINUOUS
 62
    4
 10
1451.4989999999998
 20
1046.1848
 11
1454.0295000000001
 21
1046.2953
  0
LINE
  8
_0-0_LAYER001
  6
CONTINUOUS
 62
    4
 10
1454.0295000000001
 20
1046.2953
 11
1458.7586000000001
 21
1046.5635
  0
LINE
  8
_0-0_LAYER001
  6
CONTINUOUS
 62
    4
 10
1458.7586000000001
 20
1046.5635
 11
1466.8968
 21
1047.1944000000001
  0
LINE
  8
_0-0_LAYER001
  6
CONTINUOUS
 62
    4
 10
1466.8968
 20
1047.1944000000001
 11
1475.0174999999999
 21
1048.0083
  0
LINE
  8
_0-0_LAYER001
  6
CONTINUOUS
 62
    4
 10
1475.0174999999999
 20
1048.0083
 11
1483.1233999999999
 21
1048.9695999999999
  0
LINE
  8
_0-0_LAYER001
  6
CONTINUOUS
 62
    4
 10
1483.1233999999999
 20
1048.9695999999999
 11
1491.2168000000001
 21
1050.0427999999999
  0
LINE
  8
_0-0_LAYER001
  6
CONTINUOUS
 62
    4
 10
1491.2168000000001
 20
1050.0427999999999
 11
1499.3004000000001
 21
1051.1923999999999
  0
LINE
  8
_0-0_LAYER001
  6
CONTINUOUS
 62
    4
 10
1499.3004000000001
 20
1051.1923999999999
 11
1503.9852999999998
 21
1051.8801000000001
  0
LINE
  8
_0-0_LAYER001
  6
CONTINUOUS
 62
    4
 10
1503.9852999999998
 20
1051.8801000000001
 11
1506.4202
 21
1052.241
  0
LINE
  8
_0-0_LAYER001
  6
CONTINUOUS
 62
    4
 10
1506.4202
 20
1052.241
 11
1510.6170999999999
 21
1052.867
  0
LINE
  8
_0-0_LAYER001
  6
CONTINUOUS
 62
    4
 10
1510.6170999999999
 20
1052.867
 11
1514.8128999999999
 21
1053.4971
  0
LINE
  8
_0-0_LAYER001
  6
CONTINUOUS
 62
    4
 10
1514.8128999999999
 20
1053.4971
 11
1519.0077000000001
 21
1054.1304
  0
LINE
  8
_0-0_LAYER001
  6
CONTINUOUS
 62
    4
 10
1519.0077000000001
 20
1054.1304
 11
1523.2019
 21
1054.7660000000001
  0
LINE
  8
_0-0_LAYER001
  6
CONTINUOUS
 62
    4
 10
1523.2019
 20
1054.7660000000001
 11
1527.3957
 21
1055.4029
  0
LINE
  8
_0-0_LAYER001
  6
CONTINUOUS
 62
    4
 10
1527.3957
 20
1055.4029
 11
1529.828
 21
1055.7727
  0
LINE
  8
_0-0_LAYER001
  6
CONTINUOUS
 62
    4
 10
1284.7910999999999
 20
1063.6691000000001
 11
1286.8530000000001
 21
1064.4458999999999
  0
LINE
  8
_0-0_LAYER001
  6
CONTINUOUS
 62
    4
 10
1286.8530000000001
 20
1064.4458999999999
 11
1290.4205999999999
 21
1065.7925
  0
LINE
  8
_0-0_LAYER001
  6
CONTINUOUS
 62
    4
 10
1290.4205999999999
 20
1065.7925
 11
1294.0125
 21
1067.1547
  0
LINE
  8
_0-0_LAYER001
  6
CONTINUOUS
 62
    4
 10
1294.0125
 20
1067.1547
 11
1297.6329000000001
 21
1068.5385000000001
  0
LINE
  8
_0-0_LAYER001
  6
CONTINUOUS
 62
    4
 10
1297.6329000000001
 20
1068.5385000000001
 11
1301.2858000000001
 21
1069.9496999999999
  0
LINE
  8
_0-0_LAYER001
  6
CONTINUOUS
 62
    4
 10
1301.2858000000001
 20
1069.9496999999999
 11
1304.9649999999999
 21
1071.3901000000001
  0
LINE
  8
_0-0_LAYER001
  6
CONTINUOUS
 62
    4
 10
1304.9649999999999
 20
1071.3901000000001
 11
1307.1201999999998
 21
1072.2440999999999
  0
LINE
  8
_0-0_LAYER001
  6
CONTINUOUS
 62
    4
 10
1307.1201999999998
 20
1072.2440999999999
 11
1309.1437999999998
 21
1073.0508
  0
LINE
  8
_0-0_LAYER001
  6
CONTINUOUS
 62
    4
 10
1309.1437999999998
 20
1073.0508
 11
1312.4157
 21
1074.3222000000001
  0
LINE
  8
_0-0_LAYER001
  6
CONTINUOUS
 62
    4
 10
1312.4157
 20
1074.3222000000001
 11
1315.3108
 21
1075.3444
  0
LINE
  8
_0-0_LAYER001
  6
CONTINUOUS
 62
    4
 10
1315.3108
 20
1075.3444
 11
1317.7789000000002
 21
1076.0641000000001
  0
LINE
  8
_0-0_LAYER001
  6
CONTINUOUS
 62
    4
 10
1317.7789000000002
 20
1076.0641000000001
 11
1319.7707
 21
1076.4716000000001
  0
LINE
  8
_0-0_LAYER001
  6
CONTINUOUS
 62
    4
 10
1319.7707
 20
1076.4716000000001
 11
1321.55
 21
1076.6360999999999
  0
LINE
  8
_0-0_LAYER001
  6
CONTINUOUS
 62
    4
 10
1321.55
 20
1076.6360999999999
 11
1322.2294999999999
 21
1076.6273000000001
  0
LINE
  8
_0-0_LAYER001
  6
CONTINUOUS
 62
    4
 10
1322.2294999999999
 20
1076.6273000000001
 11
1322.1533999999999
 21
1076.6328000000001
  0
LINE
  8
_0-0_LAYER001
  6
CONTINUOUS
 62
    4
 10
1322.1533999999999
 20
1076.6328000000001
 11
1322.7670000000001
 21
1076.5613000000001
  0
LINE
  8
_0-0_LAYER001
  6
CONTINUOUS
 62
    4
 10
1322.7670000000001
 20
1076.5613000000001
 11
1323.3574000000001
 21
1076.4616000000001
  0
LINE
  8
_0-0_LAYER001
  6
CONTINUOUS
 62
    4
 10
1323.3574000000001
 20
1076.4616000000001
 11
1324.0248999999999
 21
1076.3164999999999
  0
LINE
  8
_0-0_LAYER001
  6
CONTINUOUS
 62
    4
 10
1324.0248999999999
 20
1076.3164999999999
 11
1324.7584000000002
 21
1076.124
  0
LINE
  8
_0-0_LAYER001
  6
CONTINUOUS
 62
    4
 10
1324.7584000000002
 20
1076.124
 11
1325.6076000000003
 21
1075.8655000000001
  0
LINE
  8
_0-0_LAYER001
  6
CONTINUOUS
 62
    4
 10
1325.6076000000003
 20
1075.8655000000001
 11
1325.8517000000002
 21
1075.7836
  0
LINE
  8
_0-0_LAYER001
  6
CONTINUOUS
 62
    4
 10
1325.8517000000002
 20
1075.7836
 11
1327.4115999999999
 21
1075.1914999999999
  0
LINE
  8
_0-0_LAYER001
  6
CONTINUOUS
 62
    4
 10
1327.4115999999999
 20
1075.1914999999999
 11
1330.3593000000001
 21
1073.8210999999999
  0
LINE
  8
_0-0_LAYER001
  6
CONTINUOUS
 62
    4
 10
1330.3593000000001
 20
1073.8210999999999
 11
1333.3204000000001
 21
1072.1605
  0
LINE
  8
_0-0_LAYER001
  6
CONTINUOUS
 62
    4
 10
1333.3204000000001
 20
1072.1605
 11
1336.4881
 21
1070.1392000000001
  0
LINE
  8
_0-0_LAYER001
  6
CONTINUOUS
 62
    4
 10
1336.4881
 20
1070.1392000000001
 11
1339.8728000000001
 21
1067.7942
  0
LINE
  8
_0-0_LAYER001
  6
CONTINUOUS
 62
    4
 10
1339.8728000000001
 20
1067.7942
 11
1343.4784999999999
 21
1065.1918000000001
  0
LINE
  8
_0-0_LAYER001
  6
CONTINUOUS
 62
    4
 10
1343.4784999999999
 20
1065.1918000000001
 11
1345.6855
 21
1063.5893000000001
  0
LINE
  8
_0-0_LAYER001
  6
CONTINUOUS
 62
    4
 10
1345.6855
 20
1063.5893000000001
 11
1349.1754000000001
 21
1061.0889999999999
  0
LINE
  8
_0-0_LAYER001
  6
CONTINUOUS
 62
    4
 10
1349.1754000000001
 20
1061.0889999999999
 11
1355.2675999999999
 21
1056.8641
  0
LINE
  8
_0-0_LAYER001
  6
CONTINUOUS
 62
    4
 10
1355.2675999999999
 20
1056.8641
 11
1361.5714
 21
1052.7239999999999
  0
LINE
  8
_0-0_LAYER001
  6
CONTINUOUS
 62
    4
 10
1361.5714
 20
1052.7239999999999
 11
1368.0921000000001
 21
1048.7352000000001
  0
LINE
  8
_0-0_LAYER001
  6
CONTINUOUS
 62
    4
 10
1368.0921000000001
 20
1048.7352000000001
 11
1374.8579999999997
 21
1044.9512
  0
LINE
  8
_0-0_LAYER001
  6
CONTINUOUS
 62
    4
 10
1374.8579999999997
 20
1044.9512
 11
1381.8010999999999
 21
1041.4766999999999
  0
LINE
  8
_0-0_LAYER001
  6
CONTINUOUS
 62
    4
 10
1381.8010999999999
 20
1041.4766999999999
 11
1386.0744999999999
 21
1039.5523000000001
  0
LINE
  8
_0-0_LAYER001
  6
CONTINUOUS
 62
    4
 10
1386.0744999999999
 20
1039.5523000000001
 11
1389.6795999999999
 21
1038.0544
  0
LINE
  8
_0-0_LAYER001
  6
CONTINUOUS
 62
    4
 10
1389.6795999999999
 20
1038.0544
 11
1395.7357
 21
1035.7924
  0
LINE
  8
_0-0_LAYER001
  6
CONTINUOUS
 62
    4
 10
1395.7357
 20
1035.7924
 11
1401.9855000000002
 21
1033.7814000000001
  0
LINE
  8
_0-0_LAYER001
  6
CONTINUOUS
 62
    4
 10
1401.9855000000002
 20
1033.7814000000001
 11
1408.3343
 21
1032.0599999999999
  0
LINE
  8
_0-0_LAYER001
  6
CONTINUOUS
 62
    4
 10
1408.3343
 20
1032.0599999999999
 11
1414.7684999999999
 21
1030.6370999999999
  0
LINE
  8
_0-0_LAYER001
  6
CONTINUOUS
 62
    4
 10
1414.7684999999999
 20
1030.6370999999999
 11
1421.1822000000002
 21
1029.5383999999999
  0
LINE
  8
_0-0_LAYER001
  6
CONTINUOUS
 62
    4
 10
1421.1822000000002
 20
1029.5383999999999
 11
1425.0409999999999
 21
1029.0296000000001
  0
LINE
  8
_0-0_LAYER001
  6
CONTINUOUS
 62
    4
 10
1425.0409999999999
 20
1029.0296000000001
 11
1428.0356000000002
 21
1028.7112
  0
LINE
  8
_0-0_LAYER001
  6
CONTINUOUS
 62
    4
 10
1428.0356000000002
 20
1028.7112
 11
1432.9281000000001
 21
1028.329
  0
LINE
  8
_0-0_LAYER001
  6
CONTINUOUS
 62
    4
 10
1432.9281000000001
 20
1028.329
 11
1437.8355999999999
 21
1028.1044999999999
  0
LINE
  8
_0-0_LAYER001
  6
CONTINUOUS
 62
    4
 10
1437.8355999999999
 20
1028.1044999999999
 11
1442.683
 21
1028.0216
  0
LINE
  8
_0-0_LAYER001
  6
CONTINUOUS
 62
    4
 10
1442.683
 20
1028.0216
 11
1447.4668999999999
 21
1028.0592999999999
  0
LINE
  8
_0-0_LAYER001
  6
CONTINUOUS
 62
    4
 10
1447.4668999999999
 20
1028.0592999999999
 11
1452.1545000000001
 21
1028.1963000000001
  0
LINE
  8
_0-0_LAYER001
  6
CONTINUOUS
 62
    4
 10
1452.1545000000001
 20
1028.1963000000001
 11
1454.9317000000001
 21
1028.3175000000001
  0
LINE
  8
_0-0_LAYER001
  6
CONTINUOUS
 62
    4
 10
1454.9317000000001
 20
1028.3175000000001
 11
1459.9639999999999
 21
1028.6029000000001
  0
LINE
  8
_0-0_LAYER001
  6
CONTINUOUS
 62
    4
 10
1459.9639999999999
 20
1028.6029000000001
 11
1468.4902000000002
 21
1029.2639999999999
  0
LINE
  8
_0-0_LAYER001
  6
CONTINUOUS
 62
    4
 10
1468.4902000000002
 20
1029.2639999999999
 11
1476.9751000000001
 21
1030.1143
  0
LINE
  8
_0-0_LAYER001
  6
CONTINUOUS
 62
    4
 10
1476.9751000000001
 20
1030.1143
 11
1485.3663999999999
 21
1031.1095
  0
LINE
  8
_0-0_LAYER001
  6
CONTINUOUS
 62
    4
 10
1485.3663999999999
 20
1031.1095
 11
1493.6671000000001
 21
1032.2101
  0
LINE
  8
_0-0_LAYER001
  6
CONTINUOUS
 62
    4
 10
1493.6671000000001
 20
1032.2101
 11
1501.8748000000001
 21
1033.3774000000001
  0
LINE
  8
_0-0_LAYER001
  6
CONTINUOUS
 62
    4
 10
1501.8748000000001
 20
1033.3774000000001
 11
1506.6120000000001
 21
1034.0727999999999
  0
LINE
  8
_0-0_LAYER001
  6
CONTINUOUS
 62
    4
 10
1506.6120000000001
 20
1034.0727999999999
 11
1509.0673000000002
 21
1034.4367
  0
LINE
  8
_0-0_LAYER001
  6
CONTINUOUS
 62
    4
 10
1509.0673000000002
 20
1034.4367
 11
1513.2813999999998
 21
1035.0653
  0
LINE
  8
_0-0_LAYER001
  6
CONTINUOUS
 62
    4
 10
1513.2813999999998
 20
1035.0653
 11
1517.4929999999999
 21
1035.6976999999999
  0
LINE
  8
_0-0_LAYER001
  6
CONTINUOUS
 62
    4
 10
1517.4929999999999
 20
1035.6976999999999
 11
1521.6997000000001
 21
1036.3327999999999
  0
LINE
  8
_0-0_LAYER001
  6
CONTINUOUS
 62
    4
 10
1521.6997000000001
 20
1036.3327999999999
 11
1525.9018999999998
 21
1036.9695999999999
  0
LINE
  8
_0-0_LAYER001
  6
CONTINUOUS
 62
    4
 10
1525.9018999999998
 20
1036.9695999999999
 11
1530.0998
 21
1037.6071999999999
  0
LINE
  8
_0-0_LAYER001
  6
CONTINUOUS
 62
    4
 10
1530.0998
 20
1037.6071999999999
 11
1531.7175000000002
 21
1037.8531
  0
LINE
  8
_0-0_LAYER001
  6
CONTINUOUS
 62
    4
 10
1279.2621999999999
 20
1080.8191999999999
 11
1279.6882000000001
 21
1080.9822999999999
  0
ARC
  8
_0-0_LAYER001
  6
CONTINUOUS
 62
    4
 10
1280.3349000000001
 20
1078.0174999999999
 40
3
 50
110.94902000000002
 51
178.70000000000002
  0
LINE
  8
_0-0_LAYER001
  6
CONTINUOUS
 62
    4
 10
1277.2263
 20
1062.2465
 11
1277.2263
 21
1077.9690000000001
  0
LINE
  8
_0-0_LAYER001
  6
CONTINUOUS
 62
    4
 10
1278.5803000000001
 20
1061.3112000000001
 11
1284.7551000000001
 21
1063.6484
  0
ARC
  8
_0-0_LAYER001
  6
CONTINUOUS
 62
    4
 10
1278.2263
 20
1062.2465
 40
1
 50
180
 51
290.73165999999998
  0
LINE
  8
_0-0_LAYER001
  6
CONTINUOUS
 62
    4
 10
1542.2262999999998
 20
1040.9242999999999
 11
1542.2262999999998
 21
1058.1215999999999
  0
LINE
  8
_0-0_LAYER001
  6
CONTINUOUS
 62
    4
 10
1529.9529000000002
 20
1055.8081
 11
1574.4072000000001
 21
1065.4559999999999
  0
LINE
  8
_0-0_LAYER001
  6
CONTINUOUS
 62
    4
 10
1536.6981000000001
 20
1035.9744000000001
 11
1575.3699000000001
 21
1045.0243
  0
LINE
  8
_0-0_LAYER001
  6
CONTINUOUS
 62
    4
 10
1575.3699000000001
 20
1045.9808
 11
1575.3699000000001
 21
1045.0243
  0
ARC
  8
_0-0_LAYER001
  6
CONTINUOUS
 62
    4
 10
1576.3699000000001
 20
1045.9808
 40
1
 50
102.72435
 51
180
  0
LINE
  8
_0-0_LAYER001
  6
CONTINUOUS
 62
    4
 10
1581.1869000000002
 20
1048.0936999999999
 11
1576.1496000000002
 21
1046.9563000000001
  0
ARC
  8
_0-0_LAYER001
  6
CONTINUOUS
 62
    4
 10
1581.4072000000001
 20
1047.1183000000001
 40
1
 50
0
 51
102.72435
  0
LINE
  8
_0-0_LAYER001
  6
CONTINUOUS
 62
    4
 10
1581.6192000000001
 20
1048.6022
 11
1531.4852999999998
 21
1037.7216000000001
  0
ARC
  8
_0-0_LAYER001
  6
CONTINUOUS
 62
    4
 10
1581.4072000000001
 20
1049.5794000000001
 40
1
 50
282.24497000000002
 51
0
  0
LINE
  8
_0-0_LAYER001
  6
CONTINUOUS
 62
    4
 10
1581.625
 20
1027.8614
 11
1532.0410000000002
 21
1016.7936
  0
LINE
  8
_0-0_LAYER001
  6
CONTINUOUS
 62
    4
 10
1582.4072000000001
 20
1028.8373999999999
 11
1582.4072000000001
 21
1047.1183000000001
  0
ARC
  8
_0-0_LAYER001
  6
CONTINUOUS
 62
    4
 10
1581.4072000000001
 20
1028.8373999999999
 40
1
 50
282.58296000000001
 51
0.0000000000000254
  0
LINE
  8
_0-0_LAYER001
  6
CONTINUOUS
 62
    4
 10
1574.4072000000001
 20
1066.913
 11
1574.4072000000001
 21
1065.4559999999999
  0
ARC
  8
_0-0_LAYER001
  6
CONTINUOUS
 62
    4
 10
1575.4072000000001
 20
1066.913
 40
1
 50
101.73308
 51
180
  0
LINE
  8
_0-0_LAYER001
  6
CONTINUOUS
 62
    4
 10
1581.2037999999998
 20
1069.1383000000001
 11
1575.2037999999998
 21
1067.8921
  0
LINE
  8
_0-0_LAYER001
  6
CONTINUOUS
 62
    4
 10
1582.4072000000001
 20
1068.1592000000001
 11
1582.4072000000001
 21
1049.5794000000001
  0
ARC
  8
_0-0_LAYER001
  6
CONTINUOUS
 62
    4
 10
1581.4072000000001
 20
1068.1592000000001
 40
1
 50
0
 51
101.73308
  0
LINE
  8
_0-0_LAYER001
  6
DASHED1
 62
    2
 10
1381.6179999999999
 20
1040.6774
 11
1397.6179999999999
 21
1040.6774
  0
LINE
  8
_0-0_LAYER001
  6
DASHED1
 62
    2
 10
1397.6179999999999
 20
1040.6774
 11
1397.6179999999999
 21
1037.6774
  0
LINE
  8
_0-0_LAYER001
  6
DASHED1
 62
    2
 10
1381.6179999999999
 20
1040.6774
 11
1381.6179999999999
 21
1037.6774
  0
LINE
  8
_0-0_LAYER001
  6
DASHED1
 62
    2
 10
1381.6179999999999
 20
1037.6774
 11
1397.6179999999999
 21
1037.6774
  0
LINE
  8
_0-0_LAYER001
  6
DASHED1
 62
    2
 10
1392.6179999999999
 20
982.7813000000001
 11
1389.5679
 21
968.27240000000006
  0
LINE
  8
_0-0_LAYER001
  6
DASHED1
 62
    2
 10
1392.6179999999999
 20
1037.6774
 11
1392.6179999999999
 21
982.7813000000001
  0
LINE
  8
_0-0_LAYER001
  6
DASHED1
 62
    2
 10
1389.5679
 20
968.27240000000006
 11
1386.6179999999999
 21
982.5299
  0
LINE
  8
_0-0_LAYER001
  6
DASHED1
 62
    2
 10
1386.6179999999999
 20
1037.6774
 11
1386.6179999999999
 21
982.5299
  0
LINE
  8
_0-0_LAYER001
  6
DASHED1
 62
    2
 10
1646.6242999999999
 20
1037.9460999999999
 11
1662.6242999999999
 21
1037.9460999999999
  0
LINE
  8
_0-0_LAYER001
  6
DASHED1
 62
    2
 10
1662.6242999999999
 20
1037.9460999999999
 11
1662.6242999999999
 21
1034.9460999999999
  0
LINE
  8
_0-0_LAYER001
  6
DASHED1
 62
    2
 10
1646.6242999999999
 20
1037.9460999999999
 11
1646.6242999999999
 21
1034.9460999999999
  0
LINE
  8
_0-0_LAYER001
  6
DASHED1
 62
    2
 10
1646.6242999999999
 20
1034.9460999999999
 11
1662.6242999999999
 21
1034.9460999999999
  0
LINE
  8
_0-0_LAYER001
  6
DASHED1
 62
    2
 10
1657.6242999999999
 20
980.04999999999995
 11
1654.5740999999998
 21
965.54109999999991
  0
LINE
  8
_0-0_LAYER001
  6
DASHED1
 62
    2
 10
1657.6242999999999
 20
1034.9460999999999
 11
1657.6242999999999
 21
980.04999999999995
  0
LINE
  8
_0-0_LAYER001
  6
DASHED1
 62
    2
 10
1654.5740999999998
 20
965.54109999999991
 11
1651.6242999999999
 21
979.79860000000008
  0
LINE
  8
_0-0_LAYER001
  6
DASHED1
 62
    2
 10
1651.6242999999999
 20
1034.9460999999999
 11
1651.6242999999999
 21
979.79860000000008
  0
LINE
  8
_0-0_LAYER001
  6
CONTINUOUS
 62
    4
 10
1277.0494000000001
 20
1038.0572
 11
1277.0494000000001
 21
1055.2546
  0
LINE
  8
_0-0_LAYER001
  6
CONTINUOUS
 62
    4
 10
1137.3227999999999
 20
994.2177999999999
 11
1128.7873999999999
 21
1008.7511999999999
  0
LINE
  8
_0-0_LAYER001
  6
CONTINUOUS
 62
    4
 10
1145.4907000000001
 20
993.56750000000011
 11
1153.7969000000001
 21
1003.633
  0
ARC
  8
_0-0_LAYER001
  6
CONTINUOUS
 62
    4
 10
1141.6342999999999
 20
996.74990000000003
 40
5
 50
210.42578
 51
320.47001
  0
LINE
  8
_0-0_LAYER001
  6
CONTINUOUS
 62
    4
 10
1221.4363000000001
 20
993.09770000000003
 11
1214.1108999999999
 21
1004.4037000000001
  0
LINE
  8
_0-0_LAYER001
  6
CONTINUOUS
 62
    4
 10
1229.9458999999999
 20
993.28760000000011
 11
1238.8842999999999
 21
1008.5333000000001
  0
ARC
  8
_0-0_LAYER001
  6
CONTINUOUS
 62
    4
 10
1225.6324999999999
 20
995.81649999999991
 40
5
 50
212.93986000000001
 51
329.61716000000001
  0
LINE
  8
_0-0_LAYER001
  6
CONTINUOUS
 62
    4
 10
1269.2279000000001
 20
1032.8452
 11
1271.6559999999999
 21
1033.2491
  0
LINE
  8
_0-0_LAYER001
  6
CONTINUOUS
 62
    4
 10
1265.0389
 20
1032.1489999999999
 11
1269.2279000000001
 21
1032.8452
  0
LINE
  8
_0-0_LAYER001
  6
CONTINUOUS
 62
    4
 10
1260.8451
 20
1031.4534000000001
 11
1265.0389
 21
1032.1489999999999
  0
LINE
  8
_0-0_LAYER001
  6
CONTINUOUS
 62
    4
 10
1256.6463000000001
 20
1030.7593999999999
 11
1260.8451
 21
1031.4534000000001
  0
LINE
  8
_0-0_LAYER001
  6
CONTINUOUS
 62
    4
 10
1252.4422
 20
1030.068
 11
1256.6463000000001
 21
1030.7593999999999
  0
LINE
  8
_0-0_LAYER001
  6
CONTINUOUS
 62
    4
 10
1248.2354
 20
1029.3803
 11
1252.4422
 21
1030.068
  0
LINE
  8
_0-0_LAYER001
  6
CONTINUOUS
 62
    4
 10
1245.7831000000001
 20
1028.9818
 11
1248.2354
 21
1029.3803
  0
LINE
  8
_0-0_LAYER001
  6
CONTINUOUS
 62
    4
 10
1241.0503000000001
 20
1028.2193
 11
1245.7831000000001
 21
1028.9818
  0
LINE
  8
_0-0_LAYER001
  6
CONTINUOUS
 62
    4
 10
1232.8459
 20
1026.9355
 11
1241.0503000000001
 21
1028.2193
  0
LINE
  8
_0-0_LAYER001
  6
CONTINUOUS
 62
    4
 10
1224.5383999999999
 20
1025.7156
 11
1232.8459
 21
1026.9355
  0
LINE
  8
_0-0_LAYER001
  6
CONTINUOUS
 62
    4
 10
1216.1302000000001
 20
1024.5993000000001
 11
1224.5383999999999
 21
1025.7156
  0
LINE
  8
_0-0_LAYER001
  6
CONTINUOUS
 62
    4
 10
1207.6176
 20
1023.6259
 11
1216.1302000000001
 21
1024.5993000000001
  0
LINE
  8
_0-0_LAYER001
  6
CONTINUOUS
 62
    4
 10
1199.0583999999999
 20
1022.8418999999999
 11
1207.6176
 21
1023.6259
  0
LINE
  8
_0-0_LAYER001
  6
CONTINUOUS
 62
    4
 10
1193.9969000000001
 20
1022.4838999999999
 11
1199.0583999999999
 21
1022.8418999999999
  0
LINE
  8
_0-0_LAYER001
  6
CONTINUOUS
 62
    4
 10
1191.1943000000001
 20
1022.3223
 11
1193.9969000000001
 21
1022.4838999999999
  0
LINE
  8
_0-0_LAYER001
  6
CONTINUOUS
 62
    4
 10
1186.4733000000001
 20
1022.1183000000001
 11
1191.1943000000001
 21
1022.3223
  0
LINE
  8
_0-0_LAYER001
  6
CONTINUOUS
 62
    4
 10
1181.6441
 20
1022.0128999999999
 11
1186.4733000000001
 21
1022.1183000000001
  0
LINE
  8
_0-0_LAYER001
  6
CONTINUOUS
 62
    4
 10
1176.7424000000001
 20
1022.0282
 11
1181.6441
 21
1022.0128999999999
  0
LINE
  8
_0-0_LAYER001
  6
CONTINUOUS
 62
    4
 10
1171.7714000000001
 20
1022.1860999999999
 11
1176.7424000000001
 21
1022.0282
  0
LINE
  8
_0-0_LAYER001
  6
CONTINUOUS
 62
    4
 10
1166.8140000000001
 20
1022.5038999999999
 11
1171.7714000000001
 21
1022.1860999999999
  0
LINE
  8
_0-0_LAYER001
  6
CONTINUOUS
 62
    4
 10
1163.7624000000001
 20
1022.7853
 11
1166.8140000000001
 21
1022.5038999999999
  0
LINE
  8
_0-0_LAYER001
  6
CONTINUOUS
 62
    4
 10
1159.8335
 20
1023.2474999999999
 11
1163.7624000000001
 21
1022.7853
  0
LINE
  8
_0-0_LAYER001
  6
CONTINUOUS
 62
    4
 10
1153.3196
 20
1024.2701
 11
1159.8335
 21
1023.2474999999999
  0
LINE
  8
_0-0_LAYER001
  6
CONTINUOUS
 62
    4
 10
1146.7728999999999
 20
1025.6222
 11
1153.3196
 21
1024.2701
  0
LINE
  8
_0-0_LAYER001
  6
CONTINUOUS
 62
    4
 10
1140.3099999999999
 20
1027.2781
 11
1146.7728999999999
 21
1025.6222
  0
LINE
  8
_0-0_LAYER001
  6
CONTINUOUS
 62
    4
 10
1133.9440999999999
 20
1029.2288000000001
 11
1140.3099999999999
 21
1027.2781
  0
LINE
  8
_0-0_LAYER001
  6
CONTINUOUS
 62
    4
 10
1127.7792999999999
 20
1031.4338
 11
1133.9440999999999
 21
1029.2288000000001
  0
LINE
  8
_0-0_LAYER001
  6
CONTINUOUS
 62
    4
 10
1124.0926999999999
 20
1032.9055000000001
 11
1127.7792999999999
 21
1031.4338
  0
LINE
  8
_0-0_LAYER001
  6
CONTINUOUS
 62
    4
 10
1119.7284
 20
1034.798
 11
1124.0926999999999
 21
1032.9055000000001
  0
LINE
  8
_0-0_LAYER001
  6
CONTINUOUS
 62
    4
 10
1112.6593
 20
1038.213
 11
1119.7284
 21
1034.798
  0
LINE
  8
_0-0_LAYER001
  6
CONTINUOUS
 62
    4
 10
1105.7664
 20
1041.9426000000001
 11
1112.6593
 21
1038.213
  0
LINE
  8
_0-0_LAYER001
  6
CONTINUOUS
 62
    4
 10
1099.1294
 20
1045.8762999999999
 11
1105.7664
 21
1041.9426000000001
  0
LINE
  8
_0-0_LAYER001
  6
CONTINUOUS
 62
    4
 10
1092.7201
 20
1049.9588000000001
 11
1099.1294
 21
1045.8762999999999
  0
LINE
  8
_0-0_LAYER001
  6
CONTINUOUS
 62
    4
 10
1086.5359000000001
 20
1054.1208999999999
 11
1092.7201
 21
1049.9588000000001
  0
LINE
  8
_0-0_LAYER001
  6
CONTINUOUS
 62
    4
 10
1082.9936
 20
1056.5845999999999
 11
1086.5359000000001
 21
1054.1208999999999
  0
LINE
  8
_0-0_LAYER001
  6
CONTINUOUS
 62
    4
 10
1080.7616
 20
1058.1581000000001
 11
1082.9936
 21
1056.5845999999999
  0
LINE
  8
_0-0_LAYER001
  6
CONTINUOUS
 62
    4
 10
1077.1379999999999
 20
1060.6973
 11
1080.7616
 21
1058.1581000000001
  0
LINE
  8
_0-0_LAYER001
  6
CONTINUOUS
 62
    4
 10
1073.7683
 20
1062.9628
 11
1077.1379999999999
 21
1060.6973
  0
LINE
  8
_0-0_LAYER001
  6
CONTINUOUS
 62
    4
 10
1070.6532999999999
 20
1064.8897999999999
 11
1073.7683
 21
1062.9628
  0
LINE
  8
_0-0_LAYER001
  6
CONTINUOUS
 62
    4
 10
1067.7861
 20
1066.4456
 11
1070.6532999999999
 21
1064.8897999999999
  0
LINE
  8
_0-0_LAYER001
  6
CONTINUOUS
 62
    4
 10
1064.9549999999999
 20
1067.7139999999999
 11
1067.7861
 21
1066.4456
  0
LINE
  8
_0-0_LAYER001
  6
CONTINUOUS
 62
    4
 10
1063.4918
 20
1068.2461000000001
 11
1064.9549999999999
 21
1067.7139999999999
  0
LINE
  8
_0-0_LAYER001
  6
CONTINUOUS
 62
    4
 10
1063.3107
 20
1068.3041000000001
 11
1063.4918
 21
1068.2461000000001
  0
LINE
  8
_0-0_LAYER001
  6
CONTINUOUS
 62
    4
 10
1062.5224000000001
 20
1068.5320999999999
 11
1063.3107
 21
1068.3041000000001
  0
LINE
  8
_0-0_LAYER001
  6
CONTINUOUS
 62
    4
 10
1061.8652999999999
 20
1068.6948
 11
1062.5224000000001
 21
1068.5320999999999
  0
LINE
  8
_0-0_LAYER001
  6
CONTINUOUS
 62
    4
 10
1061.2835
 20
1068.8126999999999
 11
1061.8652999999999
 21
1068.6948
  0
LINE
  8
_0-0_LAYER001
  6
CONTINUOUS
 62
    4
 10
1061.2434000000001
 20
1068.8189
 11
1061.2835
 21
1068.8126999999999
  0
LINE
  8
_0-0_LAYER001
  6
CONTINUOUS
 62
    4
 10
1265.2173
 20
1013.6577
 11
1266.8314
 21
1013.9262000000001
  0
LINE
  8
_0-0_LAYER001
  6
CONTINUOUS
 62
    4
 10
1261.0287000000001
 20
1012.9616000000001
 11
1265.2173
 21
1013.6577
  0
LINE
  8
_0-0_LAYER001
  6
CONTINUOUS
 62
    4
 10
1256.8358000000001
 20
1012.2661000000001
 11
1261.0287000000001
 21
1012.9616000000001
  0
LINE
  8
_0-0_LAYER001
  6
CONTINUOUS
 62
    4
 10
1252.6383000000001
 20
1011.5724
 11
1256.8358000000001
 21
1012.2661000000001
  0
LINE
  8
_0-0_LAYER001
  6
CONTINUOUS
 62
    4
 10
1248.4359999999999
 20
1010.8812
 11
1252.6383000000001
 21
1011.5724
  0
LINE
  8
_0-0_LAYER001
  6
CONTINUOUS
 62
    4
 10
1244.2311
 20
1010.1939
 11
1248.4359999999999
 21
1010.8812
  0
LINE
  8
_0-0_LAYER001
  6
CONTINUOUS
 62
    4
 10
1241.7810999999999
 20
1009.7956999999999
 11
1244.2311
 21
1010.1939
  0
LINE
  8
_0-0_LAYER001
  6
CONTINUOUS
 62
    4
 10
1237.0541000000001
 20
1009.0342000000001
 11
1241.7810999999999
 21
1009.7956999999999
  0
LINE
  8
_0-0_LAYER001
  6
CONTINUOUS
 62
    4
 10
1228.8634
 20
1007.7525000000001
 11
1237.0541000000001
 21
1009.0342000000001
  0
LINE
  8
_0-0_LAYER001
  6
CONTINUOUS
 62
    4
 10
1220.5789
 20
1006.5360000000001
 11
1228.8634
 21
1007.7525000000001
  0
LINE
  8
_0-0_LAYER001
  6
CONTINUOUS
 62
    4
 10
1212.2022999999999
 20
1005.4238
 11
1220.5789
 21
1006.5360000000001
  0
LINE
  8
_0-0_LAYER001
  6
CONTINUOUS
 62
    4
 10
1203.7302
 20
1004.4550999999999
 11
1212.2022999999999
 21
1005.4238
  0
LINE
  8
_0-0_LAYER001
  6
CONTINUOUS
 62
    4
 10
1195.2140999999999
 20
1003.675
 11
1203.7302
 21
1004.4550999999999
  0
LINE
  8
_0-0_LAYER001
  6
CONTINUOUS
 62
    4
 10
1190.1862000000001
 20
1003.3194000000001
 11
1195.2140999999999
 21
1003.675
  0
LINE
  8
_0-0_LAYER001
  6
CONTINUOUS
 62
    4
 10
1187.4110000000001
 20
1003.1594
 11
1190.1862000000001
 21
1003.3194000000001
  0
LINE
  8
_0-0_LAYER001
  6
CONTINUOUS
 62
    4
 10
1182.7257
 20
1002.9570000000001
 11
1187.4110000000001
 21
1003.1594
  0
LINE
  8
_0-0_LAYER001
  6
CONTINUOUS
 62
    4
 10
1177.9428
 20
1002.8525
 11
1182.7257
 21
1002.9570000000001
  0
LINE
  8
_0-0_LAYER001
  6
CONTINUOUS
 62
    4
 10
1173.0947000000001
 20
1002.8677
 11
1177.9428
 21
1002.8525
  0
LINE
  8
_0-0_LAYER001
  6
CONTINUOUS
 62
    4
 10
1168.1846
 20
1003.0237
 11
1173.0947000000001
 21
1002.8677
  0
LINE
  8
_0-0_LAYER001
  6
CONTINUOUS
 62
    4
 10
1163.2873
 20
1003.3376000000001
 11
1168.1846
 21
1003.0237
  0
LINE
  8
_0-0_LAYER001
  6
CONTINUOUS
 62
    4
 10
1160.2885000000001
 20
1003.6141
 11
1163.2873
 21
1003.3376000000001
  0
LINE
  8
_0-0_LAYER001
  6
CONTINUOUS
 62
    4
 10
1156.423
 20
1004.0689
 11
1160.2885000000001
 21
1003.6141
  0
LINE
  8
_0-0_LAYER001
  6
CONTINUOUS
 62
    4
 10
1149.9945
 20
1005.0780999999999
 11
1156.423
 21
1004.0689
  0
LINE
  8
_0-0_LAYER001
  6
CONTINUOUS
 62
    4
 10
1143.5410999999999
 20
1006.4109000000001
 11
1149.9945
 21
1005.0780999999999
  0
LINE
  8
_0-0_LAYER001
  6
CONTINUOUS
 62
    4
 10
1137.1688999999999
 20
1008.0436
 11
1143.5410999999999
 21
1006.4109000000001
  0
LINE
  8
_0-0_LAYER001
  6
CONTINUOUS
 62
    4
 10
1130.8915999999999
 20
1009.9671000000001
 11
1137.1688999999999
 21
1008.0436
  0
LINE
  8
_0-0_LAYER001
  6
CONTINUOUS
 62
    4
 10
1124.8045
 20
1012.1442999999999
 11
1130.8915999999999
 21
1009.9671000000001
  0
LINE
  8
_0-0_LAYER001
  6
CONTINUOUS
 62
    4
 10
1121.1787999999999
 20
1013.5916999999999
 11
1124.8045
 21
1012.1442999999999
  0
LINE
  8
_0-0_LAYER001
  6
CONTINUOUS
 62
    4
 10
1116.8789999999999
 20
1015.4563000000001
 11
1121.1787999999999
 21
1013.5916999999999
  0
LINE
  8
_0-0_LAYER001
  6
CONTINUOUS
 62
    4
 10
1109.8880999999999
 20
1018.8335
 11
1116.8789999999999
 21
1015.4563000000001
  0
LINE
  8
_0-0_LAYER001
  6
CONTINUOUS
 62
    4
 10
1103.0699999999999
 20
1022.5227
 11
1109.8880999999999
 21
1018.8335
  0
LINE
  8
_0-0_LAYER001
  6
CONTINUOUS
 62
    4
 10
1096.4942000000001
 20
1026.4200000000001
 11
1103.0699999999999
 21
1022.5227
  0
LINE
  8
_0-0_LAYER001
  6
CONTINUOUS
 62
    4
 10
1090.1333
 20
1030.4717000000001
 11
1096.4942000000001
 21
1026.4200000000001
  0
LINE
  8
_0-0_LAYER001
  6
CONTINUOUS
 62
    4
 10
1083.9827
 20
1034.6111000000001
 11
1090.1333
 21
1030.4717000000001
  0
LINE
  8
_0-0_LAYER001
  6
CONTINUOUS
 62
    4
 10
1080.4582
 20
1037.0625
 11
1083.9827
 21
1034.6111000000001
  0
LINE
  8
_0-0_LAYER001
  6
CONTINUOUS
 62
    4
 10
1078.229
 20
1038.6339
 11
1080.4582
 21
1037.0625
  0
LINE
  8
_0-0_LAYER001
  6
CONTINUOUS
 62
    4
 10
1074.5872999999999
 20
1041.1858
 11
1078.229
 21
1038.6339
  0
LINE
  8
_0-0_LAYER001
  6
CONTINUOUS
 62
    4
 10
1071.1702
 20
1043.4833000000001
 11
1074.5872999999999
 21
1041.1858
  0
LINE
  8
_0-0_LAYER001
  6
CONTINUOUS
 62
    4
 10
1067.9746
 20
1045.4602
 11
1071.1702
 21
1043.4833000000001
  0
LINE
  8
_0-0_LAYER001
  6
CONTINUOUS
 62
    4
 10
1064.9906000000001
 20
1047.0793000000001
 11
1067.9746
 21
1045.4602
  0
LINE
  8
_0-0_LAYER001
  6
CONTINUOUS
 62
    4
 10
1062.0241000000001
 20
1048.4084
 11
1064.9906000000001
 21
1047.0793000000001
  0
LINE
  8
_0-0_LAYER001
  6
CONTINUOUS
 62
    4
 10
1061.2741000000001
 20
1048.6812
 11
1062.0241000000001
 21
1048.4084
  0
LINE
  8
_0-0_LAYER001
  6
CONTINUOUS
 62
    4
 10
1061.6071999999999
 20
1068.7243000000001
 11
1061.4311
 21
1048.5509
  0
LINE
  8
_0-0_LAYER001
  6
CONTINUOUS
 62
    4
 10
1261.9328
 20
1003.2365
 11
1259.6874
 21
1011.8099
  0
ARC
  8
_0-0_LAYER001
  6
CONTINUOUS
 62
    4
 10
1264.8349000000001
 20
1003.9965999999999
 40
3
 50
194.67639000000003
 51
270.00000000000006
  0
LINE
  8
_0-0_LAYER001
  6
CONTINUOUS
 62
    4
 10
1268.2773999999999
 20
1000.9922999999999
 11
1264.8596
 21
1000.9922999999999
  0
LINE
  8
_0-0_LAYER001
  6
CONTINUOUS
 62
    4
 10
1271.2366
 20
1003.4991
 11
1273.1705999999999
 21
1015.1032
  0
ARC
  8
_0-0_LAYER001
  6
CONTINUOUS
 62
    4
 10
1268.2773999999999
 20
1003.9922999999999
 40
3
 50
270
 51
350.53766999999999
  0
LINE
  8
_0-0_LAYER001
  6
CONTINUOUS
 62
    4
 10
1014.511
 20
1078.1144999999999
 11
1015.3249000000001
 21
1078.4211
  0
LINE
  8
_0-0_LAYER001
  6
CONTINUOUS
 62
    4
 10
1015.3249000000001
 20
1078.4211
 11
1018.8742
 21
1079.7607
  0
LINE
  8
_0-0_LAYER001
  6
CONTINUOUS
 62
    4
 10
1018.8742
 20
1079.7607
 11
1022.4308000000001
 21
1081.1096
  0
LINE
  8
_0-0_LAYER001
  6
CONTINUOUS
 62
    4
 10
1022.4308000000001
 20
1081.1096
 11
1025.9994999999999
 21
1082.4736
  0
LINE
  8
_0-0_LAYER001
  6
CONTINUOUS
 62
    4
 10
1025.9994999999999
 20
1082.4736
 11
1029.5848000000001
 21
1083.8587
  0
LINE
  8
_0-0_LAYER001
  6
CONTINUOUS
 62
    4
 10
1029.5848000000001
 20
1083.8587
 11
1033.1914999999999
 21
1085.2707
  0
LINE
  8
_0-0_LAYER001
  6
CONTINUOUS
 62
    4
 10
1033.1914999999999
 20
1085.2707
 11
1035.2950000000001
 21
1086.1043
  0
LINE
  8
_0-0_LAYER001
  6
CONTINUOUS
 62
    4
 10
1035.2950000000001
 20
1086.1043
 11
1037.3743999999999
 21
1086.9331999999999
  0
LINE
  8
_0-0_LAYER001
  6
CONTINUOUS
 62
    4
 10
1037.3743999999999
 20
1086.9331999999999
 11
1040.9809
 21
1088.3345999999999
  0
LINE
  8
_0-0_LAYER001
  6
CONTINUOUS
 62
    4
 10
1040.9809
 20
1088.3345999999999
 11
1044.6137000000001
 21
1089.6172999999999
  0
LINE
  8
_0-0_LAYER001
  6
CONTINUOUS
 62
    4
 10
1044.6137000000001
 20
1089.6172999999999
 11
1048.2716
 21
1090.684
  0
LINE
  8
_0-0_LAYER001
  6
CONTINUOUS
 62
    4
 10
1048.2716
 20
1090.684
 11
1051.9537
 21
1091.4372000000001
  0
LINE
  8
_0-0_LAYER001
  6
CONTINUOUS
 62
    4
 10
1051.9537
 20
1091.4372000000001
 11
1055.6590000000001
 21
1091.7797
  0
LINE
  8
_0-0_LAYER001
  6
CONTINUOUS
 62
    4
 10
1055.6590000000001
 20
1091.7797
 11
1057.8182999999999
 21
1091.7518
  0
LINE
  8
_0-0_LAYER001
  6
CONTINUOUS
 62
    4
 10
1057.8182999999999
 20
1091.7518
 11
1058.6675
 21
1091.6904
  0
LINE
  8
_0-0_LAYER001
  6
CONTINUOUS
 62
    4
 10
1058.6675
 20
1091.6904
 11
1060.1318000000001
 21
1091.5199
  0
LINE
  8
_0-0_LAYER001
  6
CONTINUOUS
 62
    4
 10
1060.1318000000001
 20
1091.5199
 11
1061.5929000000001
 21
1091.2731000000001
  0
LINE
  8
_0-0_LAYER001
  6
CONTINUOUS
 62
    4
 10
1061.5929000000001
 20
1091.2731000000001
 11
1063.0465999999999
 21
1090.9571000000001
  0
LINE
  8
_0-0_LAYER001
  6
CONTINUOUS
 62
    4
 10
1063.0465999999999
 20
1090.9571000000001
 11
1064.4887000000001
 21
1090.5786000000001
  0
LINE
  8
_0-0_LAYER001
  6
CONTINUOUS
 62
    4
 10
1064.4887000000001
 20
1090.5786000000001
 11
1065.9150999999999
 21
1090.1445000000001
  0
LINE
  8
_0-0_LAYER001
  6
CONTINUOUS
 62
    4
 10
1065.9150999999999
 20
1090.1445000000001
 11
1066.7336
 21
1089.8698999999999
  0
LINE
  8
_0-0_LAYER001
  6
CONTINUOUS
 62
    4
 10
1066.7336
 20
1089.8698999999999
 11
1069.2319
 21
1088.9215999999999
  0
LINE
  8
_0-0_LAYER001
  6
CONTINUOUS
 62
    4
 10
1069.2319
 20
1088.9215999999999
 11
1073.3907999999999
 21
1086.9881
  0
LINE
  8
_0-0_LAYER001
  6
CONTINUOUS
 62
    4
 10
1073.3907999999999
 20
1086.9881
 11
1077.3946000000001
 21
1084.7427
  0
LINE
  8
_0-0_LAYER001
  6
CONTINUOUS
 62
    4
 10
1077.3946000000001
 20
1084.7427
 11
1081.2814000000001
 21
1082.2624000000001
  0
LINE
  8
_0-0_LAYER001
  6
CONTINUOUS
 62
    4
 10
1081.2814000000001
 20
1082.2624000000001
 11
1085.0894000000001
 21
1079.6242999999999
  0
LINE
  8
_0-0_LAYER001
  6
CONTINUOUS
 62
    4
 10
1085.0894000000001
 20
1079.6242999999999
 11
1088.8567
 21
1076.9051999999999
  0
LINE
  8
_0-0_LAYER001
  6
CONTINUOUS
 62
    4
 10
1088.8567
 20
1076.9051999999999
 11
1091.038
 21
1075.3214
  0
LINE
  8
_0-0_LAYER001
  6
CONTINUOUS
 62
    4
 10
1091.038
 20
1075.3214
 11
1094.3696
 21
1072.9346
  0
LINE
  8
_0-0_LAYER001
  6
CONTINUOUS
 62
    4
 10
1094.3696
 20
1072.9346
 11
1100.1618000000001
 21
1068.9176
  0
LINE
  8
_0-0_LAYER001
  6
CONTINUOUS
 62
    4
 10
1100.1618000000001
 20
1068.9176
 11
1106.0340000000001
 21
1065.0609999999999
  0
LINE
  8
_0-0_LAYER001
  6
CONTINUOUS
 62
    4
 10
1106.0340000000001
 20
1065.0609999999999
 11
1112.0082
 21
1061.4065000000001
  0
LINE
  8
_0-0_LAYER001
  6
CONTINUOUS
 62
    4
 10
1112.0082
 20
1061.4065000000001
 11
1118.1063999999999
 21
1057.9960000000001
  0
LINE
  8
_0-0_LAYER001
  6
CONTINUOUS
 62
    4
 10
1118.1063999999999
 20
1057.9960000000001
 11
1124.3506
 21
1054.8712
  0
LINE
  8
_0-0_LAYER001
  6
CONTINUOUS
 62
    4
 10
1124.3506
 20
1054.8712
 11
1128.0479
 21
1053.2062000000001
  0
LINE
  8
_0-0_LAYER001
  6
CONTINUOUS
 62
    4
 10
1128.0479
 20
1053.2062000000001
 11
1131.1071999999999
 21
1051.9350999999999
  0
LINE
  8
_0-0_LAYER001
  6
CONTINUOUS
 62
    4
 10
1131.1071999999999
 20
1051.9350999999999
 11
1136.4676999999999
 21
1049.9329
  0
LINE
  8
_0-0_LAYER001
  6
CONTINUOUS
 62
    4
 10
1136.4676999999999
 20
1049.9329
 11
1141.9233999999999
 21
1048.1775
  0
LINE
  8
_0-0_LAYER001
  6
CONTINUOUS
 62
    4
 10
1141.9233999999999
 20
1048.1775
 11
1147.4584
 21
1046.6767
  0
LINE
  8
_0-0_LAYER001
  6
CONTINUOUS
 62
    4
 10
1147.4584
 20
1046.6767
 11
1153.0567000000001
 21
1045.4386999999999
  0
LINE
  8
_0-0_LAYER001
  6
CONTINUOUS
 62
    4
 10
1153.0567000000001
 20
1045.4386999999999
 11
1158.7023999999999
 21
1044.4715000000001
  0
LINE
  8
_0-0_LAYER001
  6
CONTINUOUS
 62
    4
 10
1158.7023999999999
 20
1044.4715000000001
 11
1161.9924000000001
 21
1044.0377000000001
  0
LINE
  8
_0-0_LAYER001
  6
CONTINUOUS
 62
    4
 10
1161.9924000000001
 20
1044.0377000000001
 11
1164.5117
 21
1043.7699
  0
LINE
  8
_0-0_LAYER001
  6
CONTINUOUS
 62
    4
 10
1164.5117
 20
1043.7699
 11
1168.8638000000001
 21
1043.4297999999999
  0
LINE
  8
_0-0_LAYER001
  6
CONTINUOUS
 62
    4
 10
1168.8638000000001
 20
1043.4297999999999
 11
1173.2239999999999
 21
1043.2303999999999
  0
LINE
  8
_0-0_LAYER001
  6
CONTINUOUS
 62
    4
 10
1173.2239999999999
 20
1043.2303999999999
 11
1177.5891999999999
 21
1043.1558
  0
LINE
  8
_0-0_LAYER001
  6
CONTINUOUS
 62
    4
 10
1177.5891999999999
 20
1043.1558
 11
1181.9563000000001
 21
1043.1901
  0
LINE
  8
_0-0_LAYER001
  6
CONTINUOUS
 62
    4
 10
1181.9563000000001
 20
1043.1901
 11
1186.3222000000001
 21
1043.3177000000001
  0
LINE
  8
_0-0_LAYER001
  6
CONTINUOUS
 62
    4
 10
1186.3222000000001
 20
1043.3177000000001
 11
1188.8525999999999
 21
1043.4282000000001
  0
LINE
  8
_0-0_LAYER001
  6
CONTINUOUS
 62
    4
 10
1188.8525999999999
 20
1043.4282000000001
 11
1193.5817
 21
1043.6964
  0
LINE
  8
_0-0_LAYER001
  6
CONTINUOUS
 62
    4
 10
1193.5817
 20
1043.6964
 11
1201.7199000000001
 21
1044.3273999999999
  0
LINE
  8
_0-0_LAYER001
  6
CONTINUOUS
 62
    4
 10
1201.7199000000001
 20
1044.3273999999999
 11
1209.8407
 21
1045.1412
  0
LINE
  8
_0-0_LAYER001
  6
CONTINUOUS
 62
    4
 10
1209.8407
 20
1045.1412
 11
1217.9465
 21
1046.1025
  0
LINE
  8
_0-0_LAYER001
  6
CONTINUOUS
 62
    4
 10
1217.9465
 20
1046.1025
 11
1226.04
 21
1047.1757
  0
LINE
  8
_0-0_LAYER001
  6
CONTINUOUS
 62
    4
 10
1226.04
 20
1047.1757
 11
1234.1234999999999
 21
1048.3253
  0
LINE
  8
_0-0_LAYER001
  6
CONTINUOUS
 62
    4
 10
1234.1234999999999
 20
1048.3253
 11
1238.8083999999999
 21
1049.0130999999999
  0
LINE
  8
_0-0_LAYER001
  6
CONTINUOUS
 62
    4
 10
1238.8083999999999
 20
1049.0130999999999
 11
1241.2433000000001
 21
1049.3739
  0
LINE
  8
_0-0_LAYER001
  6
CONTINUOUS
 62
    4
 10
1241.2433000000001
 20
1049.3739
 11
1245.4403
 21
1049.9999
  0
LINE
  8
_0-0_LAYER001
  6
CONTINUOUS
 62
    4
 10
1245.4403
 20
1049.9999
 11
1249.6360999999999
 21
1050.6300000000001
  0
LINE
  8
_0-0_LAYER001
  6
CONTINUOUS
 62
    4
 10
1249.6360999999999
 20
1050.6300000000001
 11
1253.8308999999999
 21
1051.2633000000001
  0
LINE
  8
_0-0_LAYER001
  6
CONTINUOUS
 62
    4
 10
1253.8308999999999
 20
1051.2633000000001
 11
1258.0251000000001
 21
1051.8988999999999
  0
LINE
  8
_0-0_LAYER001
  6
CONTINUOUS
 62
    4
 10
1258.0251000000001
 20
1051.8988999999999
 11
1262.2188000000001
 21
1052.5359000000001
  0
LINE
  8
_0-0_LAYER001
  6
CONTINUOUS
 62
    4
 10
1262.2188000000001
 20
1052.5359000000001
 11
1264.6511
 21
1052.9056
  0
LINE
  8
_0-0_LAYER001
  6
CONTINUOUS
 62
    4
 10
1019.6142
 20
1060.8019999999999
 11
1021.6760999999999
 21
1061.5789
  0
LINE
  8
_0-0_LAYER001
  6
CONTINUOUS
 62
    4
 10
1021.6760999999999
 20
1061.5789
 11
1025.2437
 21
1062.9254000000001
  0
LINE
  8
_0-0_LAYER001
  6
CONTINUOUS
 62
    4
 10
1025.2437
 20
1062.9254000000001
 11
1028.8356000000001
 21
1064.2876000000001
  0
LINE
  8
_0-0_LAYER001
  6
CONTINUOUS
 62
    4
 10
1028.8356000000001
 20
1064.2876000000001
 11
1032.4559999999999
 21
1065.6713999999999
  0
LINE
  8
_0-0_LAYER001
  6
CONTINUOUS
 62
    4
 10
1032.4559999999999
 20
1065.6713999999999
 11
1036.1089999999999
 21
1067.0826
  0
LINE
  8
_0-0_LAYER001
  6
CONTINUOUS
 62
    4
 10
1036.1089999999999
 20
1067.0826
 11
1039.7882
 21
1068.5229999999999
  0
LINE
  8
_0-0_LAYER001
  6
CONTINUOUS
 62
    4
 10
1039.7882
 20
1068.5229999999999
 11
1041.9434000000001
 21
1069.377
  0
LINE
  8
_0-0_LAYER001
  6
CONTINUOUS
 62
    4
 10
1041.9434000000001
 20
1069.377
 11
1043.9668999999999
 21
1070.1837
  0
LINE
  8
_0-0_LAYER001
  6
CONTINUOUS
 62
    4
 10
1043.9668999999999
 20
1070.1837
 11
1047.2388000000001
 21
1071.4550999999999
  0
LINE
  8
_0-0_LAYER001
  6
CONTINUOUS
 62
    4
 10
1047.2388000000001
 20
1071.4550999999999
 11
1050.1339
 21
1072.4774
  0
LINE
  8
_0-0_LAYER001
  6
CONTINUOUS
 62
    4
 10
1050.1339
 20
1072.4774
 11
1052.6021000000001
 21
1073.1971000000001
  0
LINE
  8
_0-0_LAYER001
  6
CONTINUOUS
 62
    4
 10
1052.6021000000001
 20
1073.1971000000001
 11
1054.5938000000001
 21
1073.6044999999999
  0
LINE
  8
_0-0_LAYER001
  6
CONTINUOUS
 62
    4
 10
1054.5938000000001
 20
1073.6044999999999
 11
1056.3731
 21
1073.769
  0
LINE
  8
_0-0_LAYER001
  6
CONTINUOUS
 62
    4
 10
1056.3731
 20
1073.769
 11
1057.0526
 21
1073.7601999999999
  0
LINE
  8
_0-0_LAYER001
  6
CONTINUOUS
 62
    4
 10
1057.0526
 20
1073.7601999999999
 11
1056.9765
 21
1073.7656999999999
  0
LINE
  8
_0-0_LAYER001
  6
CONTINUOUS
 62
    4
 10
1056.9765
 20
1073.7656999999999
 11
1057.5902000000001
 21
1073.6941999999999
  0
LINE
  8
_0-0_LAYER001
  6
CONTINUOUS
 62
    4
 10
1057.5902000000001
 20
1073.6941999999999
 11
1058.1805999999999
 21
1073.5944999999999
  0
LINE
  8
_0-0_LAYER001
  6
CONTINUOUS
 62
    4
 10
1058.1805999999999
 20
1073.5944999999999
 11
1058.848
 21
1073.4494
  0
LINE
  8
_0-0_LAYER001
  6
CONTINUOUS
 62
    4
 10
1058.848
 20
1073.4494
 11
1059.5816
 21
1073.2569000000001
  0
LINE
  8
_0-0_LAYER001
  6
CONTINUOUS
 62
    4
 10
1059.5816
 20
1073.2569000000001
 11
1060.4306999999999
 21
1072.9983999999999
  0
LINE
  8
_0-0_LAYER001
  6
CONTINUOUS
 62
    4
 10
1060.4306999999999
 20
1072.9983999999999
 11
1060.6748
 21
1072.9165
  0
LINE
  8
_0-0_LAYER001
  6
CONTINUOUS
 62
    4
 10
1060.6748
 20
1072.9165
 11
1062.2347
 21
1072.3244999999999
  0
LINE
  8
_0-0_LAYER001
  6
CONTINUOUS
 62
    4
 10
1062.2347
 20
1072.3244999999999
 11
1065.1823999999999
 21
1070.954
  0
LINE
  8
_0-0_LAYER001
  6
CONTINUOUS
 62
    4
 10
1065.1823999999999
 20
1070.954
 11
1068.1434999999999
 21
1069.2934
  0
LINE
  8
_0-0_LAYER001
  6
CONTINUOUS
 62
    4
 10
1068.1434999999999
 20
1069.2934
 11
1071.3112000000001
 21
1067.2720999999999
  0
LINE
  8
_0-0_LAYER001
  6
CONTINUOUS
 62
    4
 10
1071.3112000000001
 20
1067.2720999999999
 11
1074.6958999999999
 21
1064.9272000000001
  0
LINE
  8
_0-0_LAYER001
  6
CONTINUOUS
 62
    4
 10
1074.6958999999999
 20
1064.9272000000001
 11
1078.3016
 21
1062.3246999999999
  0
LINE
  8
_0-0_LAYER001
  6
CONTINUOUS
 62
    4
 10
1078.3016
 20
1062.3246999999999
 11
1080.5085999999999
 21
1060.7222999999999
  0
LINE
  8
_0-0_LAYER001
  6
CONTINUOUS
 62
    4
 10
1080.5085999999999
 20
1060.7222999999999
 11
1083.9985999999999
 21
1058.2219
  0
LINE
  8
_0-0_LAYER001
  6
CONTINUOUS
 62
    4
 10
1083.9985999999999
 20
1058.2219
 11
1090.0907999999999
 21
1053.9970000000001
  0
LINE
  8
_0-0_LAYER001
  6
CONTINUOUS
 62
    4
 10
1090.0907999999999
 20
1053.9970000000001
 11
1096.3945000000001
 21
1049.8569
  0
LINE
  8
_0-0_LAYER001
  6
CONTINUOUS
 62
    4
 10
1096.3945000000001
 20
1049.8569
 11
1102.9151999999999
 21
1045.8680999999999
  0
LINE
  8
_0-0_LAYER001
  6
CONTINUOUS
 62
    4
 10
1102.9151999999999
 20
1045.8680999999999
 11
1109.6812
 21
1042.0841
  0
LINE
  8
_0-0_LAYER001
  6
CONTINUOUS
 62
    4
 10
1109.6812
 20
1042.0841
 11
1116.6242
 21
1038.6096
  0
LINE
  8
_0-0_LAYER001
  6
CONTINUOUS
 62
    4
 10
1116.6242
 20
1038.6096
 11
1120.8976
 21
1036.6851999999999
  0
LINE
  8
_0-0_LAYER001
  6
CONTINUOUS
 62
    4
 10
1120.8976
 20
1036.6851999999999
 11
1124.5027
 21
1035.1873000000001
  0
LINE
  8
_0-0_LAYER001
  6
CONTINUOUS
 62
    4
 10
1124.5027
 20
1035.1873000000001
 11
1130.5588
 21
1032.9254000000001
  0
LINE
  8
_0-0_LAYER001
  6
CONTINUOUS
 62
    4
 10
1130.5588
 20
1032.9254000000001
 11
1136.8087
 21
1030.9142999999999
  0
LINE
  8
_0-0_LAYER001
  6
CONTINUOUS
 62
    4
 10
1136.8087
 20
1030.9142999999999
 11
1143.1574000000001
 21
1029.1929
  0
LINE
  8
_0-0_LAYER001
  6
CONTINUOUS
 62
    4
 10
1143.1574000000001
 20
1029.1929
 11
1149.5916
 21
1027.7701
  0
LINE
  8
_0-0_LAYER001
  6
CONTINUOUS
 62
    4
 10
1149.5916
 20
1027.7701
 11
1156.0053
 21
1026.6713
  0
LINE
  8
_0-0_LAYER001
  6
CONTINUOUS
 62
    4
 10
1156.0053
 20
1026.6713
 11
1159.8642
 21
1026.1624999999999
  0
LINE
  8
_0-0_LAYER001
  6
CONTINUOUS
 62
    4
 10
1159.8642
 20
1026.1624999999999
 11
1162.8588
 21
1025.8442
  0
LINE
  8
_0-0_LAYER001
  6
CONTINUOUS
 62
    4
 10
1162.8588
 20
1025.8442
 11
1167.7511999999999
 21
1025.4619
  0
LINE
  8
_0-0_LAYER001
  6
CONTINUOUS
 62
    4
 10
1167.7511999999999
 20
1025.4619
 11
1172.6587
 21
1025.2374
  0
LINE
  8
_0-0_LAYER001
  6
CONTINUOUS
 62
    4
 10
1172.6587
 20
1025.2374
 11
1177.5061000000001
 21
1025.1545000000001
  0
LINE
  8
_0-0_LAYER001
  6
CONTINUOUS
 62
    4
 10
1177.5061000000001
 20
1025.1545000000001
 11
1182.29
 21
1025.1922
  0
LINE
  8
_0-0_LAYER001
  6
CONTINUOUS
 62
    4
 10
1182.29
 20
1025.1922
 11
1186.9776999999999
 21
1025.3291999999999
  0
LINE
  8
_0-0_LAYER001
  6
CONTINUOUS
 62
    4
 10
1186.9776999999999
 20
1025.3291999999999
 11
1189.7547999999999
 21
1025.4503999999999
  0
LINE
  8
_0-0_LAYER001
  6
CONTINUOUS
 62
    4
 10
1189.7547999999999
 20
1025.4503999999999
 11
1194.7872
 21
1025.7357999999999
  0
LINE
  8
_0-0_LAYER001
  6
CONTINUOUS
 62
    4
 10
1194.7872
 20
1025.7357999999999
 11
1203.3133
 21
1026.3969
  0
LINE
  8
_0-0_LAYER001
  6
CONTINUOUS
 62
    4
 10
1203.3133
 20
1026.3969
 11
1211.7982
 21
1027.2473
  0
LINE
  8
_0-0_LAYER001
  6
CONTINUOUS
 62
    4
 10
1211.7982
 20
1027.2473
 11
1220.1895
 21
1028.2424000000001
  0
LINE
  8
_0-0_LAYER001
  6
CONTINUOUS
 62
    4
 10
1220.1895
 20
1028.2424000000001
 11
1228.4902
 21
1029.3430000000001
  0
LINE
  8
_0-0_LAYER001
  6
CONTINUOUS
 62
    4
 10
1228.4902
 20
1029.3430000000001
 11
1236.6980000000001
 21
1030.5102999999999
  0
LINE
  8
_0-0_LAYER001
  6
CONTINUOUS
 62
    4
 10
1236.6980000000001
 20
1030.5102999999999
 11
1241.4350999999999
 21
1031.2057
  0
LINE
  8
_0-0_LAYER001
  6
CONTINUOUS
 62
    4
 10
1241.4350999999999
 20
1031.2057
 11
1243.8904
 21
1031.5696
  0
LINE
  8
_0-0_LAYER001
  6
CONTINUOUS
 62
    4
 10
1243.8904
 20
1031.5696
 11
1248.1045999999999
 21
1032.1982
  0
LINE
  8
_0-0_LAYER001
  6
CONTINUOUS
 62
    4
 10
1248.1045999999999
 20
1032.1982
 11
1252.3161
 21
1032.8306
  0
LINE
  8
_0-0_LAYER001
  6
CONTINUOUS
 62
    4
 10
1252.3161
 20
1032.8306
 11
1256.5228
 21
1033.4657
  0
LINE
  8
_0-0_LAYER001
  6
CONTINUOUS
 62
    4
 10
1256.5228
 20
1033.4657
 11
1260.7249999999999
 21
1034.1025
  0
LINE
  8
_0-0_LAYER001
  6
CONTINUOUS
 62
    4
 10
1260.7249999999999
 20
1034.1025
 11
1264.9229
 21
1034.7401
  0
LINE
  8
_0-0_LAYER001
  6
CONTINUOUS
 62
    4
 10
1264.9229
 20
1034.7401
 11
1266.5406
 21
1034.9861000000001
  0
LINE
  8
_0-0_LAYER001
  6
CONTINUOUS
 62
    4
 10
1014.0853999999999
 20
1077.9521
 11
1014.5114000000001
 21
1078.1152
  0
ARC
  8
_0-0_LAYER001
  6
CONTINUOUS
 62
    4
 10
1015.1579999999999
 20
1075.1504
 40
3
 50
110.94902000000002
 51
178.70000000000002
  0
LINE
  8
_0-0_LAYER001
  6
CONTINUOUS
 62
    4
 10
1012.0494000000001
 20
1059.3794
 11
1012.0494000000001
 21
1075.1018999999999
  0
LINE
  8
_0-0_LAYER001
  6
CONTINUOUS
 62
    4
 10
1013.4033999999999
 20
1058.4440999999999
 11
1019.5782999999999
 21
1060.7813000000001
  0
ARC
  8
_0-0_LAYER001
  6
CONTINUOUS
 62
    4
 10
1013.0494000000001
 20
1059.3794
 40
1
 50
180
 51
290.73165999999998
  0
LINE
  8
_0-0_LAYER001
  6
CONTINUOUS
 62
    4
 10
1264.7760000000001
 20
1052.941
 11
1309.2302999999997
 21
1062.5889
  0
LINE
  8
_0-0_LAYER001
  6
CONTINUOUS
 62
    4
 10
1271.5211999999999
 20
1033.1072999999999
 11
1310.1929999999998
 21
1042.1572000000001
  0
LINE
  8
_0-0_LAYER001
  6
CONTINUOUS
 62
    4
 10
1310.1929999999998
 20
1043.1137000000001
 11
1310.1929999999998
 21
1042.1572000000001
  0
ARC
  8
_0-0_LAYER001
  6
CONTINUOUS
 62
    4
 10
1311.1930000000002
 20
1043.1137000000001
 40
1
 50
102.72435
 51
180
  0
LINE
  8
_0-0_LAYER001
  6
CONTINUOUS
 62
    4
 10
1316.01
 20
1045.2266
 11
1310.9728
 21
1044.0891999999999
  0
ARC
  8
_0-0_LAYER001
  6
CONTINUOUS
 62
    4
 10
1316.2302999999999
 20
1044.2511999999999
 40
1
 50
0
 51
102.72435
  0
LINE
  8
_0-0_LAYER001
  6
CONTINUOUS
 62
    4
 10
1316.4423999999999
 20
1045.7351000000001
 11
1266.3083999999999
 21
1034.8544999999999
  0
ARC
  8
_0-0_LAYER001
  6
CONTINUOUS
 62
    4
 10
1316.2302999999999
 20
1046.7122999999999
 40
1
 50
282.24497000000002
 51
0
  0
LINE
  8
_0-0_LAYER001
  6
CONTINUOUS
 62
    4
 10
1316.4481000000001
 20
1024.9944
 11
1266.8642
 21
1013.9265
  0
LINE
  8
_0-0_LAYER001
  6
CONTINUOUS
 62
    4
 10
1317.2302999999999
 20
1025.9703
 11
1317.2302999999999
 21
1044.2511999999999
  0
ARC
  8
_0-0_LAYER001
  6
CONTINUOUS
 62
    4
 10
1316.2302999999999
 20
1025.9703
 40
1
 50
282.58296000000001
 51
0.0000000000000254
  0
LINE
  8
_0-0_LAYER001
  6
CONTINUOUS
 62
    4
 10
1309.2302999999997
 20
1064.0459000000001
 11
1309.2302999999997
 21
1062.5889
  0
ARC
  8
_0-0_LAYER001
  6
CONTINUOUS
 62
    4
 10
1310.2303000000002
 20
1064.0459000000001
 40
1
 50
101.73308
 51
180
  0
LINE
  8
_0-0_LAYER001
  6
CONTINUOUS
 62
    4
 10
1316.0268999999998
 20
1066.2711999999999
 11
1310.0269000000001
 21
1065.0250000000001
  0
LINE
  8
_0-0_LAYER001
  6
CONTINUOUS
 62
    4
 10
1317.2302999999999
 20
1065.2920999999999
 11
1317.2302999999999
 21
1046.7122999999999
  0
ARC
  8
_0-0_LAYER001
  6
CONTINUOUS
 62
    4
 10
1316.2302999999999
 20
1065.2920999999999
 40
1
 50
0
 51
101.73308
  0
LINE
  8
_0-0_LAYER001
  6
CONTINUOUS
 62
    4
 10
872.49970000000008
 20
994.40219999999999
 11
863.96419999999989
 21
1008.9355
  0
LINE
  8
_0-0_LAYER001
  6
CONTINUOUS
 62
    4
 10
880.66759999999999
 20
993.75189999999998
 11
888.97379999999998
 21
1003.8173999999999
  0
ARC
  8
_0-0_LAYER001
  6
CONTINUOUS
 62
    4
 10
876.8110999999999
 20
996.93429999999989
 40
5
 50
210.42578
 51
320.47001
  0
LINE
  8
_0-0_LAYER001
  6
CONTINUOUS
 62
    4
 10
956.61320000000001
 20
993.28199999999993
 11
949.28780000000006
 21
1004.5880999999999
  0
LINE
  8
_0-0_LAYER001
  6
CONTINUOUS
 62
    4
 10
965.1226999999999
 20
993.47190000000001
 11
974.0612000000001
 21
1008.7175999999999
  0
ARC
  8
_0-0_LAYER001
  6
CONTINUOUS
 62
    4
 10
960.8094000000001
 20
996.00080000000003
 40
5
 50
212.93986000000001
 51
329.61716000000001
  0
LINE
  8
_0-0_LAYER001
  6
CONTINUOUS
 62
    4
 10
1004.4048
 20
1033.0296000000001
 11
1006.8329000000001
 21
1033.4333999999999
  0
LINE
  8
_0-0_LAYER001
  6
CONTINUOUS
 62
    4
 10
1000.2157
 20
1032.3333
 11
1004.4048
 21
1033.0296000000001
  0
LINE
  8
_0-0_LAYER001
  6
CONTINUOUS
 62
    4
 10
996.02189999999996
 20
1031.6378
 11
1000.2157
 21
1032.3333
  0
LINE
  8
_0-0_LAYER001
  6
CONTINUOUS
 62
    4
 10
991.82310000000007
 20
1030.9438
 11
996.02189999999996
 21
1031.6378
  0
LINE
  8
_0-0_LAYER001
  6
CONTINUOUS
 62
    4
 10
987.61909999999989
 20
1030.2523000000001
 11
991.82310000000007
 21
1030.9438
  0
LINE
  8
_0-0_LAYER001
  6
CONTINUOUS
 62
    4
 10
983.41229999999996
 20
1029.5645999999999
 11
987.61909999999989
 21
1030.2523000000001
  0
LINE
  8
_0-0_LAYER001
  6
CONTINUOUS
 62
    4
 10
980.96000000000004
 20
1029.1660999999999
 11
983.41229999999996
 21
1029.5645999999999
  0
LINE
  8
_0-0_LAYER001
  6
CONTINUOUS
 62
    4
 10
976.22720000000004
 20
1028.4037000000001
 11
980.96000000000004
 21
1029.1660999999999
  0
LINE
  8
_0-0_LAYER001
  6
CONTINUOUS
 62
    4
 10
968.02279999999996
 20
1027.1197999999999
 11
976.22720000000004
 21
1028.4037000000001
  0
LINE
  8
_0-0_LAYER001
  6
CONTINUOUS
 62
    4
 10
959.71530000000007
 20
1025.9000000000001
 11
968.02279999999996
 21
1027.1197999999999
  0
LINE
  8
_0-0_LAYER001
  6
CONTINUOUS
 62
    4
 10
951.30700000000002
 20
1024.7836
 11
959.71530000000007
 21
1025.9000000000001
  0
LINE
  8
_0-0_LAYER001
  6
CONTINUOUS
 62
    4
 10
942.7944
 20
1023.8101999999999
 11
951.30700000000002
 21
1024.7836
  0
LINE
  8
_0-0_LAYER001
  6
CONTINUOUS
 62
    4
 10
934.23530000000005
 20
1023.0262
 11
942.7944
 21
1023.8101999999999
  0
LINE
  8
_0-0_LAYER001
  6
CONTINUOUS
 62
    4
 10
929.17380000000003
 20
1022.6682000000001
 11
934.23530000000005
 21
1023.0262
  0
LINE
  8
_0-0_LAYER001
  6
CONTINUOUS
 62
    4
 10
926.37120000000004
 20
1022.5065999999999
 11
929.17380000000003
 21
1022.6682000000001
  0
LINE
  8
_0-0_LAYER001
  6
CONTINUOUS
 62
    4
 10
921.65020000000004
 20
1022.3027
 11
926.37120000000004
 21
1022.5065999999999
  0
LINE
  8
_0-0_LAYER001
  6
CONTINUOUS
 62
    4
 10
916.82089999999994
 20
1022.1972000000001
 11
921.65020000000004
 21
1022.3027
  0
LINE
  8
_0-0_LAYER001
  6
CONTINUOUS
 62
    4
 10
911.91930000000002
 20
1022.2126000000001
 11
916.82089999999994
 21
1022.1972000000001
  0
LINE
  8
_0-0_LAYER001
  6
CONTINUOUS
 62
    4
 10
906.94830000000002
 20
1022.3705
 11
911.91930000000002
 21
1022.2126000000001
  0
LINE
  8
_0-0_LAYER001
  6
CONTINUOUS
 62
    4
 10
901.99090000000001
 20
1022.6882000000001
 11
906.94830000000002
 21
1022.3705
  0
LINE
  8
_0-0_LAYER001
  6
CONTINUOUS
 62
    4
 10
898.93920000000003
 20
1022.9695999999999
 11
901.99090000000001
 21
1022.6882000000001
  0
LINE
  8
_0-0_LAYER001
  6
CONTINUOUS
 62
    4
 10
895.01039999999989
 20
1023.4319
 11
898.93920000000003
 21
1022.9695999999999
  0
LINE
  8
_0-0_LAYER001
  6
CONTINUOUS
 62
    4
 10
888.49639999999999
 20
1024.4544000000001
 11
895.01039999999989
 21
1023.4319
  0
LINE
  8
_0-0_LAYER001
  6
CONTINUOUS
 62
    4
 10
881.9498000000001
 20
1025.8065999999999
 11
888.49639999999999
 21
1024.4544000000001
  0
LINE
  8
_0-0_LAYER001
  6
CONTINUOUS
 62
    4
 10
875.48690000000011
 20
1027.4623999999999
 11
881.9498000000001
 21
1025.8065999999999
  0
LINE
  8
_0-0_LAYER001
  6
CONTINUOUS
 62
    4
 10
869.12089999999989
 20
1029.4131
 11
875.48690000000011
 21
1027.4623999999999
  0
LINE
  8
_0-0_LAYER001
  6
CONTINUOUS
 62
    4
 10
862.95620000000008
 20
1031.6180999999999
 11
869.12089999999989
 21
1029.4131
  0
LINE
  8
_0-0_LAYER001
  6
CONTINUOUS
 62
    4
 10
859.26950000000011
 20
1033.0898999999999
 11
862.95620000000008
 21
1031.6180999999999
  0
LINE
  8
_0-0_LAYER001
  6
CONTINUOUS
 62
    4
 10
854.90519999999992
 20
1034.9824000000001
 11
859.26950000000011
 21
1033.0898999999999
  0
LINE
  8
_0-0_LAYER001
  6
CONTINUOUS
 62
    4
 10
847.83619999999996
 20
1038.3974000000001
 11
854.90519999999992
 21
1034.9824000000001
  0
LINE
  8
_0-0_LAYER001
  6
CONTINUOUS
 62
    4
 10
842.3771999999999
 20
1041.3511000000001
 11
847.83619999999996
 21
1038.3974000000001
  0
LINE
  8
_0-0_LAYER001
  6
CONTINUOUS
 62
    4
 10
1000.3941
 20
1013.8421000000001
 11
1002.0082
 21
1014.1106
  0
LINE
  8
_0-0_LAYER001
  6
CONTINUOUS
 62
    4
 10
996.2056
 20
1013.1459
 11
1000.3941
 21
1013.8421000000001
  0
LINE
  8
_0-0_LAYER001
  6
CONTINUOUS
 62
    4
 10
992.0127
 20
1012.4504999999999
 11
996.2056
 21
1013.1459
  0
LINE
  8
_0-0_LAYER001
  6
CONTINUOUS
 62
    4
 10
987.8152
 20
1011.7566999999999
 11
992.0127
 21
1012.4504999999999
  0
LINE
  8
_0-0_LAYER001
  6
CONTINUOUS
 62
    4
 10
983.61290000000008
 20
1011.0654999999999
 11
987.8152
 21
1011.7566999999999
  0
LINE
  8
_0-0_LAYER001
  6
CONTINUOUS
 62
    4
 10
979.4079999999999
 20
1010.3782000000001
 11
983.61290000000008
 21
1011.0654999999999
  0
LINE
  8
_0-0_LAYER001
  6
CONTINUOUS
 62
    4
 10
976.95790000000011
 20
1009.9801
 11
979.4079999999999
 21
1010.3782000000001
  0
LINE
  8
_0-0_LAYER001
  6
CONTINUOUS
 62
    4
 10
972.23099999999999
 20
1009.2184999999999
 11
976.95790000000011
 21
1009.9801
  0
LINE
  8
_0-0_LAYER001
  6
CONTINUOUS
 62
    4
 10
964.04029999999989
 20
1007.9367999999999
 11
972.23099999999999
 21
1009.2184999999999
  0
LINE
  8
_0-0_LAYER001
  6
CONTINUOUS
 62
    4
 10
955.75579999999991
 20
1006.7203999999999
 11
964.04029999999989
 21
1007.9367999999999
  0
LINE
  8
_0-0_LAYER001
  6
CONTINUOUS
 62
    4
 10
947.37920000000008
 20
1005.6081999999999
 11
955.75579999999991
 21
1006.7203999999999
  0
LINE
  8
_0-0_LAYER001
  6
CONTINUOUS
 62
    4
 10
938.90699999999993
 20
1004.6394
 11
947.37920000000008
 21
1005.6081999999999
  0
LINE
  8
_0-0_LAYER001
  6
CONTINUOUS
 62
    4
 10
930.3909000000001
 20
1003.8594000000001
 11
938.90699999999993
 21
1004.6394
  0
LINE
  8
_0-0_LAYER001
  6
CONTINUOUS
 62
    4
 10
925.36310000000003
 20
1003.5038
 11
930.3909000000001
 21
1003.8594000000001
  0
LINE
  8
_0-0_LAYER001
  6
CONTINUOUS
 62
    4
 10
922.58789999999999
 20
1003.3436999999999
 11
925.36310000000003
 21
1003.5038
  0
LINE
  8
_0-0_LAYER001
  6
CONTINUOUS
 62
    4
 10
917.90259999999989
 20
1003.1413
 11
922.58789999999999
 21
1003.3436999999999
  0
LINE
  8
_0-0_LAYER001
  6
CONTINUOUS
 62
    4
 10
913.11959999999999
 20
1003.0369000000001
 11
917.90259999999989
 21
1003.1413
  0
LINE
  8
_0-0_LAYER001
  6
CONTINUOUS
 62
    4
 10
908.27160000000003
 20
1003.0521000000001
 11
913.11959999999999
 21
1003.0369000000001
  0
LINE
  8
_0-0_LAYER001
  6
CONTINUOUS
 62
    4
 10
903.3614
 20
1003.2080000000001
 11
908.27160000000003
 21
1003.0521000000001
  0
LINE
  8
_0-0_LAYER001
  6
CONTINUOUS
 62
    4
 10
898.46409999999992
 20
1003.5219
 11
903.3614
 21
1003.2080000000001
  0
LINE
  8
_0-0_LAYER001
  6
CONTINUOUS
 62
    4
 10
895.46540000000005
 20
1003.7985000000001
 11
898.46409999999992
 21
1003.5219
  0
LINE
  8
_0-0_LAYER001
  6
CONTINUOUS
 62
    4
 10
891.59979999999996
 20
1004.2533000000001
 11
895.46540000000005
 21
1003.7985000000001
  0
LINE
  8
_0-0_LAYER001
  6
CONTINUOUS
 62
    4
 10
885.17139999999995
 20
1005.2624000000001
 11
891.59979999999996
 21
1004.2533000000001
  0
LINE
  8
_0-0_LAYER001
  6
CONTINUOUS
 62
    4
 10
878.7179000000001
 20
1006.5953
 11
885.17139999999995
 21
1005.2624000000001
  0
LINE
  8
_0-0_LAYER001
  6
CONTINUOUS
 62
    4
 10
872.34580000000005
 20
1008.2279000000001
 11
878.7179000000001
 21
1006.5953
  0
LINE
  8
_0-0_LAYER001
  6
CONTINUOUS
 62
    4
 10
866.06840000000011
 20
1010.1514999999999
 11
872.34580000000005
 21
1008.2279000000001
  0
LINE
  8
_0-0_LAYER001
  6
CONTINUOUS
 62
    4
 10
859.98139999999989
 20
1012.3286000000001
 11
866.06840000000011
 21
1010.1514999999999
  0
LINE
  8
_0-0_LAYER001
  6
CONTINUOUS
 62
    4
 10
856.35570000000007
 20
1013.7761
 11
859.98139999999989
 21
1012.3286000000001
  0
LINE
  8
_0-0_LAYER001
  6
CONTINUOUS
 62
    4
 10
852.05580000000009
 20
1015.6405999999999
 11
856.35570000000007
 21
1013.7761
  0
LINE
  8
_0-0_LAYER001
  6
CONTINUOUS
 62
    4
 10
845.06500000000005
 20
1019.0178000000001
 11
852.05580000000009
 21
1015.6405999999999
  0
LINE
  8
_0-0_LAYER001
  6
CONTINUOUS
 62
    4
 10
842.3771999999999
 20
1020.4721
 11
845.06500000000005
 21
1019.0178000000001
  0
LINE
  8
_0-0_LAYER001
  6
CONTINUOUS
 62
    4
 10
997.10969999999998
 20
1003.4209000000001
 11
994.86419999999998
 21
1011.9943000000001
  0
ARC
  8
_0-0_LAYER001
  6
CONTINUOUS
 62
    4
 10
1000.0118
 20
1004.1809000000001
 40
3
 50
194.67639000000003
 51
270.00000000000006
  0
LINE
  8
_0-0_LAYER001
  6
CONTINUOUS
 62
    4
 10
1003.4543000000001
 20
1001.1766
 11
1000.0364
 21
1001.1766
  0
LINE
  8
_0-0_LAYER001
  6
CONTINUOUS
 62
    4
 10
1006.4133999999999
 20
1003.6833999999999
 11
1008.3475000000001
 21
1015.2876000000001
  0
ARC
  8
_0-0_LAYER001
  6
CONTINUOUS
 62
    4
 10
1003.4543000000001
 20
1004.1766
 40
3
 50
270
 51
350.53766999999999
  0
LINE
  8
_0-0_LAYER001
  6
CONTINUOUS
 62
    4
 10
842.3771999999999
 20
1064.5319
 11
847.18499999999995
 21
1061.5908999999999
  0
LINE
  8
_0-0_LAYER001
  6
CONTINUOUS
 62
    4
 10
847.18499999999995
 20
1061.5908999999999
 11
853.28320000000008
 21
1058.1803
  0
LINE
  8
_0-0_LAYER001
  6
CONTINUOUS
 62
    4
 10
853.28320000000008
 20
1058.1803
 11
859.52749999999992
 21
1055.0554999999999
  0
LINE
  8
_0-0_LAYER001
  6
CONTINUOUS
 62
    4
 10
859.52749999999992
 20
1055.0554999999999
 11
863.22479999999996
 21
1053.3905
  0
LINE
  8
_0-0_LAYER001
  6
CONTINUOUS
 62
    4
 10
863.22479999999996
 20
1053.3905
 11
866.28400000000011
 21
1052.1194
  0
LINE
  8
_0-0_LAYER001
  6
CONTINUOUS
 62
    4
 10
866.28400000000011
 20
1052.1194
 11
871.64460000000008
 21
1050.1172999999999
  0
LINE
  8
_0-0_LAYER001
  6
CONTINUOUS
 62
    4
 10
871.64460000000008
 20
1050.1172999999999
 11
877.10030000000006
 21
1048.3617999999999
  0
LINE
  8
_0-0_LAYER001
  6
CONTINUOUS
 62
    4
 10
877.10030000000006
 20
1048.3617999999999
 11
882.63519999999994
 21
1046.8610000000001
  0
LINE
  8
_0-0_LAYER001
  6
CONTINUOUS
 62
    4
 10
882.63519999999994
 20
1046.8610000000001
 11
888.23350000000005
 21
1045.623
  0
LINE
  8
_0-0_LAYER001
  6
CONTINUOUS
 62
    4
 10
888.23350000000005
 20
1045.623
 11
893.87930000000006
 21
1044.6558
  0
LINE
  8
_0-0_LAYER001
  6
CONTINUOUS
 62
    4
 10
893.87930000000006
 20
1044.6558
 11
897.16920000000005
 21
1044.2221
  0
LINE
  8
_0-0_LAYER001
  6
CONTINUOUS
 62
    4
 10
897.16920000000005
 20
1044.2221
 11
899.68849999999998
 21
1043.9541999999999
  0
LINE
  8
_0-0_LAYER001
  6
CONTINUOUS
 62
    4
 10
899.68849999999998
 20
1043.9541999999999
 11
904.04060000000004
 21
1043.6142
  0
LINE
  8
_0-0_LAYER001
  6
CONTINUOUS
 62
    4
 10
904.04060000000004
 20
1043.6142
 11
908.40079999999989
 21
1043.4147
  0
LINE
  8
_0-0_LAYER001
  6
CONTINUOUS
 62
    4
 10
908.40079999999989
 20
1043.4147
 11
912.76600000000008
 21
1043.3400999999999
  0
LINE
  8
_0-0_LAYER001
  6
CONTINUOUS
 62
    4
 10
912.76600000000008
 20
1043.3400999999999
 11
917.13310000000001
 21
1043.3744999999999
  0
LINE
  8
_0-0_LAYER001
  6
CONTINUOUS
 62
    4
 10
917.13310000000001
 20
1043.3744999999999
 11
921.49900000000002
 21
1043.502
  0
LINE
  8
_0-0_LAYER001
  6
CONTINUOUS
 62
    4
 10
921.49900000000002
 20
1043.502
 11
924.0295000000001
 21
1043.6125
  0
LINE
  8
_0-0_LAYER001
  6
CONTINUOUS
 62
    4
 10
924.0295000000001
 20
1043.6125
 11
928.75859999999989
 21
1043.8806999999999
  0
LINE
  8
_0-0_LAYER001
  6
CONTINUOUS
 62
    4
 10
928.75859999999989
 20
1043.8806999999999
 11
936.89679999999998
 21
1044.5117
  0
LINE
  8
_0-0_LAYER001
  6
CONTINUOUS
 62
    4
 10
936.89679999999998
 20
1044.5117
 11
945.01749999999993
 21
1045.3255999999999
  0
LINE
  8
_0-0_LAYER001
  6
CONTINUOUS
 62
    4
 10
945.01749999999993
 20
1045.3255999999999
 11
953.12339999999995
 21
1046.2869000000001
  0
LINE
  8
_0-0_LAYER001
  6
CONTINUOUS
 62
    4
 10
953.12339999999995
 20
1046.2869000000001
 11
961.21679999999992
 21
1047.3599999999999
  0
LINE
  8
_0-0_LAYER001
  6
CONTINUOUS
 62
    4
 10
961.21679999999992
 20
1047.3599999999999
 11
969.30040000000008
 21
1048.5096000000001
  0
LINE
  8
_0-0_LAYER001
  6
CONTINUOUS
 62
    4
 10
969.30040000000008
 20
1048.5096000000001
 11
973.98530000000005
 21
1049.1974
  0
LINE
  8
_0-0_LAYER001
  6
CONTINUOUS
 62
    4
 10
973.98530000000005
 20
1049.1974
 11
976.42020000000002
 21
1049.5582999999999
  0
LINE
  8
_0-0_LAYER001
  6
CONTINUOUS
 62
    4
 10
976.42020000000002
 20
1049.5582999999999
 11
980.61709999999994
 21
1050.1842999999999
  0
LINE
  8
_0-0_LAYER001
  6
CONTINUOUS
 62
    4
 10
980.61709999999994
 20
1050.1842999999999
 11
984.8128999999999
 21
1050.8143
  0
LINE
  8
_0-0_LAYER001
  6
CONTINUOUS
 62
    4
 10
984.8128999999999
 20
1050.8143
 11
989.00770000000011
 21
1051.4476
  0
LINE
  8
_0-0_LAYER001
  6
CONTINUOUS
 62
    4
 10
989.00770000000011
 20
1051.4476
 11
993.20190000000002
 21
1052.0832
  0
LINE
  8
_0-0_LAYER001
  6
CONTINUOUS
 62
    4
 10
993.20190000000002
 20
1052.0832
 11
997.39570000000003
 21
1052.7202
  0
LINE
  8
_0-0_LAYER001
  6
CONTINUOUS
 62
    4
 10
997.39570000000003
 20
1052.7202
 11
999.82799999999997
 21
1053.0899999999999
  0
LINE
  8
_0-0_LAYER001
  6
CONTINUOUS
 62
    4
 10
842.3771999999999
 20
1043.6559
 11
844.85799999999995
 21
1042.2684999999999
  0
LINE
  8
_0-0_LAYER001
  6
CONTINUOUS
 62
    4
 10
844.85799999999995
 20
1042.2684999999999
 11
851.80109999999991
 21
1038.7940000000001
  0
LINE
  8
_0-0_LAYER001
  6
CONTINUOUS
 62
    4
 10
851.80109999999991
 20
1038.7940000000001
 11
856.07449999999994
 21
1036.8696
  0
LINE
  8
_0-0_LAYER001
  6
CONTINUOUS
 62
    4
 10
856.07449999999994
 20
1036.8696
 11
859.67959999999994
 21
1035.3715999999999
  0
LINE
  8
_0-0_LAYER001
  6
CONTINUOUS
 62
    4
 10
859.67959999999994
 20
1035.3715999999999
 11
865.73569999999995
 21
1033.1097
  0
LINE
  8
_0-0_LAYER001
  6
CONTINUOUS
 62
    4
 10
865.73569999999995
 20
1033.1097
 11
871.9855
 21
1031.0987
  0
LINE
  8
_0-0_LAYER001
  6
CONTINUOUS
 62
    4
 10
871.9855
 20
1031.0987
 11
878.33429999999998
 21
1029.3773000000001
  0
LINE
  8
_0-0_LAYER001
  6
CONTINUOUS
 62
    4
 10
878.33429999999998
 20
1029.3773000000001
 11
884.7684999999999
 21
1027.9544000000001
  0
LINE
  8
_0-0_LAYER001
  6
CONTINUOUS
 62
    4
 10
884.7684999999999
 20
1027.9544000000001
 11
891.18219999999997
 21
1026.8556000000001
  0
LINE
  8
_0-0_LAYER001
  6
CONTINUOUS
 62
    4
 10
891.18219999999997
 20
1026.8556000000001
 11
895.04099999999994
 21
1026.3469
  0
LINE
  8
_0-0_LAYER001
  6
CONTINUOUS
 62
    4
 10
895.04099999999994
 20
1026.3469
 11
898.03559999999993
 21
1026.0284999999999
  0
LINE
  8
_0-0_LAYER001
  6
CONTINUOUS
 62
    4
 10
898.03559999999993
 20
1026.0284999999999
 11
902.92810000000009
 21
1025.6463000000001
  0
LINE
  8
_0-0_LAYER001
  6
CONTINUOUS
 62
    4
 10
902.92810000000009
 20
1025.6463000000001
 11
907.83560000000011
 21
1025.4218000000001
  0
LINE
  8
_0-0_LAYER001
  6
CONTINUOUS
 62
    4
 10
907.83560000000011
 20
1025.4218000000001
 11
912.68299999999999
 21
1025.3389
  0
LINE
  8
_0-0_LAYER001
  6
CONTINUOUS
 62
    4
 10
912.68299999999999
 20
1025.3389
 11
917.4668999999999
 21
1025.3765000000001
  0
LINE
  8
_0-0_LAYER001
  6
CONTINUOUS
 62
    4
 10
917.4668999999999
 20
1025.3765000000001
 11
922.1545000000001
 21
1025.5135
  0
LINE
  8
_0-0_LAYER001
  6
CONTINUOUS
 62
    4
 10
922.1545000000001
 20
1025.5135
 11
924.93170000000009
 21
1025.6348
  0
LINE
  8
_0-0_LAYER001
  6
CONTINUOUS
 62
    4
 10
924.93170000000009
 20
1025.6348
 11
929.96399999999994
 21
1025.9202
  0
LINE
  8
_0-0_LAYER001
  6
CONTINUOUS
 62
    4
 10
929.96399999999994
 20
1025.9202
 11
938.49019999999996
 21
1026.5812000000001
  0
LINE
  8
_0-0_LAYER001
  6
CONTINUOUS
 62
    4
 10
938.49019999999996
 20
1026.5812000000001
 11
946.97510000000011
 21
1027.4315999999999
  0
LINE
  8
_0-0_LAYER001
  6
CONTINUOUS
 62
    4
 10
946.97510000000011
 20
1027.4315999999999
 11
955.36640000000011
 21
1028.4267
  0
LINE
  8
_0-0_LAYER001
  6
CONTINUOUS
 62
    4
 10
955.36640000000011
 20
1028.4267
 11
963.66709999999989
 21
1029.5273999999999
  0
LINE
  8
_0-0_LAYER001
  6
CONTINUOUS
 62
    4
 10
963.66709999999989
 20
1029.5273999999999
 11
971.87480000000005
 21
1030.6946
  0
LINE
  8
_0-0_LAYER001
  6
CONTINUOUS
 62
    4
 10
971.87480000000005
 20
1030.6946
 11
976.61200000000008
 21
1031.3901000000001
  0
LINE
  8
_0-0_LAYER001
  6
CONTINUOUS
 62
    4
 10
976.61200000000008
 20
1031.3901000000001
 11
979.06729999999993
 21
1031.7539999999999
  0
LINE
  8
_0-0_LAYER001
  6
CONTINUOUS
 62
    4
 10
979.06729999999993
 20
1031.7539999999999
 11
983.28140000000008
 21
1032.3824999999999
  0
LINE
  8
_0-0_LAYER001
  6
CONTINUOUS
 62
    4
 10
983.28140000000008
 20
1032.3824999999999
 11
987.49299999999994
 21
1033.0150000000001
  0
LINE
  8
_0-0_LAYER001
  6
CONTINUOUS
 62
    4
 10
987.49299999999994
 20
1033.0150000000001
 11
991.69969999999989
 21
1033.6501000000001
  0
LINE
  8
_0-0_LAYER001
  6
CONTINUOUS
 62
    4
 10
991.69969999999989
 20
1033.6501000000001
 11
995.90190000000007
 21
1034.2869000000001
  0
LINE
  8
_0-0_LAYER001
  6
CONTINUOUS
 62
    4
 10
995.90190000000007
 20
1034.2869000000001
 11
1000.0998
 21
1034.9245000000001
  0
LINE
  8
_0-0_LAYER001
  6
CONTINUOUS
 62
    4
 10
1000.0998
 20
1034.9245000000001
 11
1001.7175
 21
1035.1704
  0
LINE
  8
_0-0_LAYER001
  6
CONTINUOUS
 62
    4
 10
1012.2263
 20
1038.2415000000001
 11
1012.2263
 21
1055.4389000000001
  0
LINE
  8
_0-0_LAYER001
  6
CONTINUOUS
 62
    4
 10
999.9529
 20
1053.1252999999999
 11
1044.4072000000001
 21
1062.7732000000001
  0
LINE
  8
_0-0_LAYER001
  6
CONTINUOUS
 62
    4
 10
1006.6981000000001
 20
1033.2916
 11
1045.3698999999999
 21
1042.3416
  0
LINE
  8
_0-0_LAYER001
  6
CONTINUOUS
 62
    4
 10
1045.3698999999999
 20
1043.2981
 11
1045.3698999999999
 21
1042.3416
  0
ARC
  8
_0-0_LAYER001
  6
CONTINUOUS
 62
    4
 10
1046.3698999999999
 20
1043.2981
 40
1
 50
102.72435
 51
180
  0
LINE
  8
_0-0_LAYER001
  6
CONTINUOUS
 62
    4
 10
1051.1868999999999
 20
1045.4110000000001
 11
1046.1496
 21
1044.2735
  0
ARC
  8
_0-0_LAYER001
  6
CONTINUOUS
 62
    4
 10
1051.4072000000001
 20
1044.4355
 40
1
 50
0
 51
102.72435
  0
LINE
  8
_0-0_LAYER001
  6
CONTINUOUS
 62
    4
 10
1051.6192000000001
 20
1045.9194
 11
1001.4853000000001
 21
1035.0389
  0
ARC
  8
_0-0_LAYER001
  6
CONTINUOUS
 62
    4
 10
1051.4072000000001
 20
1046.8967
 40
1
 50
282.24497000000002
 51
0
  0
LINE
  8
_0-0_LAYER001
  6
CONTINUOUS
 62
    4
 10
1051.625
 20
1025.1786999999999
 11
1002.0409999999999
 21
1014.1107999999999
  0
LINE
  8
_0-0_LAYER001
  6
CONTINUOUS
 62
    4
 10
1052.4072000000001
 20
1026.1547
 11
1052.4072000000001
 21
1044.4355
  0
ARC
  8
_0-0_LAYER001
  6
CONTINUOUS
 62
    4
 10
1051.4072000000001
 20
1026.1547
 40
1
 50
282.58296000000001
 51
0.0000000000000254
  0
LINE
  8
_0-0_LAYER001
  6
CONTINUOUS
 62
    4
 10
1044.4072000000001
 20
1064.2302999999999
 11
1044.4072000000001
 21
1062.7732000000001
  0
ARC
  8
_0-0_LAYER001
  6
CONTINUOUS
 62
    4
 10
1045.4072000000001
 20
1064.2302999999999
 40
1
 50
101.73308
 51
180
  0
LINE
  8
_0-0_LAYER001
  6
CONTINUOUS
 62
    4
 10
1051.2038
 20
1066.4555
 11
1045.2038
 21
1065.2094
  0
LINE
  8
_0-0_LAYER001
  6
CONTINUOUS
 62
    4
 10
1052.4072000000001
 20
1065.4764
 11
1052.4072000000001
 21
1046.8967
  0
ARC
  8
_0-0_LAYER001
  6
CONTINUOUS
 62
    4
 10
1051.4072000000001
 20
1065.4764
 40
1
 50
0
 51
101.73308
  0
LINE
  8
_0-0_LAYER001
  6
DASHED1
 62
    2
 10
851.61799999999994
 20
1037.9946
 11
867.61799999999994
 21
1037.9946
  0
LINE
  8
_0-0_LAYER001
  6
DASHED1
 62
    2
 10
867.61799999999994
 20
1037.9946
 11
867.61799999999994
 21
1034.9946
  0
LINE
  8
_0-0_LAYER001
  6
DASHED1
 62
    2
 10
851.61799999999994
 20
1037.9946
 11
851.61799999999994
 21
1034.9946
  0
LINE
  8
_0-0_LAYER001
  6
DASHED1
 62
    2
 10
851.61799999999994
 20
1034.9946
 11
867.61799999999994
 21
1034.9946
  0
LINE
  8
_0-0_LAYER001
  6
DASHED1
 62
    2
 10
862.61799999999994
 20
980.09850000000006
 11
859.56790000000001
 21
965.58960000000002
  0
LINE
  8
_0-0_LAYER001
  6
DASHED1
 62
    2
 10
862.61799999999994
 20
1034.9946
 11
862.61799999999994
 21
980.09850000000006
  0
LINE
  8
_0-0_LAYER001
  6
DASHED1
 62
    2
 10
859.56790000000001
 20
965.58960000000002
 11
856.61799999999994
 21
979.84709999999995
  0
LINE
  8
_0-0_LAYER001
  6
DASHED1
 62
    2
 10
856.61799999999994
 20
1034.9946
 11
856.61799999999994
 21
979.84709999999995
  0
LINE
  8
_0-0_LAYER001
  6
DASHED1
 62
    2
 10
1116.6242999999999
 20
1035.2634
 11
1132.6242999999999
 21
1035.2634
  0
LINE
  8
_0-0_LAYER001
  6
DASHED1
 62
    2
 10
1132.6242999999999
 20
1035.2634
 11
1132.6242999999999
 21
1032.2634
  0
LINE
  8
_0-0_LAYER001
  6
DASHED1
 62
    2
 10
1116.6242999999999
 20
1035.2634
 11
1116.6242999999999
 21
1032.2634
  0
LINE
  8
_0-0_LAYER001
  6
DASHED1
 62
    2
 10
1116.6242999999999
 20
1032.2634
 11
1132.6242999999999
 21
1032.2634
  0
LINE
  8
_0-0_LAYER001
  6
DASHED1
 62
    2
 10
1127.6242999999999
 20
977.36729999999989
 11
1124.5741
 21
962.85840000000007
  0
LINE
  8
_0-0_LAYER001
  6
DASHED1
 62
    2
 10
1127.6242999999999
 20
1032.2634
 11
1127.6242999999999
 21
977.36729999999989
  0
LINE
  8
_0-0_LAYER001
  6
DASHED1
 62
    2
 10
1124.5741
 20
962.85840000000007
 11
1121.6242999999999
 21
977.11590000000001
  0
LINE
  8
_0-0_LAYER001
  6
DASHED1
 62
    2
 10
1121.6242999999999
 20
1032.2634
 11
1121.6242999999999
 21
977.11590000000001
  0
LINE
  8
_0-1_LAYER003
  6
CONTINUOUS
 62
    7
 10
1610.8814000000002
 20
1396.2695000000003
 11
1783.3814000000002
 21
1396.2695000000003
  0
LINE
  8
_0-1_LAYER003
  6
CONTINUOUS
 62
    7
 10
1768.8613999999998
 20
1334.8708999999999
 11
1728.3613999999998
 21
1334.8708999999999
  0
LINE
  8
_0-1_LAYER003
  6
CONTINUOUS
 62
    7
 10
1873.616
 20
1397.2554
 11
1873.616
 21
748.57140000000004
  0
LINE
  8
_0-1_LAYER003
  6
CONTINUOUS
 62
    7
 10
1919.7557000000002
 20
824.31359999999995
 11
2120.7557000000002
 21
824.31359999999995
  0
LINE
  8
_0-1_LAYER003
  6
CONTINUOUS
 62
    7
 10
1922.2301000000002
 20
905.55199999999991
 11
2085.7301000000002
 21
905.55199999999991
  0
LINE
  8
_0-1_LAYER003
  6
CONTINUOUS
 62
    7
 10
1011.8891000000001
 20
776.17329999999993
 11
1216.7118
 21
776.17329999999993
  0
LINE
  8
_0-1_LAYER003
  6
CONTINUOUS
 62
    7
 10
957.64820000000009
 20
746.19229999999993
 11
1199.4022119129465
 21
746.19229999999993
  0
LINE
  8
_0-1_LAYER003
  6
CONTINUOUS
 62
    7
 10
1010.3553999999999
 20
716.09699999999998
 11
1182.0266859669093
 21
716.09699999999998
  0
LINE
  8
_0-1_LAYER003
  6
CONTINUOUS
 62
    7
 10
1095.6190999999999
 20
686.23039999999992
 11
1164.7832000000001
 21
686.23039999999992
  0
LINE
  8
_0-1_LAYER003
  6
CONTINUOUS
 62
    7
 10
964.61599999999999
 20
968.42740000000003
 11
964.61599999999999
 21
908.42740000000003
  0
LINE
  8
_0-1_LAYER003
  6
CONTINUOUS
 62
    7
 10
964.61599999999999
 20
908.42740000000003
 11
904.61599999999999
 21
908.42740000000003
  0
LINE
  8
_0-1_LAYER003
  6
CONTINUOUS
 62
    7
 10
904.61599999999999
 20
908.42740000000003
 11
904.61599999999999
 21
968.42740000000003
  0
LINE
  8
_0-1_LAYER003
  6
CONTINUOUS
 62
    7
 10
1207.616
 20
968.42740000000003
 11
1207.616
 21
908.42740000000003
  0
LINE
  8
_0-1_LAYER003
  6
CONTINUOUS
 62
    7
 10
1207.616
 20
908.42740000000003
 11
1267.616
 21
908.42740000000003
  0
LINE
  8
_0-1_LAYER003
  6
CONTINUOUS
 62
    7
 10
1267.616
 20
908.42740000000003
 11
1267.616
 21
968.42740000000003
  0
LINE
  8
_0-1_LAYER003
  6
CONTINUOUS
 62
    7
 10
1510.616
 20
968.42740000000003
 11
1510.616
 21
908.42740000000003
  0
LINE
  8
_0-1_LAYER003
  6
CONTINUOUS
 62
    7
 10
1510.616
 20
908.42740000000003
 11
1570.616
 21
908.42740000000003
  0
LINE
  8
_0-1_LAYER003
  6
CONTINUOUS
 62
    7
 10
1570.616
 20
908.42740000000003
 11
1570.616
 21
968.42740000000003
  0
LINE
  8
_0-1_LAYER003
  6
CONTINUOUS
 62
    7
 10
1813.616
 20
968.42740000000003
 11
1813.616
 21
908.42740000000003
  0
LINE
  8
_0-1_LAYER003
  6
CONTINUOUS
 62
    7
 10
1813.616
 20
908.42740000000003
 11
1871.19257229706
 21
908.42740000000003
  0
LINE
  8
_0-1_LAYER003
  6
CONTINUOUS
 62
    7
 10
1873.616
 20
968.42740000000003
 11
844.69599999999991
 21
968.42740000000003
  0
LINE
  8
_0-1_LAYER003
  6
CONTINUOUS
 62
    7
 10
1011.7652
 20
876.21469999999999
 11
1011.7652
 21
824.51469999999995
  0
LINE
  8
_0-1_LAYER003
  6
CONTINUOUS
 62
    7
 10
1011.7652
 20
826.21469999999999
 11
1846.7651999999998
 21
826.21469999999999
  0
LINE
  8
_0-1_LAYER003
  6
CONTINUOUS
 62
    7
 10
1846.7651999999998
 20
823.71469999999999
 11
1846.7651999999998
 21
875.75949999999989
  0
LINE
  8
_0-1_LAYER003
  6
CONTINUOUS
 62
    7
 10
1851.279
 20
925.75949999999989
 11
1851.279
 21
875.75949999999989
  0
LINE
  8
_0-1_LAYER003
  6
CONTINUOUS
 62
    7
 10
1851.279
 20
877.45949999999993
 11
1851.279
 21
873.25949999999989
  0
LINE
  8
_0-1_LAYER003
  6
CONTINUOUS
 62
    7
 10
1851.279
 20
875.75949999999989
 11
1731.7049999999999
 21
875.75949999999989
  0
LINE
  8
_0-1_LAYER003
  6
CONTINUOUS
 62
    7
 10
1731.7049999999999
 20
873.25949999999989
 11
1731.7049999999999
 21
925.75949999999989
  0
LINE
  8
_0-1_LAYER003
  6
CONTINUOUS
 62
    7
 10
1916.2066
 20
980.42740000000003
 11
1967.9066
 21
980.42740000000003
  0
LINE
  8
_0-1_LAYER003
  6
CONTINUOUS
 62
    7
 10
1966.2066
 20
980.42740000000003
 11
1966.2066
 21
1074.5147999999999
  0
LINE
  8
_0-1_LAYER003
  6
CONTINUOUS
 62
    7
 10
1916.2066
 20
1074.5147999999999
 11
1967.9066
 21
1074.5147999999999
  0
LINE
  8
_0-1_LAYER003
  6
CONTINUOUS
 62
    7
 10
1975.2085000000002
 20
980.42740000000003
 11
2026.9085
 21
980.42740000000003
  0
LINE
  8
_0-1_LAYER003
  6
CONTINUOUS
 62
    7
 10
2025.2085000000002
 20
980.42740000000003
 11
2025.2085000000002
 21
1280.4284000000002
  0
LINE
  8
_0-1_LAYER003
  6
CONTINUOUS
 62
    7
 10
1975.2085000000002
 20
1280.4284000000002
 11
2025.2085000000002
 21
1280.4284000000002
  0
LINE
  8
_0-1_LAYER003
  6
CONTINUOUS
 62
    7
 10
2025.2085000000002
 20
1280.4284000000002
 11
2027.7085000000002
 21
1280.4284000000002
  0
LINE
  8
_0-1_LAYER003
  6
CONTINUOUS
 62
    7
 10
2057.3289
 20
1274.7911999999999
 11
2109.0289000000002
 21
1274.7911999999999
  0
LINE
  8
_0-1_LAYER003
  6
CONTINUOUS
 62
    7
 10
2107.3289
 20
1274.7911999999999
 11
2107.3289
 21
980.42740000000003
  0
LINE
  8
_0-1_LAYER003
  6
CONTINUOUS
 62
    7
 10
2109.8289
 20
980.42740000000003
 11
2057.3289
 21
980.42740000000003
  0
LINE
  8
_0-1_LAYER003
  6
CONTINUOUS
 62
    7
 10
2057.3289
 20
1124.7911999999999
 11
2109.8289
 21
1124.7911999999999
  0
LINE
  8
_0-1_LAYER003
  6
CONTINUOUS
 62
    7
 10
1978.1632
 20
1155.0175999999999
 11
1897.1632
 21
1155.0175999999999
  0
LINE
  8
_0-1_LAYER003
  6
CONTINUOUS
 62
    7
 10
1591.9463999999998
 20
1280.4395
 11
1738.9463999999998
 21
1280.4395
  0
LINE
  8
_0-1_LAYER003
  6
CONTINUOUS
 62
    7
 10
1739.2145999999998
 20
1235.9591
 11
1505.2145999999998
 21
1235.9591
  0
LINE
  8
_0-1_LAYER003
  6
CONTINUOUS
 62
    7
 10
1850.616
 20
1397.2554
 11
1850.616
 21
1123.9631999999999
  0
LINE
  8
_0-1_LAYER003
  6
CONTINUOUS
 62
    7
 10
1850.616
 20
1123.9631999999999
 11
1838.616
 21
1123.9631999999999
  0
LINE
  8
_0-1_LAYER003
  6
CONTINUOUS
 62
    7
 10
1838.616
 20
1123.9631999999999
 11
1838.616
 21
1397.2554
  0
LINE
  8
_0-1_LAYER003
  6
CONTINUOUS
 62
    7
 10
1763.616
 20
1190.5709999999999
 11
1763.616
 21
1186.3709999999999
  0
LINE
  8
_0-1_LAYER003
  6
CONTINUOUS
 62
    7
 10
1763.616
 20
1188.0709999999999
 11
1838.616
 21
1188.0709999999999
  0
LINE
  8
_0-1_LAYER003
  6
CONTINUOUS
 62
    7
 10
1763.616
 20
1186.3709999999999
 11
1763.616
 21
1173.0709999999999
  0
LINE
  8
_0-1_LAYER003
  6
CONTINUOUS
 62
    7
 10
1850.616
 20
1180.4176
 11
1868.616
 21
1180.4176
  0
LINE
  8
_0-1_LAYER003
  6
CONTINUOUS
 62
    7
 10
1868.616
 20
1180.4176
 11
1868.616
 21
1140.4176
  0
LINE
  8
_0-1_LAYER003
  6
CONTINUOUS
 62
    7
 10
1868.616
 20
1140.4176
 11
1850.616
 21
1140.4176
  0
LINE
  8
_0-1_LAYER003
  6
CONTINUOUS
 62
    7
 10
1870.0309999999999
 20
1124.7911999999999
 11
1870.0309999999999
 21
1274.7911999999999
  0
LINE
  8
_0-1_LAYER003
  6
CONTINUOUS
 62
    7
 10
1871.2930000000001
 20
1280.4274
 11
1871.2930000000001
 21
982.92440000000011
  0
LINE
  8
_0-1_LAYER003
  6
CONTINUOUS
 62
    7
 10
1871.2930000000001
 20
982.92440000000011
 11
844.69599999999991
 21
982.92440000000011
  0
LINE
  8
_0-1_LAYER003
  6
CONTINUOUS
 62
    7
 10
844.69599999999991
 20
980.42740000000003
 11
1873.616
 21
980.42740000000003
  0
LINE
  8
_0-1_LAYER003
  6
CONTINUOUS
 62
    7
 10
1868.8099999999999
 20
984.6733999999999
 11
1853.8099999999999
 21
984.6733999999999
  0
LINE
  8
_0-1_LAYER003
  6
CONTINUOUS
 62
    7
 10
1853.8099999999999
 20
984.6733999999999
 11
1853.8099999999999
 21
1074.5147999999999
  0
LINE
  8
_0-1_LAYER003
  6
CONTINUOUS
 62
    7
 10
1853.8099999999999
 20
1074.5147999999999
 11
1868.8099999999999
 21
1074.5147999999999
  0
LINE
  8
_0-1_LAYER003
  6
CONTINUOUS
 62
    7
 10
1868.8099999999999
 20
1074.5147999999999
 11
1868.8099999999999
 21
984.6733999999999
  0
LINE
  8
_0-1_LAYER003
  6
CONTINUOUS
 62
    7
 10
1873.616
 20
1074.5147999999999
 11
1843.616
 21
1074.5147999999999
  0
LINE
  8
_0-1_LAYER003
  6
CONTINUOUS
 62
    7
 10
1843.616
 20
1074.5147999999999
 11
1843.616
 21
1102.0107
  0
LINE
  8
_0-1_LAYER003
  6
CONTINUOUS
 62
    7
 10
1857.2863879625052
 20
1104.5147999999999
 11
1873.616
 21
1104.5147999999999
  0
LINE
  8
_0-1_LAYER003
  6
CONTINUOUS
 62
    7
 10
1851.279
 20
1070.2462
 11
1851.279
 21
985.29940000000011
  0
LINE
  8
_0-1_LAYER003
  6
CONTINUOUS
 62
    7
 10
1851.279
 20
985.29940000000011
 11
1731.7049999999999
 21
985.29940000000011
  0
LINE
  8
_0-1_LAYER003
  6
CONTINUOUS
 62
    7
 10
1731.7049999999999
 20
985.29940000000011
 11
1731.7049999999999
 21
1000.4126000000001
  0
LINE
  8
_0-1_LAYER003
  6
CONTINUOUS
 62
    7
 10
1748.4350247698144
 20
1000.4126000000001
 11
1731.7049999999999
 21
1000.4126000000001
  0
LINE
  8
_0-1_LAYER003
  6
CONTINUOUS
 62
    7
 10
1726.4299999999998
 20
1000.4126000000001
 11
1726.4299999999998
 21
985.41260000000011
  0
LINE
  8
_0-1_LAYER003
  6
CONTINUOUS
 62
    7
 10
1726.4299999999998
 20
985.41260000000011
 11
856.61799999999994
 21
985.41260000000011
  0
LINE
  8
_0-1_LAYER003
  6
CONTINUOUS
 62
    7
 10
844.69599999999991
 20
985.41260000000011
 11
856.61799999999994
 21
985.41260000000011
  0
LINE
  8
_0-1_LAYER003
  6
CONTINUOUS
 62
    7
 10
844.69599999999991
 20
1000.4126000000001
 11
1726.4299999999998
 21
1000.4126000000001
  0
LINE
  8
_0-1_LAYER003
  6
CONTINUOUS
 62
    7
 10
1919.7557000000002
 20
824.31359999999995
 11
1826.8105
 21
985.29940000000011
  0
LINE
  8
_0-1_LAYER003
  6
CONTINUOUS
 62
    7
 10
1826.8105
 20
985.29940000000011
 11
1831.6824999999999
 21
980.42740000000003
  0
LINE
  8
_0-1_LAYER003
  6
CONTINUOUS
 62
    7
 10
1826.8105
 20
985.29940000000011
 11
1828.7516999999998
 21
978.05500000000006
  0
LINE
  8
_0-1_LAYER003
  6
CONTINUOUS
 62
    7
 10
1828.7516999999998
 20
978.05500000000006
 11
1826.8105
 21
985.29940000000011
  0
LINE
  8
_0-1_LAYER003
  6
CONTINUOUS
 62
    7
 10
1873.616
 20
968.42740000000003
 11
1813.616
 21
908.42740000000003
  0
LINE
  8
_0-1_LAYER003
  6
CONTINUOUS
 62
    7
 10
1922.2301000000002
 20
905.55199999999991
 11
1861.4371999999998
 21
1010.8484000000001
  0
LINE
  8
_0-1_LAYER003
  6
CONTINUOUS
 62
    7
 10
1861.4371999999998
 20
1010.8484000000001
 11
1866.7404999999999
 21
1005.5451
  0
LINE
  8
_0-1_LAYER003
  6
CONTINUOUS
 62
    7
 10
1861.4371999999998
 20
1010.8484000000001
 11
1863.3784000000001
 21
1003.6039000000001
  0
LINE
  8
_0-1_LAYER003
  6
CONTINUOUS
 62
    7
 10
1868.8099999999999
 20
984.6733999999999
 11
1853.8099999999999
 21
1074.5147999999999
  0
LINE
  8
_0-1_LAYER003
  6
CONTINUOUS
 62
    7
 10
1851.279
 20
1070.2462
 11
1846.5479
 21
1063.0998999999999
  0
LINE
  8
_0-1_LAYER003
  6
CONTINUOUS
 62
    7
 10
1843.616
 20
1074.5147999999999
 11
1873.616
 21
1104.5147999999999
  0
LINE
  8
_0-1_LAYER003
  6
CONTINUOUS
 62
    7
 10
1861.9411
 20
1097.8933999999999
 11
1859.9998999999998
 21
1090.6488999999999
  0
LINE
  8
_0-1_LAYER003
  6
CONTINUOUS
 62
    7
 10
1859.9998999999998
 20
1090.6488999999999
 11
1865.3031999999998
 21
1095.9521999999999
  0
LINE
  8
_0-1_LAYER003
  6
CONTINUOUS
 62
    7
 10
1859.9998999999998
 20
1090.6488999999999
 11
1897.1632
 21
1155.0175999999999
  0
LINE
  8
_0-1_LAYER003
  6
CONTINUOUS
 62
    7
 10
1850.616
 20
1140.4176
 11
1868.616
 21
1180.4176
  0
LINE
  8
_0-1_LAYER003
  6
CONTINUOUS
 62
    7
 10
1858.3072000000002
 20
1176.0639000000001
 11
1863.6104999999998
 21
1170.7606000000001
  0
LINE
  8
_0-1_LAYER003
  6
CONTINUOUS
 62
    7
 10
1863.6104999999998
 20
1170.7606000000001
 11
1861.6694000000002
 21
1178.0050000000001
  0
LINE
  8
_0-1_LAYER003
  6
CONTINUOUS
 62
    7
 10
1863.6104999999998
 20
1170.7606000000001
 11
1768.8613999999998
 21
1334.8708999999999
  0
LINE
  8
_0-1_LAYER003
  6
CONTINUOUS
 62
    7
 10
1844.4571000000001
 20
1290.4834000000001
 11
1842.5158999999999
 21
1297.7277999999999
  0
LINE
  8
_0-1_LAYER003
  6
CONTINUOUS
 62
    7
 10
1844.4571000000001
 20
1290.4834000000001
 11
1839.1538
 21
1295.7867000000001
  0
LINE
  8
_0-1_LAYER003
  6
CONTINUOUS
 62
    7
 10
1844.4571000000001
 20
1290.4834000000001
 11
1783.3814000000002
 21
1396.2695000000003
  0
LINE
  8
_0-1_LAYER003
  6
CONTINUOUS
 62
    7
 10
1738.9463999999998
 20
1280.4395
 11
1836.8150000000001
 21
1110.9260999999999
  0
LINE
  8
_0-1_LAYER003
  6
CONTINUOUS
 62
    7
 10
1836.8150000000001
 20
1110.9260999999999
 11
1834.8737999999998
 21
1118.1705999999999
  0
LINE
  8
_0-1_LAYER003
  6
CONTINUOUS
 62
    7
 10
1836.8150000000001
 20
1110.9260999999999
 11
1831.5117
 21
1116.2293999999999
  0
LINE
  8
_0-1_LAYER003
  6
CONTINUOUS
 62
    7
 10
1858.681
 20
1120.0192
 11
1861.3829999999998
 21
1105.2652
  0
LINE
  8
_0-1_LAYER003
  6
CONTINUOUS
 62
    7
 10
1861.3829999999998
 20
1105.2652
 11
1772.8560000000002
 21
1089.0491999999999
  0
LINE
  8
_0-1_LAYER003
  6
CONTINUOUS
 62
    7
 10
1772.8560000000002
 20
1089.0491999999999
 11
1770.1529999999998
 21
1103.8042
  0
LINE
  8
_0-1_LAYER003
  6
CONTINUOUS
 62
    7
 10
1770.1529999999998
 20
1103.8042
 11
1858.681
 21
1120.0192
  0
LINE
  8
_0-1_LAYER003
  6
CONTINUOUS
 62
    7
 10
1861.3829999999998
 20
1105.2652
 11
1770.1529999999998
 21
1103.8042
  0
LINE
  8
_0-1_LAYER003
  6
CONTINUOUS
 62
    7
 10
1761.2350000000001
 20
1079.7084
 11
1766.5320000000002
 21
1085.6674
  0
LINE
  8
_0-1_LAYER003
  6
CONTINUOUS
 62
    7
 10
1761.2350000000001
 20
1079.7084
 11
1763.616
 21
1105.2994000000001
  0
LINE
  8
_0-1_LAYER003
  6
CONTINUOUS
 62
    7
 10
1763.616
 20
1105.2994000000001
 11
1870.0309999999999
 21
1124.7911999999999
  0
LINE
  8
_0-1_LAYER003
  6
CONTINUOUS
 62
    7
 10
1808.3135000000002
 20
1120.1585
 11
1810.2547
 21
1112.914
  0
LINE
  8
_0-1_LAYER003
  6
CONTINUOUS
 62
    7
 10
1810.2547
 20
1112.914
 11
1804.9513999999999
 21
1118.2173
  0
LINE
  8
_0-1_LAYER003
  6
CONTINUOUS
 62
    7
 10
1810.2547
 20
1112.914
 11
1739.2145999999998
 21
1235.9591
  0
LINE
  8
_0-1_LAYER003
  6
CONTINUOUS
 62
    7
 10
1541.7651999999998
 20
824.51469999999995
 11
1541.7651999999998
 21
876.21469999999999
  0
LINE
  8
_0-1_LAYER003
  6
CONTINUOUS
 62
    7
 10
1510.616
 20
908.42740000000003
 11
1570.616
 21
968.42740000000003
  0
LINE
  8
_0-1_LAYER003
  6
CONTINUOUS
 62
    7
 10
1415.0781000000002
 20
1078.4953
 11
1455.5781000000002
 21
1078.4953
  0
LINE
  8
_0-1_LAYER003
  6
CONTINUOUS
 62
    7
 10
1455.5781000000002
 20
1078.4953
 11
1496.1176999999998
 21
1008.2788
  0
LINE
  8
_0-1_LAYER003
  6
CONTINUOUS
 62
    7
 10
1496.1176999999998
 20
1008.2788
 11
1494.1765
 21
1015.5232000000001
  0
LINE
  8
_0-1_LAYER003
  6
CONTINUOUS
 62
    7
 10
1496.1176999999998
 20
1008.2788
 11
1490.8144000000002
 21
1013.5821000000001
  0
LINE
  8
_0-1_LAYER003
  6
CONTINUOUS
 62
    7
 10
1340.7201
 20
994.84439999999995
 11
1346.0234
 21
1000.1477
  0
LINE
  8
_0-1_LAYER003
  6
CONTINUOUS
 62
    7
 10
1346.0234
 20
1000.1477
 11
1344.0823
 21
992.90319999999997
  0
LINE
  8
_0-1_LAYER003
  6
CONTINUOUS
 62
    7
 10
1346.0234
 20
1000.1477
 11
1164.7832000000001
 21
686.23039999999992
  0
LINE
  8
_0-1_LAYER003
  6
CONTINUOUS
 62
    7
 10
1276.7652
 20
823.71469999999999
 11
1276.7652
 21
876.21469999999999
  0
LINE
  8
_0-1_LAYER003
  6
CONTINUOUS
 62
    7
 10
1207.616
 20
908.42740000000003
 11
1267.616
 21
968.42740000000003
  0
LINE
  8
_0-1_LAYER003
  6
CONTINUOUS
 62
    7
 10
904.61599999999999
 20
908.42740000000003
 11
964.61599999999999
 21
968.42740000000003
  0
TEXT
  8
_0-0_LAYER001
 62
    7
 10
1610.8814000000002
 20
1398.7695000000008
 40
20
 41
1
 50
0
  1
外壁　防火サイディング
  0
TEXT
  8
_0-0_LAYER001
 62
    7
 10
1728.3614
 20
1337.3709000000008
 40
20
 41
1
 50
0
  1
胴　縁
  0
TEXT
  8
_0-0_LAYER001
 62
    7
 10
1922.2301000000011
 20
908.0520000000007
 40
20
 41
1
 50
0
  1
　下地材：１５ｘ９０
  0
TEXT
  8
_0-0_LAYER001
 62
    7
 10
1591.9463999999998
 20
1282.9395000000004
 40
20
 41
1
 50
0
  1
笠木：１５ｘ９０
  0
TEXT
  8
_0-0_LAYER001
 62
    7
 10
1100.283200000001
 20
688.7304000000006
 40
20
 41
1
 50
0
  1
　垂木　
  0
TEXT
  8
_0-3_LAYER006
 62
    7
 10
2021.372605529164
 20
1121.5041547999824
 40
20
 41
1
 50
90
  1
300
  0
TEXT
  8
_0-0_LAYER001
 62
    7
 10
1412.0506973244169
 20
1086.0578835731544
 40
20
 41
1
 50
0
  1
桟　瓦
  0
TEXT
  8
_0-0_LAYER001
 62
    7
 10
973.21250588418138
 20
780.63851055574617
 40
20
 41
1
 50
0
  1
　瓦桟：１５ｘ３０以上　
  0
TEXT
  8
_0-0_LAYER001
 62
    7
 10
952.57004831458039
 20
716.99093304947633
 40
20
 41
1
 50
0
  1
　野地板：杉ｔ＝１２　
  0
TEXT
  8
_0-0_LAYER001
 62
    7
 10
953.40229999999997
 20
748.69229999999959
 40
20
 41
1
 50
0
  1
　下葺材：ルーフィング
  0
TEXT
  8
_0-0_LAYER001
 62
    7
 10
1134.7521138327929
 20
849.00264580328076
 40
20
 41
1
 50
0
  1
265
  0
TEXT
  8
_0-0_LAYER001
 62
    7
 10
1397.0480446687889
 20
841.61402803325257
 40
20
 41
1
 50
0
  1
265
  0
TEXT
  8
_0-0_LAYER001
 62
    7
 10
1683.3569832573755
 20
845.3083369182666
 40
20
 41
1
 50
0
  1
305
  0
TEXT
  8
_0-0_LAYER001
 62
    7
 10
1774.8279415036893
 20
885.57100320121833
 40
20
 41
1
 50
0
  1
120
  0
TEXT
  8
_0-0_LAYER001
 62
    7
 10
1954.888686305907
 20
1022.63516339894
 40
20
 41
1
 50
90
  1
95
  0
TEXT
  8
_0-1_LAYER003
 62
    7
 10
1904.577271540265
 20
1161.8778504998486
 40
20
 41
1
 50
0
  1
30×30
  0
TEXT
  8
_0-0_LAYER001
 62
    7
 10
1792.339095365289
 20
1196.2676809945988
 40
20
 41
1
 50
0
  1
75
  0
TEXT
  8
_0-0_LAYER001
 62
    7
 10
2095.2724239364393
 20
1042.9538622665173
 40
20
 41
1
 50
90
  1
145
  0
TEXT
  8
_0-0_LAYER001
 62
    7
 10
2091.5781150514249
 20
1190.7262176670777
 40
20
 41
1
 50
90
  1
150
  0
TEXT
  8
_0-2_LAYER004
 62
    7
 10
2149.8325873514423
 20
1071.3531213276278
 40
20
 41
1
 50
90
  1
水切り立上がり寸法
  0
TEXT
  8
_0-1_LAYER003
 62
    7
 10
2056.9415282882374
 20
1064.4723021377608
 40
20
 41
1
 50
90
  1
下葺き材立上がり寸法
  0
TEXT
  8
_0-0_LAYER001
 62
    7
 10
1919.3251444908969
 20
832.24465447974899
 40
20
 41
1
 50
0
  1
捨谷カラー鋼板0.35ｍｍ以上
  0
TEXT
  8
_0-0_LAYER001
 62
    7
 10
1430.7869820103383
 20
1241.6533962768367
 40
20
 41
1
 50
0
  1
雨押水切カラー鋼板0.35ｍｍ以上
  0
ENDSEC
  0
EOF
