  0
SECTION
  2
HEADER
  9
$ACADVER
  1
AC1009
  9
$INSBASE
 10
0
 20
0
 30
0
  9
$EXTMIN
 10
0
 20
0
  9
$EXTMAX
 10
2970
 20
2100
  9
$LIMMIN
 10
0
 20
0
  9
$LIMMAX
 10
2970
 20
2100
  9
$LTSCALE
 40
10
  0
ENDSEC
  0
SECTION
  2
TABLES
  0
TABLE
  2
LTYPE
 70
     9
  0
LTYPE
  2
CONTINUOUS
 70
    64
  3
実線
 72
    65
 73
     0
 40
0.0
  0
LTYPE
  2
DASHED1
 70
    64
  3
--  --  --  --  --  --  --  --  
 72
    65
 73
     2
 40
2.5
 49
1.25
 49
-1.25
  0
LTYPE
  2
DASHED2
 70
    64
  3
----    ----    ----    ----    
 72
    65
 73
     2
 40
5.0
 49
2.5
 49
-2.5
  0
LTYPE
  2
DASHED3
 70
    64
  3
------  ------  ------  ------  
 72
    65
 73
     2
 40
5.0
 49
3.75
 49
-1.25
  0
LTYPE
  2
CENTER1
 70
    64
  3
----- - ----- - ----- - ----- - 
 72
    65
 73
     4
 40
10.0
 49
6.25
 49
-1.25
 49
1.25
 49
-1.25
  0
LTYPE
  2
CENTER2
 70
    64
  3
----------  --  ----------  --  
 72
    65
 73
     4
 40
20.0
 49
12.5
 49
-2.5
 49
2.5
 49
-2.5
  0
LTYPE
  2
PHANTOM1
 70
    64
  3
--- - - --- - - --- - - --- - - 
 72
    65
 73
     6
 40
10.0
 49
3.25
 49
-1.25
 49
1.25
 49
-1.25
 49
1.25
 49
-1.25
  0
LTYPE
  2
PHANTOM2
 70
    64
  3
--------  -  -  --------  -  -  
 72
    65
 73
     6
 40
20.0
 49
10.0
 49
-2.5
 49
1.25
 49
-2.5
 49
1.25
 49
-2.5
  0
LTYPE
  2
DOT
 70
    64
  3
-   -   -   -   -   -   -   -   
 72
    65
 73
     2
 40
2.5
 49
0.625
 49
-1.875
  0
LTYPE
  2
DUMMY
 70
    64
  3
ダミー
 72
    65
 73
     0
 40
0.0
  0
LTYPE
  2
RAND1
 70
    64
  3
ランダム線1
 72
    65
 73
     4
 40
10.0
 49
1.0
 49
-2.0
 49
3.0
 49
-4.0
  0
LTYPE
  2
RAND2
 70
    64
  3
ランダム線2
 72
    65
 73
     4
 40
14.0
 49
2.0
 49
-3.0
 49
4.0
 49
-5.0
  0
LTYPE
  2
RAND3
 70
    64
  3
ランダム線3
 72
    65
 73
     4
 40
18.0
 49
3.0
 49
-4.0
 49
5.0
 49
-6.0
  0
LTYPE
  2
RAND4
 70
    64
  3
ランダム線4
 72
    65
 73
     4
 40
22.0
 49
4.0
 49
-5.0
 49
6.0
 49
-7.0
  0
LTYPE
  2
RAND5
 70
    64
  3
ランダム線5
 72
    65
 73
     4
 40
26.0
 49
5.0
 49
-6.0
 49
7.0
 49
-8.0
  0
LTYPE
  2
LONG1
 70
    64
  3
----------  --  ----------  --  
 72
    65
 73
     4
 40
40.0
 49
32.5
 49
-2.5
 49
2.5
 49
-2.5
  0
LTYPE
  2
LONG2
 70
    64
  3
--------  -  -  --------  -  -  
 72
    65
 73
     6
 40
40.0
 49
30.0
 49
-2.5
 49
1.25
 49
-2.5
 49
1.25
 49
-2.5
  0
LTYPE
  2
LONG3
 70
    64
  3
+++++++++++++++..+++++++++++++++
 72
    65
 73
     2
 40
40.0
 49
37.5
 49
-2.5
  0
LTYPE
  2
LONG4
 70
    64
  3
+++++++++++++++..+++++++++++++++
 72
    65
 73
     2
 40
80.0
 49
75.0
 49
-5.0
  0
LTYPE
  2
LONG5
 70
    64
  3
----------  --  ----------  --  
 72
    65
 73
     4
 40
60.0
 49
37.5
 49
-7.5
 49
7.5
 49
-7.5
  0
LTYPE
  2
dashed
 70
   64
  3
-------   -------------   ------
 72
   65
 73
    2
 40
7.5
 49
6
 49
-1.5
  0
LTYPE
  2
dashed_spaced
 70
   64
  3
----        --------        ----
 72
   65
 73
    2
 40
12
 49
6
 49
-6
  0
LTYPE
  2
long_dashed_dotted
 70
   64
  3
------------- --- --------------
 72
   65
 73
    4
 40
15.25
 49
12
 49
-1.5
 49
0.25
 49
-1.5
  0
LTYPE
  2
long_dashed_double-dotted
 70
   64
  3
----------- --- --- ------------
 72
   65
 73
    6
 40
17
 49
12
 49
-1.5
 49
0.25
 49
-1.5
 49
0.25
 49
-1.5
  0
LTYPE
  2
long_dashed_triplicate-dotted
 70
   64
  3
--------- --- --- --- ----------
 72
   65
 73
    8
 40
18.75
 49
12
 49
-1.5
 49
0.25
 49
-1.5
 49
0.25
 49
-1.5
 49
0.25
 49
-1.5
  0
LTYPE
  2
dotted
 70
   64
  3
   -       -       -       -    
 72
   65
 73
    2
 40
1.75
 49
0.25
 49
-1.5
  0
LTYPE
  2
chain
 70
   64
  3
-------------- -- --------------
 72
   65
 73
    4
 40
18.5
 49
12
 49
-1.5
 49
3.5
 49
-1.5
  0
LTYPE
  2
chain_double_dash
 70
   64
  3
------------ -- -- -------------
 72
   65
 73
    6
 40
23.5
 49
12
 49
-1.5
 49
3.5
 49
-1.5
 49
3.5
 49
-1.5
  0
LTYPE
  2
dashed_dotted
 70
   64
  3
-----------     -     ----------
 72
   65
 73
    4
 40
9.25
 49
6
 49
-1.5
 49
0.25
 49
-1.5
  0
LTYPE
  2
double-dashed_dotted
 70
   64
  3
------   -----------   -   -----
 72
   65
 73
    6
 40
16.75
 49
6
 49
-1.5
 49
6
 49
-1.5
 49
0.25
 49
-1.5
  0
LTYPE
  2
dashed_double-dotted
 70
   64
  3
---------    -    -    ---------
 72
   65
 73
    6
 40
11
 49
6
 49
-1.5
 49
0.25
 49
-1.5
 49
0.25
 49
-1.5
  0
LTYPE
  2
double-dashed_double-dotted
 70
   64
  3
-----   ---------   -   -   ----
 72
   65
 73
    8
 40
18.5
 49
6
 49
-1.5
 49
6
 49
-1.5
 49
0.25
 49
-1.5
 49
0.25
 49
-1.5
  0
LTYPE
  2
dashed_triplicate-dotted
 70
   64
  3
-------    -    -    -    ------
 72
   65
 73
    8
 40
12.75
 49
6
 49
-1.5
 49
0.25
 49
-1.5
 49
0.25
 49
-1.5
 49
0.25
 49
-1.5
  0
LTYPE
  2
double-dashed_triplicate-dotted
 70
   64
  3
-----  ---------  -  -  -  -----
 72
   65
 73
   10
 40
20.25
 49
6
 49
-1.5
 49
6
 49
-1.5
 49
0.25
 49
-1.5
 49
0.25
 49
-1.5
 49
0.25
 49
-1.5
  0
LTYPE
  2
undefined
 70
   64
  3
--------------------------------
 72
   65
 73
    0
 40
0
  0
ENDTAB
  0
TABLE
  2
STYLE
  5
3
100
AcDbSymbolTable
 70
     1
  0
STYLE
  5
10
100
AcDbSymbolTableRecord
100
AcDbTextStyleTableRecord
  2
STANDARD
 70
     0
 40
0.0
 41
1.0
 50
0.0
 71
     0
 42
0.2
  3
txt
  4
bigfont.shx
  0
STYLE
  5
26
100
AcDbSymbolTableRecord
100
AcDbTextStyleTableRecord
  2
TATEGAKI
 70
    68
 40
0.0
 41
1.0
 50
0.0
 71
     0
 42
1.0
  3
txt
  4
bigfont.shx
  0
ENDTAB
  0
TABLE
  2
LAYER
 70
    7
  0
LAYER
  2
_0-0_LAYER001
 70
   64
 62
    7
  6
CONTINUOUS
  0
LAYER
  2
_0-1_LAYER003
 70
   64
 62
    7
  6
CONTINUOUS
  0
LAYER
  2
_0-2_LAYER004
 70
   64
 62
    7
  6
CONTINUOUS
  0
LAYER
  2
_0-3_LAYER005
 70
   64
 62
    7
  6
CONTINUOUS
  0
LAYER
  2
_0-4_LAYER006
 70
   64
 62
    7
  6
CONTINUOUS
  0
LAYER
  2
_0-5_LAYER007
 70
   64
 62
    7
  6
CONTINUOUS
  0
LAYER
  2
ADD_LINE
 70
   64
 62
    7
  6
CONTINUOUS
  0
ENDTAB
  0
ENDSEC
  0
SECTION
  2
BLOCKS
  0
ENDSEC
  0
SECTION
  2
ENTITIES
  0
LINE
  8
_0-0_LAYER001
  6
CONTINUOUS
 62
    2
 10
2016.5778
 20
1258.9137000000001
 11
1939.0778
 21
1258.9137000000001
  0
CIRCLE
  8
_0-0_LAYER001
  6
CONTINUOUS
 62
    2
 10
2014.0778
 20
1258.9137000000001
 40
1.6999999999999997
  0
LINE
  8
_0-0_LAYER001
  6
CONTINUOUS
 62
    2
 10
2014.0778
 20
1258.9137000000001
 11
2014.0778
 21
958.91270000000009
  0
CIRCLE
  8
_0-0_LAYER001
  6
CONTINUOUS
 62
    2
 10
2014.0778
 20
958.91270000000009
 40
1.6999999999999997
  0
LINE
  8
_0-0_LAYER001
  6
CONTINUOUS
 62
    2
 10
2016.5778
 20
958.91270000000009
 11
1939.0778
 21
958.91270000000009
  0
LINE
  8
_0-0_LAYER001
  6
CONTINUOUS
 62
    2
 10
1856.3764000000001
 20
1092.9655
 11
1871.3764000000001
 21
963.15869999999995
  0
LINE
  8
_0-0_LAYER001
  6
CONTINUOUS
 62
    2
 10
1866.922
 20
992.76420000000007
 11
1864.9809
 21
1000.0087000000001
  0
LINE
  8
_0-0_LAYER001
  6
CONTINUOUS
 62
    2
 10
1864.9809
 20
1000.0087000000001
 11
1870.2842000000001
 21
994.70540000000005
  0
LINE
  8
_0-0_LAYER001
  6
CONTINUOUS
 62
    2
 10
1864.9809
 20
1000.0087000000001
 11
1925.8258000000001
 21
894.62220000000002
  0
LINE
  8
_0-0_LAYER001
  6
CONTINUOUS
 62
    2
 10
1925.8258000000001
 20
894.62220000000002
 11
2089.3258000000001
 21
894.62220000000002
  0
LINE
  8
_0-0_LAYER001
  6
CONTINUOUS
 62
    2
 10
1959.8890000000001
 20
963.78469999999993
 11
1907.3890000000001
 21
963.78469999999993
  0
CIRCLE
  8
_0-0_LAYER001
  6
CONTINUOUS
 62
    2
 10
1957.3890000000001
 20
963.78469999999993
 40
1.6999999999999997
  0
LINE
  8
_0-0_LAYER001
  6
CONTINUOUS
 62
    2
 10
1957.3890000000001
 20
963.78469999999993
 11
1957.3890000000001
 21
1090.5065
  0
CIRCLE
  8
_0-0_LAYER001
  6
CONTINUOUS
 62
    2
 10
1957.3890000000001
 20
1090.5065
 40
1.6999999999999997
  0
LINE
  8
_0-0_LAYER001
  6
CONTINUOUS
 62
    2
 10
1959.8890000000001
 20
1090.5065
 11
1907.3890000000001
 21
1090.5065
  0
LINE
  8
_0-0_LAYER001
  6
CONTINUOUS
 62
    2
 10
1862.3933999999999
 20
1187.798
 11
1864.3346000000001
 21
1180.5535
  0
LINE
  8
_0-0_LAYER001
  6
CONTINUOUS
 62
    2
 10
1864.3346000000001
 20
1180.5535
 11
1859.0313000000001
 21
1185.8568
  0
LINE
  8
_0-0_LAYER001
  6
CONTINUOUS
 62
    2
 10
1864.3346000000001
 20
1180.5535
 11
1771.4479000000001
 21
1341.4378999999999
  0
LINE
  8
_0-0_LAYER001
  6
CONTINUOUS
 62
    2
 10
1771.4479000000001
 20
1341.4378999999999
 11
1730.9479000000001
 21
1341.4378999999999
  0
LINE
  8
_0-0_LAYER001
  6
CONTINUOUS
 62
    2
 10
1845.3123999999998
 20
1340.2909
 11
1847.2536
 21
1333.0464999999999
  0
LINE
  8
_0-0_LAYER001
  6
CONTINUOUS
 62
    2
 10
1847.2536
 20
1333.0464999999999
 11
1841.9503
 21
1338.3498
  0
LINE
  8
_0-0_LAYER001
  6
CONTINUOUS
 62
    2
 10
1847.2536
 20
1333.0464999999999
 11
1797.0978
 21
1419.9187999999999
  0
LINE
  8
_0-0_LAYER001
  6
CONTINUOUS
 62
    2
 10
1797.0978
 20
1419.9187999999999
 11
1624.5978
 21
1419.9187999999999
  0
LINE
  8
_0-0_LAYER001
  6
CONTINUOUS
 62
    2
 10
1437.5466999999999
 20
1004.9328
 11
1439.4879000000001
 21
997.6884
  0
LINE
  8
_0-0_LAYER001
  6
CONTINUOUS
 62
    2
 10
1439.4879000000001
 20
997.6884
 11
1434.1846
 21
1002.9917
  0
LINE
  8
_0-0_LAYER001
  6
CONTINUOUS
 62
    2
 10
1439.4879000000001
 20
997.6884
 11
1388.0761000000002
 21
1086.7361000000001
  0
LINE
  8
_0-0_LAYER001
  6
CONTINUOUS
 62
    2
 10
1388.0761000000002
 20
1086.7361000000001
 11
1347.5761
 21
1086.7361000000001
  0
LINE
  8
_0-0_LAYER001
  6
CONTINUOUS
 62
    2
 10
1830.8796000000002
 20
957.55639999999994
 11
1828.9385000000002
 21
964.80079999999998
  0
LINE
  8
_0-0_LAYER001
  6
CONTINUOUS
 62
    2
 10
1828.9385000000002
 20
964.80079999999998
 11
1834.2417999999998
 21
959.49749999999995
  0
LINE
  8
_0-0_LAYER001
  6
CONTINUOUS
 62
    2
 10
1828.9385000000002
 20
964.80079999999998
 11
1926.7085999999999
 21
795.45810000000006
  0
LINE
  8
_0-0_LAYER001
  6
CONTINUOUS
 62
    2
 10
1926.7085999999999
 20
795.45810000000006
 11
2127.7085999999999
 21
795.45810000000006
  0
LINE
  8
_0-0_LAYER001
  6
CONTINUOUS
 62
    2
 10
1853.8454000000002
 20
845.12760000000003
 11
1853.8454000000002
 21
897.62760000000003
  0
CIRCLE
  8
_0-0_LAYER001
  6
CONTINUOUS
 62
    2
 10
1853.8454000000002
 20
847.62760000000003
 40
1.6999999999999997
  0
LINE
  8
_0-0_LAYER001
  6
CONTINUOUS
 62
    2
 10
1853.8454000000002
 20
847.62760000000003
 11
1734.2714000000001
 21
847.62760000000003
  0
CIRCLE
  8
_0-0_LAYER001
  6
CONTINUOUS
 62
    2
 10
1734.2714000000001
 20
847.62760000000003
 40
1.6999999999999997
  0
LINE
  8
_0-0_LAYER001
  6
CONTINUOUS
 62
    2
 10
1734.2714000000001
 20
845.12760000000003
 11
1734.2714000000001
 21
897.62760000000003
  0
LINE
  8
_0-0_LAYER001
  6
CONTINUOUS
 62
    2
 10
1178.028
 20
692.44769999999994
 11
1006.3567
 21
692.44769999999994
  0
LINE
  8
_0-0_LAYER001
  6
CONTINUOUS
 62
    2
 10
1195.4036000000001
 20
722.54299999999989
 11
955.10040000000004
 21
722.54299999999989
  0
LINE
  8
_0-0_LAYER001
  6
CONTINUOUS
 62
    2
 10
1160.7846
 20
662.58110000000011
 11
1099.5641000000001
 21
662.58110000000011
  0
LINE
  8
_0-0_LAYER001
  6
CONTINUOUS
 62
    2
 10
1336.7215000000001
 20
971.19509999999991
 11
1342.0247999999997
 21
976.49839999999995
  0
LINE
  8
_0-0_LAYER001
  6
CONTINUOUS
 62
    2
 10
1342.0247999999997
 20
976.49839999999995
 11
1340.0835999999999
 21
969.25389999999993
  0
LINE
  8
_0-0_LAYER001
  6
CONTINUOUS
 62
    2
 10
1342.0247999999997
 20
976.49839999999995
 11
1160.7846
 21
662.58110000000011
  0
LINE
  8
_0-0_LAYER001
  6
CONTINUOUS
 62
    2
 10
1212.7130999999999
 20
752.52399999999989
 11
1007.8904
 21
752.52399999999989
  0
LINE
  8
_0-0_LAYER001
  6
CONTINUOUS
 62
    2
 10
938.73180000000002
 20
796.6226999999999
 11
938.73180000000002
 21
849.1226999999999
  0
CIRCLE
  8
_0-0_LAYER001
  6
CONTINUOUS
 62
    2
 10
938.73180000000002
 20
799.1226999999999
 40
1.6999999999999997
  0
LINE
  8
_0-0_LAYER001
  6
CONTINUOUS
 62
    2
 10
938.73180000000002
 20
799.1226999999999
 11
1203.7318
 21
799.1226999999999
  0
CIRCLE
  8
_0-0_LAYER001
  6
CONTINUOUS
 62
    2
 10
1203.7318
 20
799.1226999999999
 40
1.6999999999999997
  0
LINE
  8
_0-0_LAYER001
  6
CONTINUOUS
 62
    2
 10
1203.7318
 20
796.6226999999999
 11
1203.7318
 21
849.1226999999999
  0
CIRCLE
  8
_0-0_LAYER001
  6
CONTINUOUS
 62
    2
 10
1203.7318
 20
799.1226999999999
 40
1.6999999999999997
  0
LINE
  8
_0-0_LAYER001
  6
CONTINUOUS
 62
    2
 10
1203.7318
 20
799.1226999999999
 11
1468.7318
 21
799.1226999999999
  0
CIRCLE
  8
_0-0_LAYER001
  6
CONTINUOUS
 62
    2
 10
1468.7318
 20
799.1226999999999
 40
1.6999999999999997
  0
LINE
  8
_0-0_LAYER001
  6
CONTINUOUS
 62
    2
 10
1468.7318
 20
796.6226999999999
 11
1468.7318
 21
849.1226999999999
  0
CIRCLE
  8
_0-0_LAYER001
  6
CONTINUOUS
 62
    2
 10
1468.7318
 20
799.1226999999999
 40
1.6999999999999997
  0
LINE
  8
_0-0_LAYER001
  6
CONTINUOUS
 62
    2
 10
1468.7318
 20
799.1226999999999
 11
1773.7318
 21
799.1226999999999
  0
CIRCLE
  8
_0-0_LAYER001
  6
CONTINUOUS
 62
    2
 10
1773.7318
 20
799.1226999999999
 40
1.6999999999999997
  0
LINE
  8
_0-0_LAYER001
  6
CONTINUOUS
 62
    2
 10
1773.7318
 20
796.6226999999999
 11
1773.7318
 21
849.1226999999999
  0
LINE
  8
_0-4_LAYER006
  6
CONTINUOUS
 62
    2
 10
1876.1824000000001
 20
1147.9655
 11
1859.8526999999999
 21
1147.9655
  0
LINE
  8
_0-4_LAYER006
  6
CONTINUOUS
 62
    2
 10
1846.1824000000001
 20
1145.4613999999999
 11
1846.1824000000001
 21
1117.9655
  0
LINE
  8
_0-4_LAYER006
  6
CONTINUOUS
 62
    2
 10
1846.1824000000001
 20
1117.9655
 11
1876.1824000000001
 21
1117.9655
  0
LINE
  8
_0-4_LAYER006
  6
CONTINUOUS
 62
    2
 10
1876.1824000000001
 20
1117.9655
 11
1876.1824000000001
 21
1147.9655
  0
LINE
  8
_0-4_LAYER006
  6
CONTINUOUS
 62
    2
 10
1876.1824000000001
 20
1147.9655
 11
1846.1824000000001
 21
1117.9655
  0
LINE
  8
_0-1_LAYER003
  6
CONTINUOUS
 62
    2
 10
1765.6343999999999
 20
1129.9878000000001
 11
1770.7044000000001
 21
1136.0775000000001
  0
LINE
  8
_0-0_LAYER001
  6
CONTINUOUS
 62
    2
 10
1766.1824000000001
 20
1229.7997
 11
1766.1824000000001
 21
1183.1102000000001
  0
CIRCLE
  8
_0-0_LAYER001
  6
CONTINUOUS
 62
    2
 10
1766.1824000000001
 20
1227.2997
 40
1.6999999999999997
  0
LINE
  8
_0-0_LAYER001
  6
CONTINUOUS
 62
    2
 10
1766.1824000000001
 20
1227.2997
 11
1841.1824000000001
 21
1227.2997
  0
CIRCLE
  8
_0-0_LAYER001
  6
CONTINUOUS
 62
    2
 10
1841.1824000000001
 20
1227.2997
 40
1.6999999999999997
  0
LINE
  8
_0-0_LAYER001
  6
CONTINUOUS
 62
    2
 10
1841.1824000000001
 20
1229.7997
 11
1841.1824000000001
 21
1212.2997
  0
LINE
  8
_0-0_LAYER001
  6
CONTINUOUS
 62
    4
 10
1843.2964000000002
 20
1141.7493999999999
 11
1843.2964000000002
 21
1141.2836
  0
LINE
  8
_0-0_LAYER001
  6
CONTINUOUS
 62
    4
 10
1843.2964000000002
 20
1141.2836
 11
1843.2964000000002
 21
1140.0193999999999
  0
LINE
  8
_0-0_LAYER001
  6
CONTINUOUS
 62
    4
 10
1843.2964000000002
 20
1140.0193999999999
 11
1843.2964000000002
 21
1138.1561999999999
  0
LINE
  8
_0-0_LAYER001
  6
CONTINUOUS
 62
    4
 10
1843.2964000000002
 20
1138.1561999999999
 11
1843.2964000000002
 21
1135.8939
  0
LINE
  8
_0-0_LAYER001
  6
CONTINUOUS
 62
    4
 10
1843.2964000000002
 20
1135.8939
 11
1843.2964000000002
 21
1133.4319
  0
LINE
  8
_0-0_LAYER001
  6
CONTINUOUS
 62
    4
 10
1843.2964000000002
 20
1133.4319
 11
1843.2964000000002
 21
1130.9699000000001
  0
LINE
  8
_0-0_LAYER001
  6
CONTINUOUS
 62
    4
 10
1843.2964000000002
 20
1130.9699000000001
 11
1843.2964000000002
 21
1128.7076
  0
LINE
  8
_0-0_LAYER001
  6
CONTINUOUS
 62
    4
 10
1843.2964000000002
 20
1128.7076
 11
1843.2964000000002
 21
1126.8444999999999
  0
LINE
  8
_0-0_LAYER001
  6
CONTINUOUS
 62
    4
 10
1843.2964000000002
 20
1126.8444999999999
 11
1843.2964000000002
 21
1125.5802000000001
  0
LINE
  8
_0-0_LAYER001
  6
CONTINUOUS
 62
    4
 10
1843.2964000000002
 20
1125.5802000000001
 11
1843.2964000000002
 21
1125.1143999999999
  0
LINE
  8
_0-0_LAYER001
  6
CONTINUOUS
 62
    4
 10
1843.2964000000002
 20
1125.1143999999999
 11
1842.1489000000001
 21
1125.1342999999999
  0
LINE
  8
_0-0_LAYER001
  6
CONTINUOUS
 62
    4
 10
1842.1489000000001
 20
1125.1342999999999
 11
1838.7743
 21
1125.0387000000001
  0
LINE
  8
_0-0_LAYER001
  6
CONTINUOUS
 62
    4
 10
1838.7743
 20
1125.0387000000001
 11
1833.2743
 21
1124.5948000000001
  0
LINE
  8
_0-0_LAYER001
  6
CONTINUOUS
 62
    4
 10
1833.2743
 20
1124.5948000000001
 11
1825.7507999999998
 21
1123.5697
  0
LINE
  8
_0-0_LAYER001
  6
CONTINUOUS
 62
    4
 10
1825.7507999999998
 20
1123.5697
 11
1816.3054000000002
 21
1121.7303999999999
  0
LINE
  8
_0-0_LAYER001
  6
CONTINUOUS
 62
    4
 10
1816.3054000000002
 20
1121.7303999999999
 11
1805.04
 21
1118.8441
  0
LINE
  8
_0-0_LAYER001
  6
CONTINUOUS
 62
    4
 10
1805.04
 20
1118.8441
 11
1792.0563000000002
 21
1114.6777999999999
  0
LINE
  8
_0-0_LAYER001
  6
CONTINUOUS
 62
    4
 10
1792.0563000000002
 20
1114.6777999999999
 11
1777.4560999999999
 21
1108.9988000000001
  0
LINE
  8
_0-0_LAYER001
  6
CONTINUOUS
 62
    4
 10
1777.4560999999999
 20
1108.9988000000001
 11
1761.3411000000001
 21
1101.5740000000001
  0
LINE
  8
_0-0_LAYER001
  6
CONTINUOUS
 62
    4
 10
1761.3411000000001
 20
1101.5740000000001
 11
1743.8130999999998
 21
1092.1706999999999
  0
LINE
  8
_0-0_LAYER001
  6
CONTINUOUS
 62
    4
 10
1743.8130999999998
 20
1092.1706999999999
 11
1743.8130999999998
 21
1092.9286999999999
  0
LINE
  8
_0-0_LAYER001
  6
CONTINUOUS
 62
    4
 10
1743.8130999999998
 20
1092.9286999999999
 11
1743.8130999999998
 21
1094.9863
  0
LINE
  8
_0-0_LAYER001
  6
CONTINUOUS
 62
    4
 10
1743.8130999999998
 20
1094.9863
 11
1743.8130999999998
 21
1098.0183999999999
  0
LINE
  8
_0-0_LAYER001
  6
CONTINUOUS
 62
    4
 10
1743.8130999999998
 20
1098.0183999999999
 11
1743.8130999999998
 21
1101.7003999999999
  0
LINE
  8
_0-0_LAYER001
  6
CONTINUOUS
 62
    4
 10
1743.8130999999998
 20
1101.7003999999999
 11
1743.8130999999998
 21
1105.7072000000001
  0
LINE
  8
_0-0_LAYER001
  6
CONTINUOUS
 62
    4
 10
1743.8130999999998
 20
1105.7072000000001
 11
1743.8130999999998
 21
1109.7139999999999
  0
LINE
  8
_0-0_LAYER001
  6
CONTINUOUS
 62
    4
 10
1743.8130999999998
 20
1109.7139999999999
 11
1743.8130999999998
 21
1113.3959
  0
LINE
  8
_0-0_LAYER001
  6
CONTINUOUS
 62
    4
 10
1743.8130999999998
 20
1113.3959
 11
1743.8130999999998
 21
1116.4280000000001
  0
LINE
  8
_0-0_LAYER001
  6
CONTINUOUS
 62
    4
 10
1743.8130999999998
 20
1116.4280000000001
 11
1743.8130999999998
 21
1118.4856
  0
LINE
  8
_0-0_LAYER001
  6
CONTINUOUS
 62
    4
 10
1743.8130999999998
 20
1118.4856
 11
1743.8130999999998
 21
1119.2436
  0
LINE
  8
_0-0_LAYER001
  6
CONTINUOUS
 62
    4
 10
1743.8130999999998
 20
1119.2436
 11
1745.4801000000002
 21
1119.8298
  0
LINE
  8
_0-0_LAYER001
  6
CONTINUOUS
 62
    4
 10
1745.4801000000002
 20
1119.8298
 11
1750.1826000000001
 21
1121.4277
  0
LINE
  8
_0-0_LAYER001
  6
CONTINUOUS
 62
    4
 10
1750.1826000000001
 20
1121.4277
 11
1757.4722999999999
 21
1123.7967000000001
  0
LINE
  8
_0-0_LAYER001
  6
CONTINUOUS
 62
    4
 10
1757.4722999999999
 20
1123.7967000000001
 11
1766.9009999999998
 21
1126.6959999999999
  0
LINE
  8
_0-0_LAYER001
  6
CONTINUOUS
 62
    4
 10
1766.9009999999998
 20
1126.6959999999999
 11
1778.0207
 21
1129.885
  0
LINE
  8
_0-0_LAYER001
  6
CONTINUOUS
 62
    4
 10
1778.0207
 20
1129.885
 11
1790.3829999999998
 21
1133.1229000000001
  0
LINE
  8
_0-0_LAYER001
  6
CONTINUOUS
 62
    4
 10
1790.3829999999998
 20
1133.1229000000001
 11
1803.5399000000002
 21
1136.1690000000001
  0
LINE
  8
_0-0_LAYER001
  6
CONTINUOUS
 62
    4
 10
1803.5399000000002
 20
1136.1690000000001
 11
1817.0432000000001
 21
1138.7826
  0
LINE
  8
_0-0_LAYER001
  6
CONTINUOUS
 62
    4
 10
1817.0432000000001
 20
1138.7826
 11
1830.4448000000002
 21
1140.723
  0
LINE
  8
_0-0_LAYER001
  6
CONTINUOUS
 62
    4
 10
1843.2964000000002
 20
1141.7493999999999
 11
1830.3323999999998
 21
1140.7067
  0
LINE
  8
_0-0_LAYER001
  6
CONTINUOUS
 62
    4
 10
1833.2964000000002
 20
1110.1292000000001
 11
1833.2964000000002
 21
1109.6633999999999
  0
LINE
  8
_0-0_LAYER001
  6
CONTINUOUS
 62
    4
 10
1833.2964000000002
 20
1109.6633999999999
 11
1833.2964000000002
 21
1108.3992000000001
  0
LINE
  8
_0-0_LAYER001
  6
CONTINUOUS
 62
    4
 10
1833.2964000000002
 20
1108.3992000000001
 11
1833.2964000000002
 21
1106.5361
  0
LINE
  8
_0-0_LAYER001
  6
CONTINUOUS
 62
    4
 10
1833.2964000000002
 20
1106.5361
 11
1833.2964000000002
 21
1104.2737
  0
LINE
  8
_0-0_LAYER001
  6
CONTINUOUS
 62
    4
 10
1833.2964000000002
 20
1104.2737
 11
1833.2964000000002
 21
1101.8117
  0
LINE
  8
_0-0_LAYER001
  6
CONTINUOUS
 62
    4
 10
1833.2964000000002
 20
1101.8117
 11
1833.2964000000002
 21
1099.3497
  0
LINE
  8
_0-0_LAYER001
  6
CONTINUOUS
 62
    4
 10
1833.2964000000002
 20
1099.3497
 11
1833.2964000000002
 21
1097.0873999999999
  0
LINE
  8
_0-0_LAYER001
  6
CONTINUOUS
 62
    4
 10
1833.2964000000002
 20
1097.0873999999999
 11
1833.2964000000002
 21
1095.2243000000001
  0
LINE
  8
_0-0_LAYER001
  6
CONTINUOUS
 62
    4
 10
1833.2964000000002
 20
1095.2243000000001
 11
1833.2964000000002
 21
1093.96
  0
LINE
  8
_0-0_LAYER001
  6
CONTINUOUS
 62
    4
 10
1833.2964000000002
 20
1093.96
 11
1833.2964000000002
 21
1093.4942000000001
  0
LINE
  8
_0-0_LAYER001
  6
CONTINUOUS
 62
    4
 10
1833.2964000000002
 20
1093.4942000000001
 11
1832.1489000000001
 21
1093.5141000000001
  0
LINE
  8
_0-0_LAYER001
  6
CONTINUOUS
 62
    4
 10
1832.1489000000001
 20
1093.5141000000001
 11
1828.7743
 21
1093.4186
  0
LINE
  8
_0-0_LAYER001
  6
CONTINUOUS
 62
    4
 10
1828.7743
 20
1093.4186
 11
1823.2743
 21
1092.9746
  0
LINE
  8
_0-0_LAYER001
  6
CONTINUOUS
 62
    4
 10
1823.2743
 20
1092.9746
 11
1815.7507999999998
 21
1091.9494999999999
  0
LINE
  8
_0-0_LAYER001
  6
CONTINUOUS
 62
    4
 10
1815.7507999999998
 20
1091.9494999999999
 11
1806.3054000000002
 21
1090.1102000000001
  0
LINE
  8
_0-0_LAYER001
  6
CONTINUOUS
 62
    4
 10
1806.3054000000002
 20
1090.1102000000001
 11
1795.04
 21
1087.2239
  0
LINE
  8
_0-0_LAYER001
  6
CONTINUOUS
 62
    4
 10
1795.04
 20
1087.2239
 11
1782.0563000000002
 21
1083.0576000000001
  0
LINE
  8
_0-0_LAYER001
  6
CONTINUOUS
 62
    4
 10
1782.0563000000002
 20
1083.0576000000001
 11
1767.4560999999999
 21
1077.3786
  0
LINE
  8
_0-0_LAYER001
  6
CONTINUOUS
 62
    4
 10
1767.4560999999999
 20
1077.3786
 11
1751.3411000000001
 21
1069.9538
  0
LINE
  8
_0-0_LAYER001
  6
CONTINUOUS
 62
    4
 10
1751.3411000000001
 20
1069.9538
 11
1733.8130999999998
 21
1060.5505000000001
  0
LINE
  8
_0-0_LAYER001
  6
CONTINUOUS
 62
    4
 10
1733.8130999999998
 20
1060.5505000000001
 11
1733.8130999999998
 21
1061.3085000000001
  0
LINE
  8
_0-0_LAYER001
  6
CONTINUOUS
 62
    4
 10
1733.8130999999998
 20
1061.3085000000001
 11
1733.8130999999998
 21
1063.3661
  0
LINE
  8
_0-0_LAYER001
  6
CONTINUOUS
 62
    4
 10
1733.8130999999998
 20
1063.3661
 11
1733.8130999999998
 21
1066.3983000000001
  0
LINE
  8
_0-0_LAYER001
  6
CONTINUOUS
 62
    4
 10
1733.8130999999998
 20
1066.3983000000001
 11
1733.8130999999998
 21
1070.0802000000001
  0
LINE
  8
_0-0_LAYER001
  6
CONTINUOUS
 62
    4
 10
1733.8130999999998
 20
1070.0802000000001
 11
1733.8130999999998
 21
1074.087
  0
LINE
  8
_0-0_LAYER001
  6
CONTINUOUS
 62
    4
 10
1733.8130999999998
 20
1074.087
 11
1733.8130999999998
 21
1078.0938000000001
  0
LINE
  8
_0-0_LAYER001
  6
CONTINUOUS
 62
    4
 10
1733.8130999999998
 20
1078.0938000000001
 11
1733.8130999999998
 21
1081.7756999999999
  0
LINE
  8
_0-0_LAYER001
  6
CONTINUOUS
 62
    4
 10
1733.8130999999998
 20
1081.7756999999999
 11
1733.8130999999998
 21
1084.8078
  0
LINE
  8
_0-0_LAYER001
  6
CONTINUOUS
 62
    4
 10
1733.8130999999998
 20
1084.8078
 11
1733.8130999999998
 21
1086.8653999999999
  0
LINE
  8
_0-0_LAYER001
  6
CONTINUOUS
 62
    4
 10
1733.8130999999998
 20
1086.8653999999999
 11
1733.8130999999998
 21
1087.6233999999999
  0
LINE
  8
_0-0_LAYER001
  6
CONTINUOUS
 62
    4
 10
1733.8130999999998
 20
1087.6233999999999
 11
1735.4801000000002
 21
1088.2095999999999
  0
LINE
  8
_0-0_LAYER001
  6
CONTINUOUS
 62
    4
 10
1735.4801000000002
 20
1088.2095999999999
 11
1740.1826000000001
 21
1089.8074999999999
  0
LINE
  8
_0-0_LAYER001
  6
CONTINUOUS
 62
    4
 10
1740.1826000000001
 20
1089.8074999999999
 11
1747.4722999999999
 21
1092.1765
  0
LINE
  8
_0-0_LAYER001
  6
CONTINUOUS
 62
    4
 10
1747.4722999999999
 20
1092.1765
 11
1756.9009999999998
 21
1095.0758000000001
  0
LINE
  8
_0-0_LAYER001
  6
CONTINUOUS
 62
    4
 10
1756.9009999999998
 20
1095.0758000000001
 11
1768.0207
 21
1098.2647999999999
  0
LINE
  8
_0-0_LAYER001
  6
CONTINUOUS
 62
    4
 10
1768.0207
 20
1098.2647999999999
 11
1780.3829999999998
 21
1101.5027
  0
LINE
  8
_0-0_LAYER001
  6
CONTINUOUS
 62
    4
 10
1780.3829999999998
 20
1101.5027
 11
1793.5399000000002
 21
1104.5488
  0
LINE
  8
_0-0_LAYER001
  6
CONTINUOUS
 62
    4
 10
1793.5399000000002
 20
1104.5488
 11
1807.0432000000001
 21
1107.1623999999999
  0
LINE
  8
_0-0_LAYER001
  6
CONTINUOUS
 62
    4
 10
1807.0432000000001
 20
1107.1623999999999
 11
1820.4448000000002
 21
1109.1027999999999
  0
LINE
  8
_0-0_LAYER001
  6
CONTINUOUS
 62
    4
 10
1833.2964000000002
 20
1110.1292000000001
 11
1820.3323999999998
 21
1109.0864999999999
  0
LINE
  8
_0-0_LAYER001
  6
CONTINUOUS
 62
    4
 10
1853.1089999999999
 20
1038.2103999999999
 11
1853.1089999999999
 21
1022.9641999999999
  0
LINE
  8
_0-0_LAYER001
  6
CONTINUOUS
 62
    4
 10
1733.8130999999998
 20
1059.5562
 11
1733.8130999999998
 21
1041.8402000000001
  0
ARC
  8
_0-0_LAYER001
  6
CONTINUOUS
 62
    4
 10
1908.9690999999998
 20
1200.5981999999999
 40
171.72701000000001
 50
228.22927000000001
 51
251.0172
  0
LINE
  8
_0-0_LAYER001
  6
CONTINUOUS
 62
    4
 10
1737.5367000000001
 20
1044.5411999999999
 11
1773.7267999999999
 21
1060.6975
  0
LINE
  8
_0-0_LAYER001
  6
CONTINUOUS
 62
    4
 10
1737.5367000000001
 20
1044.5411999999999
 11
1737.5367000000001
 21
1042.9280000000001
  0
LINE
  8
_0-0_LAYER001
  6
CONTINUOUS
 62
    4
 10
1733.8130999999998
 20
1041.8402000000001
 11
1737.5286000000001
 21
1042.9548
  0
ARC
  8
_0-0_LAYER001
  6
CONTINUOUS
 62
    4
 10
1779.4036000000001
 20
1044.1991
 40
17.566393000000001
 50
69.918021999999993
 51
110.08197
  0
ARC
  8
_0-0_LAYER001
  6
CONTINUOUS
 62
    4
 10
1915.2105999999999
 20
1214.1199999999999
 40
200.99046999999999
 50
229.91572000000002
 51
252.00235000000004
  0
LINE
  8
_0-0_LAYER001
  6
CONTINUOUS
 62
    4
 10
1733.8130999999998
 20
1059.5562
 11
1768.0499
 21
1074.5347999999999
  0
ARC
  8
_0-0_LAYER001
  6
CONTINUOUS
 62
    4
 10
1779.6633000000002
 20
1052.0556999999999
 40
25.304210000000001
 50
53.942641000000009
 51
117.01753000000001
  0
LINE
  8
_0-0_LAYER001
  6
CONTINUOUS
 62
    2
 10
1781.9771999999998
 20
1110.7574
 11
1781.0790999999999
 21
1101.6639
  0
LINE
  8
_0-0_LAYER001
  6
CONTINUOUS
 62
    2
 10
1779.5792999999999
 20
1082.0942
 11
1778.299
 21
1076.6884
  0
LINE
  8
_0-0_LAYER001
  6
CONTINUOUS
 62
    2
 10
1836.6033000000002
 20
1142.2710999999999
 11
1836.6033000000002
 21
1123.9078
  0
LINE
  8
_0-0_LAYER001
  6
CONTINUOUS
 62
    2
 10
1836.6033000000002
 20
1123.9078
 11
1850.6864
 21
1123.9078
  0
LINE
  8
_0-0_LAYER001
  6
CONTINUOUS
 62
    2
 10
1836.6033000000002
 20
1142.2710999999999
 11
1851.2386000000001
 21
1142.2710999999999
  0
LINE
  8
_0-0_LAYER001
  6
CONTINUOUS
 62
    2
 10
1851.2386000000001
 20
1142.2710999999999
 11
1851.2386000000001
 21
1123.9078
  0
LINE
  8
_0-0_LAYER001
  6
CONTINUOUS
 62
    2
 10
1827.6287000000002
 20
1110.7911999999999
 11
1827.6287000000002
 21
1092.1516999999999
  0
LINE
  8
_0-0_LAYER001
  6
CONTINUOUS
 62
    2
 10
1827.6287000000002
 20
1092.1516999999999
 11
1833.2964000000002
 21
1093.4942000000001
  0
LINE
  8
_0-0_LAYER001
  6
CONTINUOUS
 62
    2
 10
1833.2964000000002
 20
1093.4942000000001
 11
1853.7239
 21
1119.0753
  0
LINE
  8
_0-0_LAYER001
  6
CONTINUOUS
 62
    2
 10
1827.6287000000002
 20
1110.7911999999999
 11
1851.2386000000001
 21
1123.9078
  0
LINE
  8
_0-0_LAYER001
  6
CONTINUOUS
 62
    2
 10
1851.2386000000001
 20
1123.9078
 11
1853.7239
 21
1119.0753
  0
ARC
  8
_0-0_LAYER001
  6
CONTINUOUS
 62
    4
 10
1768.2408999999998
 20
1024.8356000000001
 40
1
 50
102.72435
 51
180
  0
LINE
  8
_0-0_LAYER001
  6
CONTINUOUS
 62
    4
 10
1773.0578999999998
 20
1026.9484
 11
1768.0207
 21
1025.8109999999999
  0
ARC
  8
_0-0_LAYER001
  6
CONTINUOUS
 62
    4
 10
1773.2782000000002
 20
1025.973
 40
1
 50
0
 51
102.72435
  0
ARC
  8
_0-0_LAYER001
  6
CONTINUOUS
 62
    4
 10
1773.2782000000002
 20
1028.4341999999999
 40
1
 50
282.24497000000002
 51
0
  0
LINE
  8
_0-0_LAYER001
  6
CONTINUOUS
 62
    4
 10
1766.2782000000002
 20
1045.7677000000001
 11
1766.2782000000002
 21
1044.3107
  0
ARC
  8
_0-0_LAYER001
  6
CONTINUOUS
 62
    4
 10
1767.2782000000002
 20
1045.7677000000001
 40
1
 50
101.73308
 51
180
  0
LINE
  8
_0-0_LAYER001
  6
CONTINUOUS
 62
    4
 10
1773.0747999999999
 20
1047.9929999999999
 11
1767.0747999999999
 21
1046.7467999999999
  0
LINE
  8
_0-0_LAYER001
  6
CONTINUOUS
 62
    4
 10
1774.2782000000002
 20
1047.0138999999999
 11
1774.2782000000002
 21
1028.4341999999999
  0
ARC
  8
_0-0_LAYER001
  6
CONTINUOUS
 62
    4
 10
1773.2782000000002
 20
1047.0138999999999
 40
1
 50
0
 51
101.73308
  0
LINE
  8
_0-0_LAYER001
  6
CONTINUOUS
 62
    4
 10
1594.3706999999999
 20
975.75530000000003
 11
1585.8353000000002
 21
990.28860000000009
  0
LINE
  8
_0-0_LAYER001
  6
CONTINUOUS
 62
    4
 10
1602.5385999999999
 20
975.10500000000002
 11
1610.8447999999999
 21
985.17049999999995
  0
ARC
  8
_0-0_LAYER001
  6
CONTINUOUS
 62
    4
 10
1598.6822000000002
 20
978.28739999999993
 40
5
 50
210.42578
 51
320.47001
  0
LINE
  8
_0-0_LAYER001
  6
CONTINUOUS
 62
    4
 10
1678.4841999999999
 20
974.63509999999997
 11
1671.1588000000002
 21
985.94119999999998
  0
LINE
  8
_0-0_LAYER001
  6
CONTINUOUS
 62
    4
 10
1686.9938000000002
 20
974.82510000000002
 11
1695.9322000000002
 21
990.07069999999999
  0
ARC
  8
_0-0_LAYER001
  6
CONTINUOUS
 62
    4
 10
1682.6804000000002
 20
977.35390000000007
 40
5
 50
212.93986000000001
 51
329.61716000000001
  0
LINE
  8
_0-0_LAYER001
  6
CONTINUOUS
 62
    4
 10
1726.2757999999999
 20
1014.3827000000001
 11
1728.7039
 21
1014.7865999999999
  0
LINE
  8
_0-0_LAYER001
  6
CONTINUOUS
 62
    4
 10
1722.0868
 20
1013.6864
 11
1726.2757999999999
 21
1014.3827000000001
  0
LINE
  8
_0-0_LAYER001
  6
CONTINUOUS
 62
    4
 10
1717.893
 20
1012.9909
 11
1722.0868
 21
1013.6864
  0
LINE
  8
_0-0_LAYER001
  6
CONTINUOUS
 62
    4
 10
1713.6941999999999
 20
1012.2969000000001
 11
1717.893
 21
1012.9909
  0
LINE
  8
_0-0_LAYER001
  6
CONTINUOUS
 62
    4
 10
1709.4901
 20
1011.6053999999999
 11
1713.6941999999999
 21
1012.2969000000001
  0
LINE
  8
_0-0_LAYER001
  6
CONTINUOUS
 62
    4
 10
1705.2833000000001
 20
1010.9177999999999
 11
1709.4901
 21
1011.6053999999999
  0
LINE
  8
_0-0_LAYER001
  6
CONTINUOUS
 62
    4
 10
1702.8310000000001
 20
1010.5192999999999
 11
1705.2833000000001
 21
1010.9177999999999
  0
LINE
  8
_0-0_LAYER001
  6
CONTINUOUS
 62
    4
 10
1698.0981999999999
 20
1009.7568000000001
 11
1702.8310000000001
 21
1010.5192999999999
  0
LINE
  8
_0-0_LAYER001
  6
CONTINUOUS
 62
    4
 10
1689.8937999999998
 20
1008.4729
 11
1698.0981999999999
 21
1009.7568000000001
  0
LINE
  8
_0-0_LAYER001
  6
CONTINUOUS
 62
    4
 10
1681.5862999999999
 20
1007.2530999999999
 11
1689.8937999999998
 21
1008.4729
  0
LINE
  8
_0-0_LAYER001
  6
CONTINUOUS
 62
    4
 10
1673.1781000000001
 20
1006.1367
 11
1681.5862999999999
 21
1007.2530999999999
  0
LINE
  8
_0-0_LAYER001
  6
CONTINUOUS
 62
    4
 10
1664.6655000000001
 20
1005.1633999999999
 11
1673.1781000000001
 21
1006.1367
  0
LINE
  8
_0-0_LAYER001
  6
CONTINUOUS
 62
    4
 10
1656.1062999999999
 20
1004.3794
 11
1664.6655000000001
 21
1005.1633999999999
  0
LINE
  8
_0-0_LAYER001
  6
CONTINUOUS
 62
    4
 10
1651.0448000000001
 20
1004.0214000000001
 11
1656.1062999999999
 21
1004.3794
  0
LINE
  8
_0-0_LAYER001
  6
CONTINUOUS
 62
    4
 10
1648.2422000000001
 20
1003.8598
 11
1651.0448000000001
 21
1004.0214000000001
  0
LINE
  8
_0-0_LAYER001
  6
CONTINUOUS
 62
    4
 10
1643.5212000000001
 20
1003.6558
 11
1648.2422000000001
 21
1003.8598
  0
LINE
  8
_0-0_LAYER001
  6
CONTINUOUS
 62
    4
 10
1638.692
 20
1003.5504000000001
 11
1643.5212000000001
 21
1003.6558
  0
LINE
  8
_0-0_LAYER001
  6
CONTINUOUS
 62
    4
 10
1633.7903000000001
 20
1003.5657000000001
 11
1638.692
 21
1003.5504000000001
  0
LINE
  8
_0-0_LAYER001
  6
CONTINUOUS
 62
    4
 10
1628.8193000000001
 20
1003.7236
 11
1633.7903000000001
 21
1003.5657000000001
  0
LINE
  8
_0-0_LAYER001
  6
CONTINUOUS
 62
    4
 10
1623.8618999999999
 20
1004.0413000000001
 11
1628.8193000000001
 21
1003.7236
  0
LINE
  8
_0-0_LAYER001
  6
CONTINUOUS
 62
    4
 10
1620.8103000000001
 20
1004.3227999999999
 11
1623.8618999999999
 21
1004.0413000000001
  0
LINE
  8
_0-0_LAYER001
  6
CONTINUOUS
 62
    4
 10
1616.8814000000002
 20
1004.7850000000001
 11
1620.8103000000001
 21
1004.3227999999999
  0
LINE
  8
_0-0_LAYER001
  6
CONTINUOUS
 62
    4
 10
1610.3674999999998
 20
1005.8076000000001
 11
1616.8814000000002
 21
1004.7850000000001
  0
LINE
  8
_0-0_LAYER001
  6
CONTINUOUS
 62
    4
 10
1603.8208
 20
1007.1596999999999
 11
1610.3674999999998
 21
1005.8076000000001
  0
LINE
  8
_0-0_LAYER001
  6
CONTINUOUS
 62
    4
 10
1597.3579
 20
1008.8155999999999
 11
1603.8208
 21
1007.1596999999999
  0
LINE
  8
_0-0_LAYER001
  6
CONTINUOUS
 62
    4
 10
1590.9920000000002
 20
1010.7663
 11
1597.3579
 21
1008.8155999999999
  0
LINE
  8
_0-0_LAYER001
  6
CONTINUOUS
 62
    4
 10
1584.8272000000002
 20
1012.9712
 11
1590.9920000000002
 21
1010.7663
  0
LINE
  8
_0-0_LAYER001
  6
CONTINUOUS
 62
    4
 10
1581.1406000000002
 20
1014.443
 11
1584.8272000000002
 21
1012.9712
  0
LINE
  8
_0-0_LAYER001
  6
CONTINUOUS
 62
    4
 10
1576.7763
 20
1016.3354999999999
 11
1581.1406000000002
 21
1014.443
  0
LINE
  8
_0-0_LAYER001
  6
CONTINUOUS
 62
    4
 10
1569.7071999999998
 20
1019.7505000000001
 11
1576.7763
 21
1016.3354999999999
  0
LINE
  8
_0-0_LAYER001
  6
CONTINUOUS
 62
    4
 10
1562.8143
 20
1023.4801
 11
1569.7071999999998
 21
1019.7505000000001
  0
LINE
  8
_0-0_LAYER001
  6
CONTINUOUS
 62
    4
 10
1556.1772999999998
 20
1027.4138
 11
1562.8143
 21
1023.4801
  0
LINE
  8
_0-0_LAYER001
  6
CONTINUOUS
 62
    4
 10
1549.768
 20
1031.4962
 11
1556.1772999999998
 21
1027.4138
  0
LINE
  8
_0-0_LAYER001
  6
CONTINUOUS
 62
    4
 10
1543.5837999999999
 20
1035.6584
 11
1549.768
 21
1031.4962
  0
LINE
  8
_0-0_LAYER001
  6
CONTINUOUS
 62
    4
 10
1540.0414999999998
 20
1038.1221
 11
1543.5837999999999
 21
1035.6584
  0
LINE
  8
_0-0_LAYER001
  6
CONTINUOUS
 62
    4
 10
1537.8094999999998
 20
1039.6955
 11
1540.0414999999998
 21
1038.1221
  0
LINE
  8
_0-0_LAYER001
  6
CONTINUOUS
 62
    4
 10
1534.1858999999999
 20
1042.2347
 11
1537.8094999999998
 21
1039.6955
  0
LINE
  8
_0-0_LAYER001
  6
CONTINUOUS
 62
    4
 10
1530.8162000000002
 20
1044.5001999999999
 11
1534.1858999999999
 21
1042.2347
  0
LINE
  8
_0-0_LAYER001
  6
CONTINUOUS
 62
    4
 10
1527.7012
 20
1046.4273000000001
 11
1530.8162000000002
 21
1044.5001999999999
  0
LINE
  8
_0-0_LAYER001
  6
CONTINUOUS
 62
    4
 10
1524.8339999999998
 20
1047.9829999999999
 11
1527.7012
 21
1046.4273000000001
  0
LINE
  8
_0-0_LAYER001
  6
CONTINUOUS
 62
    4
 10
1522.0029
 20
1049.2515000000001
 11
1524.8339999999998
 21
1047.9829999999999
  0
LINE
  8
_0-0_LAYER001
  6
CONTINUOUS
 62
    4
 10
1520.5396999999998
 20
1049.7836
 11
1522.0029
 21
1049.2515000000001
  0
LINE
  8
_0-0_LAYER001
  6
CONTINUOUS
 62
    4
 10
1520.3586
 20
1049.8416
 11
1520.5396999999998
 21
1049.7836
  0
LINE
  8
_0-0_LAYER001
  6
CONTINUOUS
 62
    4
 10
1519.5702999999999
 20
1050.0695000000001
 11
1520.3586
 21
1049.8416
  0
LINE
  8
_0-0_LAYER001
  6
CONTINUOUS
 62
    4
 10
1518.9132
 20
1050.2321999999999
 11
1519.5702999999999
 21
1050.0695000000001
  0
LINE
  8
_0-0_LAYER001
  6
CONTINUOUS
 62
    4
 10
1518.3314
 20
1050.3502000000001
 11
1518.9132
 21
1050.2321999999999
  0
LINE
  8
_0-0_LAYER001
  6
CONTINUOUS
 62
    4
 10
1518.2912999999999
 20
1050.3563999999999
 11
1518.3314
 21
1050.3502000000001
  0
LINE
  8
_0-0_LAYER001
  6
CONTINUOUS
 62
    4
 10
1722.2651999999998
 20
995.19520000000011
 11
1723.8793000000001
 21
995.46370000000002
  0
LINE
  8
_0-0_LAYER001
  6
CONTINUOUS
 62
    4
 10
1718.0765999999999
 20
994.49900000000002
 11
1722.2651999999998
 21
995.19520000000011
  0
LINE
  8
_0-0_LAYER001
  6
CONTINUOUS
 62
    4
 10
1713.8836999999999
 20
993.80359999999996
 11
1718.0765999999999
 21
994.49900000000002
  0
LINE
  8
_0-0_LAYER001
  6
CONTINUOUS
 62
    4
 10
1709.6862000000001
 20
993.10989999999993
 11
1713.8836999999999
 21
993.80359999999996
  0
LINE
  8
_0-0_LAYER001
  6
CONTINUOUS
 62
    4
 10
1705.4839000000002
 20
992.41869999999994
 11
1709.6862000000001
 21
993.10989999999993
  0
LINE
  8
_0-0_LAYER001
  6
CONTINUOUS
 62
    4
 10
1701.279
 20
991.73129999999992
 11
1705.4839000000002
 21
992.41869999999994
  0
LINE
  8
_0-0_LAYER001
  6
CONTINUOUS
 62
    4
 10
1698.8290000000002
 20
991.33320000000003
 11
1701.279
 21
991.73129999999992
  0
LINE
  8
_0-0_LAYER001
  6
CONTINUOUS
 62
    4
 10
1694.1019999999999
 20
990.57169999999996
 11
1698.8290000000002
 21
991.33320000000003
  0
LINE
  8
_0-0_LAYER001
  6
CONTINUOUS
 62
    4
 10
1685.9113000000002
 20
989.28999999999996
 11
1694.1019999999999
 21
990.57169999999996
  0
LINE
  8
_0-0_LAYER001
  6
CONTINUOUS
 62
    4
 10
1677.6268
 20
988.07349999999997
 11
1685.9113000000002
 21
989.28999999999996
  0
LINE
  8
_0-0_LAYER001
  6
CONTINUOUS
 62
    4
 10
1669.2501999999999
 20
986.96129999999994
 11
1677.6268
 21
988.07349999999997
  0
LINE
  8
_0-0_LAYER001
  6
CONTINUOUS
 62
    4
 10
1660.7781
 20
985.99260000000004
 11
1669.2501999999999
 21
986.96129999999994
  0
LINE
  8
_0-0_LAYER001
  6
CONTINUOUS
 62
    4
 10
1652.2620000000002
 20
985.21250000000009
 11
1660.7781
 21
985.99260000000004
  0
LINE
  8
_0-0_LAYER001
  6
CONTINUOUS
 62
    4
 10
1647.2341000000001
 20
984.8569
 11
1652.2620000000002
 21
985.21250000000009
  0
LINE
  8
_0-0_LAYER001
  6
CONTINUOUS
 62
    4
 10
1644.4589000000001
 20
984.69689999999991
 11
1647.2341000000001
 21
984.8569
  0
LINE
  8
_0-0_LAYER001
  6
CONTINUOUS
 62
    4
 10
1639.7736
 20
984.49450000000002
 11
1644.4589000000001
 21
984.69689999999991
  0
LINE
  8
_0-0_LAYER001
  6
CONTINUOUS
 62
    4
 10
1634.9906999999998
 20
984.3900000000001
 11
1639.7736
 21
984.49450000000002
  0
LINE
  8
_0-0_LAYER001
  6
CONTINUOUS
 62
    4
 10
1630.1426000000001
 20
984.40519999999992
 11
1634.9906999999998
 21
984.3900000000001
  0
LINE
  8
_0-0_LAYER001
  6
CONTINUOUS
 62
    4
 10
1625.2325000000001
 20
984.5612000000001
 11
1630.1426000000001
 21
984.40519999999992
  0
LINE
  8
_0-0_LAYER001
  6
CONTINUOUS
 62
    4
 10
1620.3352
 20
984.87509999999997
 11
1625.2325000000001
 21
984.5612000000001
  0
LINE
  8
_0-0_LAYER001
  6
CONTINUOUS
 62
    4
 10
1617.3364000000001
 20
985.15159999999992
 11
1620.3352
 21
984.87509999999997
  0
LINE
  8
_0-0_LAYER001
  6
CONTINUOUS
 62
    4
 10
1613.4708999999998
 20
985.60639999999989
 11
1617.3364000000001
 21
985.15159999999992
  0
LINE
  8
_0-0_LAYER001
  6
CONTINUOUS
 62
    4
 10
1607.0423999999998
 20
986.61550000000011
 11
1613.4708999999998
 21
985.60639999999989
  0
LINE
  8
_0-0_LAYER001
  6
CONTINUOUS
 62
    4
 10
1600.5889999999999
 20
987.94839999999999
 11
1607.0423999999998
 21
986.61550000000011
  0
LINE
  8
_0-0_LAYER001
  6
CONTINUOUS
 62
    4
 10
1594.2168000000001
 20
989.5809999999999
 11
1600.5889999999999
 21
987.94839999999999
  0
LINE
  8
_0-0_LAYER001
  6
CONTINUOUS
 62
    4
 10
1587.9395
 20
991.50459999999998
 11
1594.2168000000001
 21
989.5809999999999
  0
LINE
  8
_0-0_LAYER001
  6
CONTINUOUS
 62
    4
 10
1581.8524000000002
 20
993.68180000000007
 11
1587.9395
 21
991.50459999999998
  0
LINE
  8
_0-0_LAYER001
  6
CONTINUOUS
 62
    4
 10
1578.2267000000002
 20
995.12920000000008
 11
1581.8524000000002
 21
993.68180000000007
  0
LINE
  8
_0-0_LAYER001
  6
CONTINUOUS
 62
    4
 10
1573.9268999999999
 20
996.99379999999996
 11
1578.2267000000002
 21
995.12920000000008
  0
LINE
  8
_0-0_LAYER001
  6
CONTINUOUS
 62
    4
 10
1566.9360000000001
 20
1000.3710000000001
 11
1573.9268999999999
 21
996.99379999999996
  0
LINE
  8
_0-0_LAYER001
  6
CONTINUOUS
 62
    4
 10
1560.1179000000002
 20
1004.0600999999999
 11
1566.9360000000001
 21
1000.3710000000001
  0
LINE
  8
_0-0_LAYER001
  6
CONTINUOUS
 62
    4
 10
1553.5421000000001
 20
1007.9575
 11
1560.1179000000002
 21
1004.0600999999999
  0
LINE
  8
_0-0_LAYER001
  6
CONTINUOUS
 62
    4
 10
1547.1812
 20
1012.0091
 11
1553.5421000000001
 21
1007.9575
  0
LINE
  8
_0-0_LAYER001
  6
CONTINUOUS
 62
    4
 10
1541.0306
 20
1016.1486
 11
1547.1812
 21
1012.0091
  0
LINE
  8
_0-0_LAYER001
  6
CONTINUOUS
 62
    4
 10
1537.5061000000001
 20
1018.5999999999999
 11
1541.0306
 21
1016.1486
  0
LINE
  8
_0-0_LAYER001
  6
CONTINUOUS
 62
    4
 10
1535.2768999999998
 20
1020.1713999999999
 11
1537.5061000000001
 21
1018.5999999999999
  0
LINE
  8
_0-0_LAYER001
  6
CONTINUOUS
 62
    4
 10
1531.6352000000002
 20
1022.7233000000001
 11
1535.2768999999998
 21
1020.1713999999999
  0
LINE
  8
_0-0_LAYER001
  6
CONTINUOUS
 62
    4
 10
1528.2181
 20
1025.0207
 11
1531.6352000000002
 21
1022.7233000000001
  0
LINE
  8
_0-0_LAYER001
  6
CONTINUOUS
 62
    4
 10
1525.0225
 20
1026.9976999999999
 11
1528.2181
 21
1025.0207
  0
LINE
  8
_0-0_LAYER001
  6
CONTINUOUS
 62
    4
 10
1522.0385000000001
 20
1028.6168
 11
1525.0225
 21
1026.9976999999999
  0
LINE
  8
_0-0_LAYER001
  6
CONTINUOUS
 62
    4
 10
1519.0720000000001
 20
1029.9458999999999
 11
1522.0385000000001
 21
1028.6168
  0
LINE
  8
_0-0_LAYER001
  6
CONTINUOUS
 62
    4
 10
1518.3220000000001
 20
1030.2185999999999
 11
1519.0720000000001
 21
1029.9458999999999
  0
LINE
  8
_0-0_LAYER001
  6
CONTINUOUS
 62
    4
 10
1518.6550999999999
 20
1050.2618
 11
1518.4789999999998
 21
1030.0882999999999
  0
LINE
  8
_0-0_LAYER001
  6
CONTINUOUS
 62
    4
 10
1718.9807000000001
 20
984.77399999999989
 11
1716.7352999999998
 21
993.34740000000011
  0
ARC
  8
_0-0_LAYER001
  6
CONTINUOUS
 62
    4
 10
1721.8827999999999
 20
985.53410000000008
 40
3
 50
194.67639000000003
 51
270.00000000000006
  0
LINE
  8
_0-0_LAYER001
  6
CONTINUOUS
 62
    4
 10
1725.3253
 20
982.52980000000002
 11
1721.9074999999998
 21
982.52980000000002
  0
LINE
  8
_0-0_LAYER001
  6
CONTINUOUS
 62
    4
 10
1728.2845000000002
 20
985.03659999999991
 11
1730.2184999999999
 21
996.64069999999992
  0
ARC
  8
_0-0_LAYER001
  6
CONTINUOUS
 62
    4
 10
1725.3253
 20
985.52980000000002
 40
3
 50
270
 51
350.53766999999999
  0
LINE
  8
_0-0_LAYER001
  6
CONTINUOUS
 62
    4
 10
1471.5589
 20
1059.652
 11
1472.3728000000001
 21
1059.9585999999999
  0
LINE
  8
_0-0_LAYER001
  6
CONTINUOUS
 62
    4
 10
1472.3728000000001
 20
1059.9585999999999
 11
1475.9220999999998
 21
1061.2982
  0
LINE
  8
_0-0_LAYER001
  6
CONTINUOUS
 62
    4
 10
1475.9220999999998
 20
1061.2982
 11
1479.4787000000001
 21
1062.6470999999999
  0
LINE
  8
_0-0_LAYER001
  6
CONTINUOUS
 62
    4
 10
1479.4787000000001
 20
1062.6470999999999
 11
1483.0473999999999
 21
1064.0110999999999
  0
LINE
  8
_0-0_LAYER001
  6
CONTINUOUS
 62
    4
 10
1483.0473999999999
 20
1064.0110999999999
 11
1486.6327000000001
 21
1065.3961999999999
  0
LINE
  8
_0-0_LAYER001
  6
CONTINUOUS
 62
    4
 10
1486.6327000000001
 20
1065.3961999999999
 11
1490.2393999999999
 21
1066.8081999999999
  0
LINE
  8
_0-0_LAYER001
  6
CONTINUOUS
 62
    4
 10
1490.2393999999999
 20
1066.8081999999999
 11
1492.3429000000001
 21
1067.6418000000001
  0
LINE
  8
_0-0_LAYER001
  6
CONTINUOUS
 62
    4
 10
1492.3429000000001
 20
1067.6418000000001
 11
1494.4223000000002
 21
1068.4706000000001
  0
LINE
  8
_0-0_LAYER001
  6
CONTINUOUS
 62
    4
 10
1494.4223000000002
 20
1068.4706000000001
 11
1498.0288
 21
1069.8721
  0
LINE
  8
_0-0_LAYER001
  6
CONTINUOUS
 62
    4
 10
1498.0288
 20
1069.8721
 11
1501.6615999999999
 21
1071.1548
  0
LINE
  8
_0-0_LAYER001
  6
CONTINUOUS
 62
    4
 10
1501.6615999999999
 20
1071.1548
 11
1505.3195000000001
 21
1072.2213999999999
  0
LINE
  8
_0-0_LAYER001
  6
CONTINUOUS
 62
    4
 10
1505.3195000000001
 20
1072.2213999999999
 11
1509.0016000000001
 21
1072.9747
  0
LINE
  8
_0-0_LAYER001
  6
CONTINUOUS
 62
    4
 10
1509.0016000000001
 20
1072.9747
 11
1512.7069000000001
 21
1073.3172
  0
LINE
  8
_0-0_LAYER001
  6
CONTINUOUS
 62
    4
 10
1512.7069000000001
 20
1073.3172
 11
1514.8661999999999
 21
1073.2892999999999
  0
LINE
  8
_0-0_LAYER001
  6
CONTINUOUS
 62
    4
 10
1514.8661999999999
 20
1073.2892999999999
 11
1515.7154
 21
1073.2279000000001
  0
LINE
  8
_0-0_LAYER001
  6
CONTINUOUS
 62
    4
 10
1515.7154
 20
1073.2279000000001
 11
1517.1797000000001
 21
1073.0572999999999
  0
LINE
  8
_0-0_LAYER001
  6
CONTINUOUS
 62
    4
 10
1517.1797000000001
 20
1073.0572999999999
 11
1518.6408000000001
 21
1072.8106
  0
LINE
  8
_0-0_LAYER001
  6
CONTINUOUS
 62
    4
 10
1518.6408000000001
 20
1072.8106
 11
1520.0945000000002
 21
1072.4946
  0
LINE
  8
_0-0_LAYER001
  6
CONTINUOUS
 62
    4
 10
1520.0945000000002
 20
1072.4946
 11
1521.5365999999999
 21
1072.1161
  0
LINE
  8
_0-0_LAYER001
  6
CONTINUOUS
 62
    4
 10
1521.5365999999999
 20
1072.1161
 11
1522.9630000000002
 21
1071.6819
  0
LINE
  8
_0-0_LAYER001
  6
CONTINUOUS
 62
    4
 10
1522.9630000000002
 20
1071.6819
 11
1523.7815000000001
 21
1071.4073000000001
  0
LINE
  8
_0-0_LAYER001
  6
CONTINUOUS
 62
    4
 10
1523.7815000000001
 20
1071.4073000000001
 11
1526.2797999999998
 21
1070.4591
  0
LINE
  8
_0-0_LAYER001
  6
CONTINUOUS
 62
    4
 10
1526.2797999999998
 20
1070.4591
 11
1530.4387000000002
 21
1068.5255999999999
  0
LINE
  8
_0-0_LAYER001
  6
CONTINUOUS
 62
    4
 10
1530.4387000000002
 20
1068.5255999999999
 11
1534.4425000000001
 21
1066.2801999999999
  0
LINE
  8
_0-0_LAYER001
  6
CONTINUOUS
 62
    4
 10
1534.4425000000001
 20
1066.2801999999999
 11
1538.3292999999999
 21
1063.7999
  0
LINE
  8
_0-0_LAYER001
  6
CONTINUOUS
 62
    4
 10
1538.3292999999999
 20
1063.7999
 11
1542.1372999999999
 21
1061.1617000000001
  0
LINE
  8
_0-0_LAYER001
  6
CONTINUOUS
 62
    4
 10
1542.1372999999999
 20
1061.1617000000001
 11
1545.9045999999998
 21
1058.4427000000001
  0
LINE
  8
_0-0_LAYER001
  6
CONTINUOUS
 62
    4
 10
1545.9045999999998
 20
1058.4427000000001
 11
1548.0859
 21
1056.8588999999999
  0
LINE
  8
_0-0_LAYER001
  6
CONTINUOUS
 62
    4
 10
1548.0859
 20
1056.8588999999999
 11
1551.4175
 21
1054.472
  0
LINE
  8
_0-0_LAYER001
  6
CONTINUOUS
 62
    4
 10
1551.4175
 20
1054.472
 11
1557.2096999999999
 21
1050.4550999999999
  0
LINE
  8
_0-0_LAYER001
  6
CONTINUOUS
 62
    4
 10
1557.2096999999999
 20
1050.4550999999999
 11
1563.0819000000001
 21
1046.5985000000001
  0
LINE
  8
_0-0_LAYER001
  6
CONTINUOUS
 62
    4
 10
1563.0819000000001
 20
1046.5985000000001
 11
1569.0560999999998
 21
1042.944
  0
LINE
  8
_0-0_LAYER001
  6
CONTINUOUS
 62
    4
 10
1569.0560999999998
 20
1042.944
 11
1575.1543000000001
 21
1039.5335
  0
LINE
  8
_0-0_LAYER001
  6
CONTINUOUS
 62
    4
 10
1575.1543000000001
 20
1039.5335
 11
1581.3984999999998
 21
1036.4087
  0
LINE
  8
_0-0_LAYER001
  6
CONTINUOUS
 62
    4
 10
1581.3984999999998
 20
1036.4087
 11
1585.0958000000001
 21
1034.7437
  0
LINE
  8
_0-0_LAYER001
  6
CONTINUOUS
 62
    4
 10
1585.0958000000001
 20
1034.7437
 11
1588.1550999999999
 21
1033.4726000000001
  0
LINE
  8
_0-0_LAYER001
  6
CONTINUOUS
 62
    4
 10
1588.1550999999999
 20
1033.4726000000001
 11
1593.5156000000002
 21
1031.4703999999999
  0
LINE
  8
_0-0_LAYER001
  6
CONTINUOUS
 62
    4
 10
1593.5156000000002
 20
1031.4703999999999
 11
1598.9713000000002
 21
1029.7148999999999
  0
LINE
  8
_0-0_LAYER001
  6
CONTINUOUS
 62
    4
 10
1598.9713000000002
 20
1029.7148999999999
 11
1604.5063
 21
1028.2141999999999
  0
LINE
  8
_0-0_LAYER001
  6
CONTINUOUS
 62
    4
 10
1604.5063
 20
1028.2141999999999
 11
1610.1046000000001
 21
1026.9761000000001
  0
LINE
  8
_0-0_LAYER001
  6
CONTINUOUS
 62
    4
 10
1610.1046000000001
 20
1026.9761000000001
 11
1615.7503000000002
 21
1026.0089
  0
LINE
  8
_0-0_LAYER001
  6
CONTINUOUS
 62
    4
 10
1615.7503000000002
 20
1026.0089
 11
1619.0403000000001
 21
1025.5752
  0
LINE
  8
_0-0_LAYER001
  6
CONTINUOUS
 62
    4
 10
1619.0403000000001
 20
1025.5752
 11
1621.5596
 21
1025.3073999999999
  0
LINE
  8
_0-0_LAYER001
  6
CONTINUOUS
 62
    4
 10
1621.5596
 20
1025.3073999999999
 11
1625.9117000000001
 21
1024.9673
  0
LINE
  8
_0-0_LAYER001
  6
CONTINUOUS
 62
    4
 10
1625.9117000000001
 20
1024.9673
 11
1630.2719000000002
 21
1024.7679000000001
  0
LINE
  8
_0-0_LAYER001
  6
CONTINUOUS
 62
    4
 10
1630.2719000000002
 20
1024.7679000000001
 11
1634.6370999999999
 21
1024.6931999999999
  0
LINE
  8
_0-0_LAYER001
  6
CONTINUOUS
 62
    4
 10
1634.6370999999999
 20
1024.6931999999999
 11
1639.0041999999999
 21
1024.7275999999999
  0
LINE
  8
_0-0_LAYER001
  6
CONTINUOUS
 62
    4
 10
1639.0041999999999
 20
1024.7275999999999
 11
1643.3701000000001
 21
1024.8552
  0
LINE
  8
_0-0_LAYER001
  6
CONTINUOUS
 62
    4
 10
1643.3701000000001
 20
1024.8552
 11
1645.9005000000002
 21
1024.9657
  0
LINE
  8
_0-0_LAYER001
  6
CONTINUOUS
 62
    4
 10
1645.9005000000002
 20
1024.9657
 11
1650.6296000000002
 21
1025.2338999999999
  0
LINE
  8
_0-0_LAYER001
  6
CONTINUOUS
 62
    4
 10
1650.6296000000002
 20
1025.2338999999999
 11
1658.7678000000001
 21
1025.8648000000001
  0
LINE
  8
_0-0_LAYER001
  6
CONTINUOUS
 62
    4
 10
1658.7678000000001
 20
1025.8648000000001
 11
1666.8886000000002
 21
1026.6786999999999
  0
LINE
  8
_0-0_LAYER001
  6
CONTINUOUS
 62
    4
 10
1666.8886000000002
 20
1026.6786999999999
 11
1674.9944
 21
1027.6400000000001
  0
LINE
  8
_0-0_LAYER001
  6
CONTINUOUS
 62
    4
 10
1674.9944
 20
1027.6400000000001
 11
1683.0879
 21
1028.7131999999999
  0
LINE
  8
_0-0_LAYER001
  6
CONTINUOUS
 62
    4
 10
1683.0879
 20
1028.7131999999999
 11
1691.1714000000002
 21
1029.8626999999999
  0
LINE
  8
_0-0_LAYER001
  6
CONTINUOUS
 62
    4
 10
1691.1714000000002
 20
1029.8626999999999
 11
1695.8562999999999
 21
1030.5505000000001
  0
LINE
  8
_0-0_LAYER001
  6
CONTINUOUS
 62
    4
 10
1695.8562999999999
 20
1030.5505000000001
 11
1698.2912000000001
 21
1030.9114
  0
LINE
  8
_0-0_LAYER001
  6
CONTINUOUS
 62
    4
 10
1698.2912000000001
 20
1030.9114
 11
1702.4881999999998
 21
1031.5373999999999
  0
LINE
  8
_0-0_LAYER001
  6
CONTINUOUS
 62
    4
 10
1702.4881999999998
 20
1031.5373999999999
 11
1706.6840000000002
 21
1032.1675
  0
LINE
  8
_0-0_LAYER001
  6
CONTINUOUS
 62
    4
 10
1706.6840000000002
 20
1032.1675
 11
1710.8788
 21
1032.8008
  0
LINE
  8
_0-0_LAYER001
  6
CONTINUOUS
 62
    4
 10
1710.8788
 20
1032.8008
 11
1715.0729999999999
 21
1033.4363000000001
  0
LINE
  8
_0-0_LAYER001
  6
CONTINUOUS
 62
    4
 10
1715.0729999999999
 20
1033.4363000000001
 11
1719.2667000000001
 21
1034.0733
  0
LINE
  8
_0-0_LAYER001
  6
CONTINUOUS
 62
    4
 10
1719.2667000000001
 20
1034.0733
 11
1721.6990000000001
 21
1034.4431
  0
LINE
  8
_0-0_LAYER001
  6
CONTINUOUS
 62
    4
 10
1476.6621
 20
1042.3395
 11
1478.7240000000002
 21
1043.1162999999999
  0
LINE
  8
_0-0_LAYER001
  6
CONTINUOUS
 62
    4
 10
1478.7240000000002
 20
1043.1162999999999
 11
1482.2916
 21
1044.4629
  0
LINE
  8
_0-0_LAYER001
  6
CONTINUOUS
 62
    4
 10
1482.2916
 20
1044.4629
 11
1485.8834999999999
 21
1045.8251
  0
LINE
  8
_0-0_LAYER001
  6
CONTINUOUS
 62
    4
 10
1485.8834999999999
 20
1045.8251
 11
1489.5039000000002
 21
1047.2089000000001
  0
LINE
  8
_0-0_LAYER001
  6
CONTINUOUS
 62
    4
 10
1489.5039000000002
 20
1047.2089000000001
 11
1493.1569
 21
1048.6201000000001
  0
LINE
  8
_0-0_LAYER001
  6
CONTINUOUS
 62
    4
 10
1493.1569
 20
1048.6201000000001
 11
1496.8361
 21
1050.0605
  0
LINE
  8
_0-0_LAYER001
  6
CONTINUOUS
 62
    4
 10
1496.8361
 20
1050.0605
 11
1498.9913000000001
 21
1050.9145000000001
  0
LINE
  8
_0-0_LAYER001
  6
CONTINUOUS
 62
    4
 10
1498.9913000000001
 20
1050.9145000000001
 11
1501.0147999999999
 21
1051.7212
  0
LINE
  8
_0-0_LAYER001
  6
CONTINUOUS
 62
    4
 10
1501.0147999999999
 20
1051.7212
 11
1504.2867000000001
 21
1052.9926
  0
LINE
  8
_0-0_LAYER001
  6
CONTINUOUS
 62
    4
 10
1504.2867000000001
 20
1052.9926
 11
1507.1817999999998
 21
1054.0147999999999
  0
LINE
  8
_0-0_LAYER001
  6
CONTINUOUS
 62
    4
 10
1507.1817999999998
 20
1054.0147999999999
 11
1509.6500000000001
 21
1054.7345
  0
LINE
  8
_0-0_LAYER001
  6
CONTINUOUS
 62
    4
 10
1509.6500000000001
 20
1054.7345
 11
1511.6417000000001
 21
1055.1420000000001
  0
LINE
  8
_0-0_LAYER001
  6
CONTINUOUS
 62
    4
 10
1511.6417000000001
 20
1055.1420000000001
 11
1513.4209999999998
 21
1055.3064999999999
  0
LINE
  8
_0-0_LAYER001
  6
CONTINUOUS
 62
    4
 10
1513.4209999999998
 20
1055.3064999999999
 11
1514.1005
 21
1055.2977000000001
  0
LINE
  8
_0-0_LAYER001
  6
CONTINUOUS
 62
    4
 10
1514.1005
 20
1055.2977000000001
 11
1514.0243999999998
 21
1055.3032000000001
  0
LINE
  8
_0-0_LAYER001
  6
CONTINUOUS
 62
    4
 10
1514.0243999999998
 20
1055.3032000000001
 11
1514.6381000000001
 21
1055.2317
  0
LINE
  8
_0-0_LAYER001
  6
CONTINUOUS
 62
    4
 10
1514.6381000000001
 20
1055.2317
 11
1515.2285000000002
 21
1055.1320000000001
  0
LINE
  8
_0-0_LAYER001
  6
CONTINUOUS
 62
    4
 10
1515.2285000000002
 20
1055.1320000000001
 11
1515.8959
 21
1054.9869000000001
  0
LINE
  8
_0-0_LAYER001
  6
CONTINUOUS
 62
    4
 10
1515.8959
 20
1054.9869000000001
 11
1516.6295
 21
1054.7944
  0
LINE
  8
_0-0_LAYER001
  6
CONTINUOUS
 62
    4
 10
1516.6295
 20
1054.7944
 11
1517.4785999999999
 21
1054.5359000000001
  0
LINE
  8
_0-0_LAYER001
  6
CONTINUOUS
 62
    4
 10
1517.4785999999999
 20
1054.5359000000001
 11
1517.7226999999998
 21
1054.454
  0
LINE
  8
_0-0_LAYER001
  6
CONTINUOUS
 62
    4
 10
1517.7226999999998
 20
1054.454
 11
1519.2826
 21
1053.8619000000001
  0
LINE
  8
_0-0_LAYER001
  6
CONTINUOUS
 62
    4
 10
1519.2826
 20
1053.8619000000001
 11
1522.2303000000002
 21
1052.4915000000001
  0
LINE
  8
_0-0_LAYER001
  6
CONTINUOUS
 62
    4
 10
1522.2303000000002
 20
1052.4915000000001
 11
1525.1914000000002
 21
1050.8308999999999
  0
LINE
  8
_0-0_LAYER001
  6
CONTINUOUS
 62
    4
 10
1525.1914000000002
 20
1050.8308999999999
 11
1528.3591000000001
 21
1048.8096
  0
LINE
  8
_0-0_LAYER001
  6
CONTINUOUS
 62
    4
 10
1528.3591000000001
 20
1048.8096
 11
1531.7438000000002
 21
1046.4646
  0
LINE
  8
_0-0_LAYER001
  6
CONTINUOUS
 62
    4
 10
1531.7438000000002
 20
1046.4646
 11
1535.3494999999998
 21
1043.8622
  0
LINE
  8
_0-0_LAYER001
  6
CONTINUOUS
 62
    4
 10
1535.3494999999998
 20
1043.8622
 11
1537.5565000000001
 21
1042.2597000000001
  0
LINE
  8
_0-0_LAYER001
  6
CONTINUOUS
 62
    4
 10
1537.5565000000001
 20
1042.2597000000001
 11
1541.0464999999999
 21
1039.7593999999999
  0
LINE
  8
_0-0_LAYER001
  6
CONTINUOUS
 62
    4
 10
1541.0464999999999
 20
1039.7593999999999
 11
1547.1387
 21
1035.5345
  0
LINE
  8
_0-0_LAYER001
  6
CONTINUOUS
 62
    4
 10
1547.1387
 20
1035.5345
 11
1553.4423999999999
 21
1031.3943999999999
  0
LINE
  8
_0-0_LAYER001
  6
CONTINUOUS
 62
    4
 10
1553.4423999999999
 20
1031.3943999999999
 11
1559.9630999999999
 21
1027.4056
  0
LINE
  8
_0-0_LAYER001
  6
CONTINUOUS
 62
    4
 10
1559.9630999999999
 20
1027.4056
 11
1566.7291
 21
1023.6215999999999
  0
LINE
  8
_0-0_LAYER001
  6
CONTINUOUS
 62
    4
 10
1566.7291
 20
1023.6215999999999
 11
1573.6720999999998
 21
1020.1470999999999
  0
LINE
  8
_0-0_LAYER001
  6
CONTINUOUS
 62
    4
 10
1573.6720999999998
 20
1020.1470999999999
 11
1577.9454999999998
 21
1018.2227
  0
LINE
  8
_0-0_LAYER001
  6
CONTINUOUS
 62
    4
 10
1577.9454999999998
 20
1018.2227
 11
1581.5506
 21
1016.7248
  0
LINE
  8
_0-0_LAYER001
  6
CONTINUOUS
 62
    4
 10
1581.5506
 20
1016.7248
 11
1587.6066999999998
 21
1014.4628
  0
LINE
  8
_0-0_LAYER001
  6
CONTINUOUS
 62
    4
 10
1587.6066999999998
 20
1014.4628
 11
1593.8566000000001
 21
1012.4518
  0
LINE
  8
_0-0_LAYER001
  6
CONTINUOUS
 62
    4
 10
1593.8566000000001
 20
1012.4518
 11
1600.2053000000001
 21
1010.7303999999999
  0
LINE
  8
_0-0_LAYER001
  6
CONTINUOUS
 62
    4
 10
1600.2053000000001
 20
1010.7303999999999
 11
1606.6395000000002
 21
1009.3074999999999
  0
LINE
  8
_0-0_LAYER001
  6
CONTINUOUS
 62
    4
 10
1606.6395000000002
 20
1009.3074999999999
 11
1613.0531999999998
 21
1008.2088000000001
  0
LINE
  8
_0-0_LAYER001
  6
CONTINUOUS
 62
    4
 10
1613.0531999999998
 20
1008.2088000000001
 11
1616.9121
 21
1007.7
  0
LINE
  8
_0-0_LAYER001
  6
CONTINUOUS
 62
    4
 10
1616.9121
 20
1007.7
 11
1619.9067
 21
1007.3815999999999
  0
LINE
  8
_0-0_LAYER001
  6
CONTINUOUS
 62
    4
 10
1619.9067
 20
1007.3815999999999
 11
1624.7991000000002
 21
1006.9993999999999
  0
LINE
  8
_0-0_LAYER001
  6
CONTINUOUS
 62
    4
 10
1624.7991000000002
 20
1006.9993999999999
 11
1629.7066
 21
1006.7748999999999
  0
LINE
  8
_0-0_LAYER001
  6
CONTINUOUS
 62
    4
 10
1629.7066
 20
1006.7748999999999
 11
1634.5540000000001
 21
1006.692
  0
LINE
  8
_0-0_LAYER001
  6
CONTINUOUS
 62
    4
 10
1634.5540000000001
 20
1006.692
 11
1639.3379
 21
1006.7297000000001
  0
LINE
  8
_0-0_LAYER001
  6
CONTINUOUS
 62
    4
 10
1639.3379
 20
1006.7297000000001
 11
1644.0255999999999
 21
1006.8666000000001
  0
LINE
  8
_0-0_LAYER001
  6
CONTINUOUS
 62
    4
 10
1644.0255999999999
 20
1006.8666000000001
 11
1646.8027000000002
 21
1006.9879000000001
  0
LINE
  8
_0-0_LAYER001
  6
CONTINUOUS
 62
    4
 10
1646.8027000000002
 20
1006.9879000000001
 11
1651.8350999999998
 21
1007.2733000000001
  0
LINE
  8
_0-0_LAYER001
  6
CONTINUOUS
 62
    4
 10
1651.8350999999998
 20
1007.2733000000001
 11
1660.3611999999998
 21
1007.9344000000001
  0
LINE
  8
_0-0_LAYER001
  6
CONTINUOUS
 62
    4
 10
1660.3611999999998
 20
1007.9344000000001
 11
1668.8461000000002
 21
1008.7846999999999
  0
LINE
  8
_0-0_LAYER001
  6
CONTINUOUS
 62
    4
 10
1668.8461000000002
 20
1008.7846999999999
 11
1677.2374
 21
1009.7799
  0
LINE
  8
_0-0_LAYER001
  6
CONTINUOUS
 62
    4
 10
1677.2374
 20
1009.7799
 11
1685.5381000000002
 21
1010.8805
  0
LINE
  8
_0-0_LAYER001
  6
CONTINUOUS
 62
    4
 10
1685.5381000000002
 20
1010.8805
 11
1693.7458999999999
 21
1012.0478000000001
  0
LINE
  8
_0-0_LAYER001
  6
CONTINUOUS
 62
    4
 10
1693.7458999999999
 20
1012.0478000000001
 11
1698.4830000000002
 21
1012.7431999999999
  0
LINE
  8
_0-0_LAYER001
  6
CONTINUOUS
 62
    4
 10
1698.4830000000002
 20
1012.7431999999999
 11
1700.9382999999998
 21
1013.1070999999999
  0
LINE
  8
_0-0_LAYER001
  6
CONTINUOUS
 62
    4
 10
1700.9382999999998
 20
1013.1070999999999
 11
1705.1525000000001
 21
1013.7357
  0
LINE
  8
_0-0_LAYER001
  6
CONTINUOUS
 62
    4
 10
1705.1525000000001
 20
1013.7357
 11
1709.364
 21
1014.3680999999999
  0
LINE
  8
_0-0_LAYER001
  6
CONTINUOUS
 62
    4
 10
1709.364
 20
1014.3680999999999
 11
1713.5707000000002
 21
1015.0032000000001
  0
LINE
  8
_0-0_LAYER001
  6
CONTINUOUS
 62
    4
 10
1713.5707000000002
 20
1015.0032000000001
 11
1717.7728999999999
 21
1015.6400000000001
  0
LINE
  8
_0-0_LAYER001
  6
CONTINUOUS
 62
    4
 10
1717.7728999999999
 20
1015.6400000000001
 11
1721.9708000000001
 21
1016.2775999999999
  0
LINE
  8
_0-0_LAYER001
  6
CONTINUOUS
 62
    4
 10
1721.9708000000001
 20
1016.2775999999999
 11
1723.5884999999998
 21
1016.5235
  0
LINE
  8
_0-0_LAYER001
  6
CONTINUOUS
 62
    4
 10
1471.1333
 20
1059.4896000000001
 11
1471.5592999999999
 21
1059.6527000000001
  0
ARC
  8
_0-0_LAYER001
  6
CONTINUOUS
 62
    4
 10
1472.2058999999999
 20
1056.6878999999999
 40
3
 50
110.94902000000002
 51
178.70000000000002
  0
LINE
  8
_0-0_LAYER001
  6
CONTINUOUS
 62
    4
 10
1469.0972999999999
 20
1040.9168999999999
 11
1469.0972999999999
 21
1056.6394
  0
LINE
  8
_0-0_LAYER001
  6
CONTINUOUS
 62
    4
 10
1470.4513000000002
 20
1039.9816000000001
 11
1476.6262000000002
 21
1042.3188
  0
ARC
  8
_0-0_LAYER001
  6
CONTINUOUS
 62
    4
 10
1470.0972999999999
 20
1040.9168999999999
 40
1
 50
180
 51
290.73165999999998
  0
LINE
  8
_0-0_LAYER001
  6
CONTINUOUS
 62
    4
 10
1721.8238999999999
 20
1034.4784999999999
 11
1766.3164000000002
 21
1044.1347000000001
  0
LINE
  8
_0-0_LAYER001
  6
CONTINUOUS
 62
    4
 10
1728.5691000000002
 20
1014.6448
 11
1767.2408999999998
 21
1023.6947
  0
LINE
  8
_0-0_LAYER001
  6
CONTINUOUS
 62
    4
 10
1767.2408999999998
 20
1024.6512
 11
1767.2408999999998
 21
1023.6947
  0
LINE
  8
_0-0_LAYER001
  6
CONTINUOUS
 62
    4
 10
1773.5284999999999
 20
1027.2809
 11
1723.3562999999999
 21
1016.3920000000001
  0
LINE
  8
_0-0_LAYER001
  6
CONTINUOUS
 62
    4
 10
1773.4960000000001
 20
1006.5318
 11
1723.9121
 21
995.46399999999994
  0
LINE
  8
_0-0_LAYER001
  6
CONTINUOUS
 62
    4
 10
1774.2782000000002
 20
1007.5078000000001
 11
1774.2782000000002
 21
1025.7887000000001
  0
ARC
  8
_0-0_LAYER001
  6
CONTINUOUS
 62
    4
 10
1773.2782000000002
 20
1007.5078000000001
 40
1
 50
282.58296000000001
 51
0.0000000000000254
  0
LINE
  8
_0-0_LAYER001
  6
CONTINUOUS
 62
    4
 10
1329.5476000000003
 20
975.93959999999993
 11
1321.0120999999999
 21
990.47299999999996
  0
LINE
  8
_0-0_LAYER001
  6
CONTINUOUS
 62
    4
 10
1337.7154999999998
 20
975.28929999999991
 11
1346.0217
 21
985.35480000000007
  0
ARC
  8
_0-0_LAYER001
  6
CONTINUOUS
 62
    4
 10
1333.8589999999999
 20
978.47180000000003
 40
5
 50
210.42578
 51
320.47001
  0
LINE
  8
_0-0_LAYER001
  6
CONTINUOUS
 62
    4
 10
1413.6610999999998
 20
974.81950000000006
 11
1406.3357000000001
 21
986.1255000000001
  0
LINE
  8
_0-0_LAYER001
  6
CONTINUOUS
 62
    4
 10
1422.1705999999999
 20
975.00939999999991
 11
1431.1091000000001
 21
990.25510000000008
  0
ARC
  8
_0-0_LAYER001
  6
CONTINUOUS
 62
    4
 10
1417.8573000000001
 20
977.53829999999994
 40
5
 50
212.93986000000001
 51
329.61716000000001
  0
LINE
  8
_0-0_LAYER001
  6
CONTINUOUS
 62
    4
 10
1461.4526999999998
 20
1014.567
 11
1463.8807999999999
 21
1014.9709
  0
LINE
  8
_0-0_LAYER001
  6
CONTINUOUS
 62
    4
 10
1457.2636000000002
 20
1013.8707999999999
 11
1461.4526999999998
 21
1014.567
  0
LINE
  8
_0-0_LAYER001
  6
CONTINUOUS
 62
    4
 10
1453.0698000000002
 20
1013.1751999999999
 11
1457.2636000000002
 21
1013.8707999999999
  0
LINE
  8
_0-0_LAYER001
  6
CONTINUOUS
 62
    4
 10
1448.8710000000001
 20
1012.4812999999999
 11
1453.0698000000002
 21
1013.1751999999999
  0
LINE
  8
_0-0_LAYER001
  6
CONTINUOUS
 62
    4
 10
1444.6669999999999
 20
1011.7898
 11
1448.8710000000001
 21
1012.4812999999999
  0
LINE
  8
_0-0_LAYER001
  6
CONTINUOUS
 62
    4
 10
1440.4602
 20
1011.1021000000001
 11
1444.6669999999999
 21
1011.7898
  0
LINE
  8
_0-0_LAYER001
  6
CONTINUOUS
 62
    4
 10
1438.0079000000001
 20
1010.7036000000001
 11
1440.4602
 21
1011.1021000000001
  0
LINE
  8
_0-0_LAYER001
  6
CONTINUOUS
 62
    4
 10
1433.2750999999998
 20
1009.9412
 11
1438.0079000000001
 21
1010.7036000000001
  0
LINE
  8
_0-0_LAYER001
  6
CONTINUOUS
 62
    4
 10
1425.0707
 20
1008.6573000000001
 11
1433.2750999999998
 21
1009.9412
  0
LINE
  8
_0-0_LAYER001
  6
CONTINUOUS
 62
    4
 10
1416.7632000000001
 20
1007.4375
 11
1425.0707
 21
1008.6573000000001
  0
LINE
  8
_0-0_LAYER001
  6
CONTINUOUS
 62
    4
 10
1408.3548999999998
 20
1006.3210999999999
 11
1416.7632000000001
 21
1007.4375
  0
LINE
  8
_0-0_LAYER001
  6
CONTINUOUS
 62
    4
 10
1399.8423
 20
1005.3477
 11
1408.3548999999998
 21
1006.3210999999999
  0
LINE
  8
_0-0_LAYER001
  6
CONTINUOUS
 62
    4
 10
1391.2832000000001
 20
1004.5636999999999
 11
1399.8423
 21
1005.3477
  0
LINE
  8
_0-0_LAYER001
  6
CONTINUOUS
 62
    4
 10
1386.2217000000001
 20
1004.2057
 11
1391.2832000000001
 21
1004.5636999999999
  0
LINE
  8
_0-0_LAYER001
  6
CONTINUOUS
 62
    4
 10
1383.4191000000001
 20
1004.0441000000001
 11
1386.2217000000001
 21
1004.2057
  0
LINE
  8
_0-0_LAYER001
  6
CONTINUOUS
 62
    4
 10
1378.6981000000001
 20
1003.8400999999999
 11
1383.4191000000001
 21
1004.0441000000001
  0
LINE
  8
_0-0_LAYER001
  6
CONTINUOUS
 62
    4
 10
1373.8688
 20
1003.7347
 11
1378.6981000000001
 21
1003.8400999999999
  0
LINE
  8
_0-0_LAYER001
  6
CONTINUOUS
 62
    4
 10
1368.9672
 20
1003.7501
 11
1373.8688
 21
1003.7347
  0
LINE
  8
_0-0_LAYER001
  6
CONTINUOUS
 62
    4
 10
1363.9962
 20
1003.9078999999999
 11
1368.9672
 21
1003.7501
  0
LINE
  8
_0-0_LAYER001
  6
CONTINUOUS
 62
    4
 10
1359.0388000000003
 20
1004.2257
 11
1363.9962
 21
1003.9078999999999
  0
LINE
  8
_0-0_LAYER001
  6
CONTINUOUS
 62
    4
 10
1355.9871000000001
 20
1004.5071
 11
1359.0388000000003
 21
1004.2257
  0
LINE
  8
_0-0_LAYER001
  6
CONTINUOUS
 62
    4
 10
1352.0582999999999
 20
1004.9694
 11
1355.9871000000001
 21
1004.5071
  0
LINE
  8
_0-0_LAYER001
  6
CONTINUOUS
 62
    4
 10
1345.5443
 20
1005.9919
 11
1352.0582999999999
 21
1004.9694
  0
LINE
  8
_0-0_LAYER001
  6
CONTINUOUS
 62
    4
 10
1338.9976999999999
 20
1007.3440000000001
 11
1345.5443
 21
1005.9919
  0
LINE
  8
_0-0_LAYER001
  6
CONTINUOUS
 62
    4
 10
1332.5347999999999
 20
1008.9999
 11
1338.9976999999999
 21
1007.3440000000001
  0
LINE
  8
_0-0_LAYER001
  6
CONTINUOUS
 62
    4
 10
1326.1687999999999
 20
1010.9505999999999
 11
1332.5347999999999
 21
1008.9999
  0
LINE
  8
_0-0_LAYER001
  6
CONTINUOUS
 62
    4
 10
1320.0041000000001
 20
1013.1556
 11
1326.1687999999999
 21
1010.9505999999999
  0
LINE
  8
_0-0_LAYER001
  6
CONTINUOUS
 62
    4
 10
1316.3173999999999
 20
1014.6274000000001
 11
1320.0041000000001
 21
1013.1556
  0
LINE
  8
_0-0_LAYER001
  6
CONTINUOUS
 62
    4
 10
1311.9531000000002
 20
1016.5199
 11
1316.3173999999999
 21
1014.6274000000001
  0
LINE
  8
_0-0_LAYER001
  6
CONTINUOUS
 62
    4
 10
1304.8840999999998
 20
1019.9348
 11
1311.9531000000002
 21
1016.5199
  0
LINE
  8
_0-0_LAYER001
  6
CONTINUOUS
 62
    4
 10
1297.9911999999999
 20
1023.6645000000001
 11
1304.8840999999998
 21
1019.9348
  0
LINE
  8
_0-0_LAYER001
  6
CONTINUOUS
 62
    4
 10
1291.3542000000002
 20
1027.5980999999999
 11
1297.9911999999999
 21
1023.6645000000001
  0
LINE
  8
_0-0_LAYER001
  6
CONTINUOUS
 62
    4
 10
1284.9449
 20
1031.6805999999999
 11
1291.3542000000002
 21
1027.5980999999999
  0
LINE
  8
_0-0_LAYER001
  6
CONTINUOUS
 62
    4
 10
1278.7607
 20
1035.8426999999999
 11
1284.9449
 21
1031.6805999999999
  0
LINE
  8
_0-0_LAYER001
  6
CONTINUOUS
 62
    4
 10
1275.2183
 20
1038.3063999999999
 11
1278.7607
 21
1035.8426999999999
  0
LINE
  8
_0-0_LAYER001
  6
CONTINUOUS
 62
    4
 10
1272.9863
 20
1039.8798999999999
 11
1275.2183
 21
1038.3063999999999
  0
LINE
  8
_0-0_LAYER001
  6
CONTINUOUS
 62
    4
 10
1269.3626999999999
 20
1042.4191000000001
 11
1272.9863
 21
1039.8798999999999
  0
LINE
  8
_0-0_LAYER001
  6
CONTINUOUS
 62
    4
 10
1265.9930999999999
 20
1044.6846
 11
1269.3626999999999
 21
1042.4191000000001
  0
LINE
  8
_0-0_LAYER001
  6
CONTINUOUS
 62
    4
 10
1262.8780999999999
 20
1046.6116
 11
1265.9930999999999
 21
1044.6846
  0
LINE
  8
_0-0_LAYER001
  6
CONTINUOUS
 62
    4
 10
1260.0109
 20
1048.1674
 11
1262.8780999999999
 21
1046.6116
  0
LINE
  8
_0-0_LAYER001
  6
CONTINUOUS
 62
    4
 10
1257.1797999999999
 20
1049.4358
 11
1260.0109
 21
1048.1674
  0
LINE
  8
_0-0_LAYER001
  6
CONTINUOUS
 62
    4
 10
1255.7166
 20
1049.9680000000001
 11
1257.1797999999999
 21
1049.4358
  0
LINE
  8
_0-0_LAYER001
  6
CONTINUOUS
 62
    4
 10
1255.5355
 20
1050.0259000000001
 11
1255.7166
 21
1049.9680000000001
  0
LINE
  8
_0-0_LAYER001
  6
CONTINUOUS
 62
    4
 10
1254.7472
 20
1050.2538999999999
 11
1255.5355
 21
1050.0259000000001
  0
LINE
  8
_0-0_LAYER001
  6
CONTINUOUS
 62
    4
 10
1254.0899999999999
 20
1050.4166
 11
1254.7472
 21
1050.2538999999999
  0
LINE
  8
_0-0_LAYER001
  6
CONTINUOUS
 62
    4
 10
1253.5082
 20
1050.5346
 11
1254.0899999999999
 21
1050.4166
  0
LINE
  8
_0-0_LAYER001
  6
CONTINUOUS
 62
    4
 10
1253.4682
 20
1050.5408
 11
1253.5082
 21
1050.5346
  0
LINE
  8
_0-0_LAYER001
  6
CONTINUOUS
 62
    4
 10
1457.442
 20
995.37959999999998
 11
1459.0560999999998
 21
995.64799999999991
  0
LINE
  8
_0-0_LAYER001
  6
CONTINUOUS
 62
    4
 10
1453.2534999999998
 20
994.68339999999989
 11
1457.442
 21
995.37959999999998
  0
LINE
  8
_0-0_LAYER001
  6
CONTINUOUS
 62
    4
 10
1449.0605999999998
 20
993.98800000000006
 11
1453.2534999999998
 21
994.68339999999989
  0
LINE
  8
_0-0_LAYER001
  6
CONTINUOUS
 62
    4
 10
1444.8631
 20
993.29420000000005
 11
1449.0605999999998
 21
993.98800000000006
  0
LINE
  8
_0-0_LAYER001
  6
CONTINUOUS
 62
    4
 10
1440.6608000000001
 20
992.60300000000007
 11
1444.8631
 21
993.29420000000005
  0
LINE
  8
_0-0_LAYER001
  6
CONTINUOUS
 62
    4
 10
1436.4558999999999
 20
991.91570000000002
 11
1440.6608000000001
 21
992.60300000000007
  0
LINE
  8
_0-0_LAYER001
  6
CONTINUOUS
 62
    4
 10
1434.0057999999999
 20
991.51749999999993
 11
1436.4558999999999
 21
991.91570000000002
  0
LINE
  8
_0-0_LAYER001
  6
CONTINUOUS
 62
    4
 10
1429.2788999999998
 20
990.75600000000009
 11
1434.0057999999999
 21
991.51749999999993
  0
LINE
  8
_0-0_LAYER001
  6
CONTINUOUS
 62
    4
 10
1421.0881999999997
 20
989.47430000000008
 11
1429.2788999999998
 21
990.75600000000009
  0
LINE
  8
_0-0_LAYER001
  6
CONTINUOUS
 62
    4
 10
1412.8036999999999
 20
988.25790000000006
 11
1421.0881999999997
 21
989.47430000000008
  0
LINE
  8
_0-0_LAYER001
  6
CONTINUOUS
 62
    4
 10
1404.4271000000001
 20
987.14570000000003
 11
1412.8036999999999
 21
988.25790000000006
  0
LINE
  8
_0-0_LAYER001
  6
CONTINUOUS
 62
    4
 10
1395.9548999999997
 20
986.17689999999993
 11
1404.4271000000001
 21
987.14570000000003
  0
LINE
  8
_0-0_LAYER001
  6
CONTINUOUS
 62
    4
 10
1387.4387999999999
 20
985.39689999999996
 11
1395.9548999999997
 21
986.17689999999993
  0
LINE
  8
_0-0_LAYER001
  6
CONTINUOUS
 62
    4
 10
1382.4110000000001
 20
985.04119999999989
 11
1387.4387999999999
 21
985.39689999999996
  0
LINE
  8
_0-0_LAYER001
  6
CONTINUOUS
 62
    4
 10
1379.6358
 20
984.88120000000004
 11
1382.4110000000001
 21
985.04119999999989
  0
LINE
  8
_0-0_LAYER001
  6
CONTINUOUS
 62
    4
 10
1374.9504999999999
 20
984.67879999999991
 11
1379.6358
 21
984.88120000000004
  0
LINE
  8
_0-0_LAYER001
  6
CONTINUOUS
 62
    4
 10
1370.1675
 20
984.57439999999997
 11
1374.9504999999999
 21
984.67879999999991
  0
LINE
  8
_0-0_LAYER001
  6
CONTINUOUS
 62
    4
 10
1365.3195000000001
 20
984.58960000000002
 11
1370.1675
 21
984.57439999999997
  0
LINE
  8
_0-0_LAYER001
  6
CONTINUOUS
 62
    4
 10
1360.4093
 20
984.74549999999999
 11
1365.3195000000001
 21
984.58960000000002
  0
LINE
  8
_0-0_LAYER001
  6
CONTINUOUS
 62
    4
 10
1355.5119999999999
 20
985.0594000000001
 11
1360.4093
 21
984.74549999999999
  0
LINE
  8
_0-0_LAYER001
  6
CONTINUOUS
 62
    4
 10
1352.5133000000001
 20
985.33600000000001
 11
1355.5119999999999
 21
985.0594000000001
  0
LINE
  8
_0-0_LAYER001
  6
CONTINUOUS
 62
    4
 10
1348.6477
 20
985.79079999999999
 11
1352.5133000000001
 21
985.33600000000001
  0
LINE
  8
_0-0_LAYER001
  6
CONTINUOUS
 62
    4
 10
1342.2192999999997
 20
986.79989999999998
 11
1348.6477
 21
985.79079999999999
  0
LINE
  8
_0-0_LAYER001
  6
CONTINUOUS
 62
    4
 10
1335.7657999999997
 20
988.13280000000009
 11
1342.2192999999997
 21
986.79989999999998
  0
LINE
  8
_0-0_LAYER001
  6
CONTINUOUS
 62
    4
 10
1329.3937000000001
 20
989.7654
 11
1335.7657999999997
 21
988.13280000000009
  0
LINE
  8
_0-0_LAYER001
  6
CONTINUOUS
 62
    4
 10
1323.1162999999997
 20
991.6889000000001
 11
1329.3937000000001
 21
989.7654
  0
LINE
  8
_0-0_LAYER001
  6
CONTINUOUS
 62
    4
 10
1317.0292999999997
 20
993.86609999999996
 11
1323.1162999999997
 21
991.6889000000001
  0
LINE
  8
_0-0_LAYER001
  6
CONTINUOUS
 62
    4
 10
1313.4036000000001
 20
995.31349999999998
 11
1317.0292999999997
 21
993.86609999999996
  0
LINE
  8
_0-0_LAYER001
  6
CONTINUOUS
 62
    4
 10
1309.1037000000001
 20
997.17810000000009
 11
1313.4036000000001
 21
995.31349999999998
  0
LINE
  8
_0-0_LAYER001
  6
CONTINUOUS
 62
    4
 10
1302.1129000000001
 20
1000.5553
 11
1309.1037000000001
 21
997.17810000000009
  0
LINE
  8
_0-0_LAYER001
  6
CONTINUOUS
 62
    4
 10
1295.2946999999999
 20
1004.2445
 11
1302.1129000000001
 21
1000.5553
  0
LINE
  8
_0-0_LAYER001
  6
CONTINUOUS
 62
    4
 10
1288.7190000000001
 20
1008.1419000000001
 11
1295.2946999999999
 21
1004.2445
  0
LINE
  8
_0-0_LAYER001
  6
CONTINUOUS
 62
    4
 10
1282.3579999999997
 20
1012.1935000000001
 11
1288.7190000000001
 21
1008.1419000000001
  0
LINE
  8
_0-0_LAYER001
  6
CONTINUOUS
 62
    4
 10
1276.2075
 20
1016.3330000000001
 11
1282.3579999999997
 21
1012.1935000000001
  0
LINE
  8
_0-0_LAYER001
  6
CONTINUOUS
 62
    4
 10
1272.6829
 20
1018.7843
 11
1276.2075
 21
1016.3330000000001
  0
LINE
  8
_0-0_LAYER001
  6
CONTINUOUS
 62
    4
 10
1270.4538
 20
1020.3558
 11
1272.6829
 21
1018.7843
  0
LINE
  8
_0-0_LAYER001
  6
CONTINUOUS
 62
    4
 10
1266.8121000000001
 20
1022.9077
 11
1270.4538
 21
1020.3558
  0
LINE
  8
_0-0_LAYER001
  6
CONTINUOUS
 62
    4
 10
1263.395
 20
1025.2050999999999
 11
1266.8121000000001
 21
1022.9077
  0
LINE
  8
_0-0_LAYER001
  6
CONTINUOUS
 62
    4
 10
1260.1993
 20
1027.182
 11
1263.395
 21
1025.2050999999999
  0
LINE
  8
_0-0_LAYER001
  6
CONTINUOUS
 62
    4
 10
1257.2154
 20
1028.8010999999999
 11
1260.1993
 21
1027.182
  0
LINE
  8
_0-0_LAYER001
  6
CONTINUOUS
 62
    4
 10
1254.2488000000001
 20
1030.1303
 11
1257.2154
 21
1028.8010999999999
  0
LINE
  8
_0-0_LAYER001
  6
CONTINUOUS
 62
    4
 10
1253.4989
 20
1030.403
 11
1254.2488000000001
 21
1030.1303
  0
LINE
  8
_0-0_LAYER001
  6
CONTINUOUS
 62
    4
 10
1253.8318999999999
 20
1050.4460999999999
 11
1253.6559
 21
1030.2727
  0
LINE
  8
_0-0_LAYER001
  6
CONTINUOUS
 62
    4
 10
1454.1576
 20
984.95830000000001
 11
1451.9121
 21
993.53179999999998
  0
ARC
  8
_0-0_LAYER001
  6
CONTINUOUS
 62
    4
 10
1457.0596999999998
 20
985.71839999999997
 40
3
 50
194.67639000000003
 51
270.00000000000006
  0
LINE
  8
_0-0_LAYER001
  6
CONTINUOUS
 62
    4
 10
1460.5021999999999
 20
982.71409999999992
 11
1457.0843
 21
982.71409999999992
  0
LINE
  8
_0-0_LAYER001
  6
CONTINUOUS
 62
    4
 10
1463.4612999999999
 20
985.22090000000003
 11
1465.3953999999999
 21
996.82510000000002
  0
ARC
  8
_0-0_LAYER001
  6
CONTINUOUS
 62
    4
 10
1460.5021999999999
 20
985.71409999999992
 40
3
 50
270
 51
350.53766999999999
  0
LINE
  8
_0-0_LAYER001
  6
CONTINUOUS
 62
    4
 10
1206.7357999999999
 20
1059.8362999999999
 11
1207.5497
 21
1060.143
  0
LINE
  8
_0-0_LAYER001
  6
CONTINUOUS
 62
    4
 10
1207.5497
 20
1060.143
 11
1211.0989
 21
1061.4826
  0
LINE
  8
_0-0_LAYER001
  6
CONTINUOUS
 62
    4
 10
1211.0989
 20
1061.4826
 11
1214.6556
 21
1062.8314
  0
LINE
  8
_0-0_LAYER001
  6
CONTINUOUS
 62
    4
 10
1214.6556
 20
1062.8314
 11
1218.2242000000001
 21
1064.1955
  0
LINE
  8
_0-0_LAYER001
  6
CONTINUOUS
 62
    4
 10
1218.2242000000001
 20
1064.1955
 11
1221.8096
 21
1065.5805
  0
LINE
  8
_0-0_LAYER001
  6
CONTINUOUS
 62
    4
 10
1221.8096
 20
1065.5805
 11
1225.4163000000001
 21
1066.9925000000001
  0
LINE
  8
_0-0_LAYER001
  6
CONTINUOUS
 62
    4
 10
1225.4163000000001
 20
1066.9925000000001
 11
1227.5198
 21
1067.8261
  0
LINE
  8
_0-0_LAYER001
  6
CONTINUOUS
 62
    4
 10
1227.5198
 20
1067.8261
 11
1229.5992000000001
 21
1068.655
  0
LINE
  8
_0-0_LAYER001
  6
CONTINUOUS
 62
    4
 10
1229.5992000000001
 20
1068.655
 11
1233.2057
 21
1070.0563999999999
  0
LINE
  8
_0-0_LAYER001
  6
CONTINUOUS
 62
    4
 10
1233.2057
 20
1070.0563999999999
 11
1236.8384000000001
 21
1071.3390999999999
  0
LINE
  8
_0-0_LAYER001
  6
CONTINUOUS
 62
    4
 10
1236.8384000000001
 20
1071.3390999999999
 11
1240.4964
 21
1072.4058
  0
LINE
  8
_0-0_LAYER001
  6
CONTINUOUS
 62
    4
 10
1240.4964
 20
1072.4058
 11
1244.1785
 21
1073.1590000000001
  0
LINE
  8
_0-0_LAYER001
  6
CONTINUOUS
 62
    4
 10
1244.1785
 20
1073.1590000000001
 11
1247.8838000000001
 21
1073.5015000000001
  0
LINE
  8
_0-0_LAYER001
  6
CONTINUOUS
 62
    4
 10
1247.8838000000001
 20
1073.5015000000001
 11
1250.0429999999999
 21
1073.4736
  0
LINE
  8
_0-0_LAYER001
  6
CONTINUOUS
 62
    4
 10
1250.0429999999999
 20
1073.4736
 11
1250.8922
 21
1073.4123
  0
LINE
  8
_0-0_LAYER001
  6
CONTINUOUS
 62
    4
 10
1250.8922
 20
1073.4123
 11
1252.3565000000001
 21
1073.2417
  0
LINE
  8
_0-0_LAYER001
  6
CONTINUOUS
 62
    4
 10
1252.3565000000001
 20
1073.2417
 11
1253.8176000000001
 21
1072.9949999999999
  0
LINE
  8
_0-0_LAYER001
  6
CONTINUOUS
 62
    4
 10
1253.8176000000001
 20
1072.9949999999999
 11
1255.2713000000001
 21
1072.6789000000001
  0
LINE
  8
_0-0_LAYER001
  6
CONTINUOUS
 62
    4
 10
1255.2713000000001
 20
1072.6789000000001
 11
1256.7135000000001
 21
1072.3004000000001
  0
LINE
  8
_0-0_LAYER001
  6
CONTINUOUS
 62
    4
 10
1256.7135000000001
 20
1072.3004000000001
 11
1258.1398999999999
 21
1071.8662999999999
  0
LINE
  8
_0-0_LAYER001
  6
CONTINUOUS
 62
    4
 10
1258.1398999999999
 20
1071.8662999999999
 11
1258.9584
 21
1071.5916999999999
  0
LINE
  8
_0-0_LAYER001
  6
CONTINUOUS
 62
    4
 10
1258.9584
 20
1071.5916999999999
 11
1261.4566
 21
1070.6433999999999
  0
LINE
  8
_0-0_LAYER001
  6
CONTINUOUS
 62
    4
 10
1261.4566
 20
1070.6433999999999
 11
1265.6155000000001
 21
1068.7099000000001
  0
LINE
  8
_0-0_LAYER001
  6
CONTINUOUS
 62
    4
 10
1265.6155000000001
 20
1068.7099000000001
 11
1269.6193000000001
 21
1066.4645
  0
LINE
  8
_0-0_LAYER001
  6
CONTINUOUS
 62
    4
 10
1269.6193000000001
 20
1066.4645
 11
1273.5062
 21
1063.9843000000001
  0
LINE
  8
_0-0_LAYER001
  6
CONTINUOUS
 62
    4
 10
1273.5062
 20
1063.9843000000001
 11
1277.3142
 21
1061.3461
  0
LINE
  8
_0-0_LAYER001
  6
CONTINUOUS
 62
    4
 10
1277.3142
 20
1061.3461
 11
1281.0815
 21
1058.627
  0
LINE
  8
_0-0_LAYER001
  6
CONTINUOUS
 62
    4
 10
1281.0815
 20
1058.627
 11
1283.2628
 21
1057.0432000000001
  0
LINE
  8
_0-0_LAYER001
  6
CONTINUOUS
 62
    4
 10
1283.2628
 20
1057.0432000000001
 11
1286.5944
 21
1054.6564000000001
  0
LINE
  8
_0-0_LAYER001
  6
CONTINUOUS
 62
    4
 10
1286.5944
 20
1054.6564000000001
 11
1292.3866
 21
1050.6394
  0
LINE
  8
_0-0_LAYER001
  6
CONTINUOUS
 62
    4
 10
1292.3866
 20
1050.6394
 11
1298.2588000000001
 21
1046.7828
  0
LINE
  8
_0-0_LAYER001
  6
CONTINUOUS
 62
    4
 10
1298.2588000000001
 20
1046.7828
 11
1304.2329
 21
1043.1284000000001
  0
LINE
  8
_0-0_LAYER001
  6
CONTINUOUS
 62
    4
 10
1304.2329
 20
1043.1284000000001
 11
1310.3311000000003
 21
1039.7177999999999
  0
LINE
  8
_0-0_LAYER001
  6
CONTINUOUS
 62
    4
 10
1310.3311000000003
 20
1039.7177999999999
 11
1316.5753999999997
 21
1036.5930000000001
  0
LINE
  8
_0-0_LAYER001
  6
CONTINUOUS
 62
    4
 10
1316.5753999999997
 20
1036.5930000000001
 11
1320.2727
 21
1034.9280000000001
  0
LINE
  8
_0-0_LAYER001
  6
CONTINUOUS
 62
    4
 10
1320.2727
 20
1034.9280000000001
 11
1323.3319000000001
 21
1033.6569
  0
LINE
  8
_0-0_LAYER001
  6
CONTINUOUS
 62
    4
 10
1323.3319000000001
 20
1033.6569
 11
1328.6925000000001
 21
1031.6548
  0
LINE
  8
_0-0_LAYER001
  6
CONTINUOUS
 62
    4
 10
1328.6925000000001
 20
1031.6548
 11
1334.1482000000001
 21
1029.8993
  0
LINE
  8
_0-0_LAYER001
  6
CONTINUOUS
 62
    4
 10
1334.1482000000001
 20
1029.8993
 11
1339.6831
 21
1028.3985
  0
LINE
  8
_0-0_LAYER001
  6
CONTINUOUS
 62
    4
 10
1339.6831
 20
1028.3985
 11
1345.2814000000001
 21
1027.1605
  0
LINE
  8
_0-0_LAYER001
  6
CONTINUOUS
 62
    4
 10
1345.2814000000001
 20
1027.1605
 11
1350.9272000000001
 21
1026.1932999999999
  0
LINE
  8
_0-0_LAYER001
  6
CONTINUOUS
 62
    4
 10
1350.9272000000001
 20
1026.1932999999999
 11
1354.2171000000003
 21
1025.7596000000001
  0
LINE
  8
_0-0_LAYER001
  6
CONTINUOUS
 62
    4
 10
1354.2171000000003
 20
1025.7596000000001
 11
1356.7364
 21
1025.4917
  0
LINE
  8
_0-0_LAYER001
  6
CONTINUOUS
 62
    4
 10
1356.7364
 20
1025.4917
 11
1361.0885000000003
 21
1025.1516999999999
  0
LINE
  8
_0-0_LAYER001
  6
CONTINUOUS
 62
    4
 10
1361.0885000000003
 20
1025.1516999999999
 11
1365.4486999999999
 21
1024.9521999999999
  0
LINE
  8
_0-0_LAYER001
  6
CONTINUOUS
 62
    4
 10
1365.4486999999999
 20
1024.9521999999999
 11
1369.8139000000001
 21
1024.8776
  0
LINE
  8
_0-0_LAYER001
  6
CONTINUOUS
 62
    4
 10
1369.8139000000001
 20
1024.8776
 11
1374.181
 21
1024.9119000000001
  0
LINE
  8
_0-0_LAYER001
  6
CONTINUOUS
 62
    4
 10
1374.181
 20
1024.9119000000001
 11
1378.5469000000001
 21
1025.0395000000001
  0
LINE
  8
_0-0_LAYER001
  6
CONTINUOUS
 62
    4
 10
1378.5469000000001
 20
1025.0395000000001
 11
1381.0773999999997
 21
1025.1500000000001
  0
LINE
  8
_0-0_LAYER001
  6
CONTINUOUS
 62
    4
 10
1381.0773999999997
 20
1025.1500000000001
 11
1385.8064999999999
 21
1025.4182000000001
  0
LINE
  8
_0-0_LAYER001
  6
CONTINUOUS
 62
    4
 10
1385.8064999999999
 20
1025.4182000000001
 11
1393.9447
 21
1026.0491999999999
  0
LINE
  8
_0-0_LAYER001
  6
CONTINUOUS
 62
    4
 10
1393.9447
 20
1026.0491999999999
 11
1402.0654
 21
1026.8631
  0
LINE
  8
_0-0_LAYER001
  6
CONTINUOUS
 62
    4
 10
1402.0654
 20
1026.8631
 11
1410.1713
 21
1027.8243
  0
LINE
  8
_0-0_LAYER001
  6
CONTINUOUS
 62
    4
 10
1410.1713
 20
1027.8243
 11
1418.2646999999999
 21
1028.8975
  0
LINE
  8
_0-0_LAYER001
  6
CONTINUOUS
 62
    4
 10
1418.2646999999999
 20
1028.8975
 11
1426.3483000000001
 21
1030.0471
  0
LINE
  8
_0-0_LAYER001
  6
CONTINUOUS
 62
    4
 10
1426.3483000000001
 20
1030.0471
 11
1431.0331999999999
 21
1030.7348999999999
  0
LINE
  8
_0-0_LAYER001
  6
CONTINUOUS
 62
    4
 10
1431.0331999999999
 20
1030.7348999999999
 11
1433.4681
 21
1031.0957000000001
  0
LINE
  8
_0-0_LAYER001
  6
CONTINUOUS
 62
    4
 10
1433.4681
 20
1031.0957000000001
 11
1437.665
 21
1031.7217000000001
  0
LINE
  8
_0-0_LAYER001
  6
CONTINUOUS
 62
    4
 10
1437.665
 20
1031.7217000000001
 11
1441.8607999999999
 21
1032.3517999999999
  0
LINE
  8
_0-0_LAYER001
  6
CONTINUOUS
 62
    4
 10
1441.8607999999999
 20
1032.3517999999999
 11
1446.0556000000001
 21
1032.9851000000001
  0
LINE
  8
_0-0_LAYER001
  6
CONTINUOUS
 62
    4
 10
1446.0556000000001
 20
1032.9851000000001
 11
1450.2498000000001
 21
1033.6206999999999
  0
LINE
  8
_0-0_LAYER001
  6
CONTINUOUS
 62
    4
 10
1450.2498000000001
 20
1033.6206999999999
 11
1454.4436000000001
 21
1034.2577000000001
  0
LINE
  8
_0-0_LAYER001
  6
CONTINUOUS
 62
    4
 10
1454.4436000000001
 20
1034.2577000000001
 11
1456.8759
 21
1034.6274000000001
  0
LINE
  8
_0-0_LAYER001
  6
CONTINUOUS
 62
    4
 10
1211.8389999999999
 20
1042.5237999999999
 11
1213.9009000000001
 21
1043.3007
  0
LINE
  8
_0-0_LAYER001
  6
CONTINUOUS
 62
    4
 10
1213.9009000000001
 20
1043.3007
 11
1217.4684999999999
 21
1044.6472000000001
  0
LINE
  8
_0-0_LAYER001
  6
CONTINUOUS
 62
    4
 10
1217.4684999999999
 20
1044.6472000000001
 11
1221.0604000000001
 21
1046.0094999999999
  0
LINE
  8
_0-0_LAYER001
  6
CONTINUOUS
 62
    4
 10
1221.0604000000001
 20
1046.0094999999999
 11
1224.6808000000001
 21
1047.3933
  0
LINE
  8
_0-0_LAYER001
  6
CONTINUOUS
 62
    4
 10
1224.6808000000001
 20
1047.3933
 11
1228.3336999999999
 21
1048.8045
  0
LINE
  8
_0-0_LAYER001
  6
CONTINUOUS
 62
    4
 10
1228.3336999999999
 20
1048.8045
 11
1232.0128999999999
 21
1050.2447999999999
  0
LINE
  8
_0-0_LAYER001
  6
CONTINUOUS
 62
    4
 10
1232.0128999999999
 20
1050.2447999999999
 11
1234.1681000000001
 21
1051.0989
  0
LINE
  8
_0-0_LAYER001
  6
CONTINUOUS
 62
    4
 10
1234.1681000000001
 20
1051.0989
 11
1236.1917000000001
 21
1051.9055000000001
  0
LINE
  8
_0-0_LAYER001
  6
CONTINUOUS
 62
    4
 10
1236.1917000000001
 20
1051.9055000000001
 11
1239.4636
 21
1053.1768999999999
  0
LINE
  8
_0-0_LAYER001
  6
CONTINUOUS
 62
    4
 10
1239.4636
 20
1053.1768999999999
 11
1242.3587
 21
1054.1992
  0
LINE
  8
_0-0_LAYER001
  6
CONTINUOUS
 62
    4
 10
1242.3587
 20
1054.1992
 11
1244.8268
 21
1054.9188999999999
  0
LINE
  8
_0-0_LAYER001
  6
CONTINUOUS
 62
    4
 10
1244.8268
 20
1054.9188999999999
 11
1246.8186000000001
 21
1055.3262999999999
  0
LINE
  8
_0-0_LAYER001
  6
CONTINUOUS
 62
    4
 10
1246.8186000000001
 20
1055.3262999999999
 11
1248.5979
 21
1055.4908
  0
LINE
  8
_0-0_LAYER001
  6
CONTINUOUS
 62
    4
 10
1248.5979
 20
1055.4908
 11
1249.2773999999999
 21
1055.482
  0
LINE
  8
_0-0_LAYER001
  6
CONTINUOUS
 62
    4
 10
1249.2773999999999
 20
1055.482
 11
1249.2012999999999
 21
1055.4875
  0
LINE
  8
_0-0_LAYER001
  6
CONTINUOUS
 62
    4
 10
1249.2012999999999
 20
1055.4875
 11
1249.8149000000001
 21
1055.4159999999999
  0
LINE
  8
_0-0_LAYER001
  6
CONTINUOUS
 62
    4
 10
1249.8149000000001
 20
1055.4159999999999
 11
1250.4052999999999
 21
1055.3163
  0
LINE
  8
_0-0_LAYER001
  6
CONTINUOUS
 62
    4
 10
1250.4052999999999
 20
1055.3163
 11
1251.0727999999999
 21
1055.1712
  0
LINE
  8
_0-0_LAYER001
  6
CONTINUOUS
 62
    4
 10
1251.0727999999999
 20
1055.1712
 11
1251.8063
 21
1054.9786999999999
  0
LINE
  8
_0-0_LAYER001
  6
CONTINUOUS
 62
    4
 10
1251.8063
 20
1054.9786999999999
 11
1252.6555000000001
 21
1054.7203
  0
LINE
  8
_0-0_LAYER001
  6
CONTINUOUS
 62
    4
 10
1252.6555000000001
 20
1054.7203
 11
1252.8996
 21
1054.6384
  0
LINE
  8
_0-0_LAYER001
  6
CONTINUOUS
 62
    4
 10
1252.8996
 20
1054.6384
 11
1254.4594999999999
 21
1054.0463
  0
LINE
  8
_0-0_LAYER001
  6
CONTINUOUS
 62
    4
 10
1254.4594999999999
 20
1054.0463
 11
1257.4072000000001
 21
1052.6759
  0
LINE
  8
_0-0_LAYER001
  6
CONTINUOUS
 62
    4
 10
1257.4072000000001
 20
1052.6759
 11
1260.3683000000001
 21
1051.0153
  0
LINE
  8
_0-0_LAYER001
  6
CONTINUOUS
 62
    4
 10
1260.3683000000001
 20
1051.0153
 11
1263.5360000000001
 21
1048.9938999999999
  0
LINE
  8
_0-0_LAYER001
  6
CONTINUOUS
 62
    4
 10
1263.5360000000001
 20
1048.9938999999999
 11
1266.9206999999999
 21
1046.6489999999999
  0
LINE
  8
_0-0_LAYER001
  6
CONTINUOUS
 62
    4
 10
1266.9206999999999
 20
1046.6489999999999
 11
1270.5264
 21
1044.0464999999999
  0
LINE
  8
_0-0_LAYER001
  6
CONTINUOUS
 62
    4
 10
1270.5264
 20
1044.0464999999999
 11
1272.7334000000001
 21
1042.4440999999999
  0
LINE
  8
_0-0_LAYER001
  6
CONTINUOUS
 62
    4
 10
1272.7334000000001
 20
1042.4440999999999
 11
1276.2233000000001
 21
1039.9438
  0
LINE
  8
_0-0_LAYER001
  6
CONTINUOUS
 62
    4
 10
1276.2233000000001
 20
1039.9438
 11
1282.3154999999999
 21
1035.7188000000001
  0
LINE
  8
_0-0_LAYER001
  6
CONTINUOUS
 62
    4
 10
1282.3154999999999
 20
1035.7188000000001
 11
1288.6193000000001
 21
1031.5788
  0
LINE
  8
_0-0_LAYER001
  6
CONTINUOUS
 62
    4
 10
1288.6193000000001
 20
1031.5788
 11
1295.1400000000001
 21
1027.5899999999999
  0
LINE
  8
_0-0_LAYER001
  6
CONTINUOUS
 62
    4
 10
1295.1400000000001
 20
1027.5899999999999
 11
1301.9058999999997
 21
1023.806
  0
LINE
  8
_0-0_LAYER001
  6
CONTINUOUS
 62
    4
 10
1301.9058999999997
 20
1023.806
 11
1308.8489999999999
 21
1020.3315
  0
LINE
  8
_0-0_LAYER001
  6
CONTINUOUS
 62
    4
 10
1308.8489999999999
 20
1020.3315
 11
1313.1224
 21
1018.4069999999999
  0
LINE
  8
_0-0_LAYER001
  6
CONTINUOUS
 62
    4
 10
1313.1224
 20
1018.4069999999999
 11
1316.7275
 21
1016.9091000000001
  0
LINE
  8
_0-0_LAYER001
  6
CONTINUOUS
 62
    4
 10
1316.7275
 20
1016.9091000000001
 11
1322.7836
 21
1014.6472000000001
  0
LINE
  8
_0-0_LAYER001
  6
CONTINUOUS
 62
    4
 10
1322.7836
 20
1014.6472000000001
 11
1329.0334000000003
 21
1012.6361999999999
  0
LINE
  8
_0-0_LAYER001
  6
CONTINUOUS
 62
    4
 10
1329.0334000000003
 20
1012.6361999999999
 11
1335.3822
 21
1010.9147
  0
LINE
  8
_0-0_LAYER001
  6
CONTINUOUS
 62
    4
 10
1335.3822
 20
1010.9147
 11
1341.8163999999999
 21
1009.4919
  0
LINE
  8
_0-0_LAYER001
  6
CONTINUOUS
 62
    4
 10
1341.8163999999999
 20
1009.4919
 11
1348.2301000000002
 21
1008.3931
  0
LINE
  8
_0-0_LAYER001
  6
CONTINUOUS
 62
    4
 10
1348.2301000000002
 20
1008.3931
 11
1352.0889
 21
1007.8843999999999
  0
LINE
  8
_0-0_LAYER001
  6
CONTINUOUS
 62
    4
 10
1352.0889
 20
1007.8843999999999
 11
1355.0835000000002
 21
1007.566
  0
LINE
  8
_0-0_LAYER001
  6
CONTINUOUS
 62
    4
 10
1355.0835000000002
 20
1007.566
 11
1359.9760000000001
 21
1007.1837
  0
LINE
  8
_0-0_LAYER001
  6
CONTINUOUS
 62
    4
 10
1359.9760000000001
 20
1007.1837
 11
1364.8834999999999
 21
1006.9593
  0
LINE
  8
_0-0_LAYER001
  6
CONTINUOUS
 62
    4
 10
1364.8834999999999
 20
1006.9593
 11
1369.7309
 21
1006.8764000000001
  0
LINE
  8
_0-0_LAYER001
  6
CONTINUOUS
 62
    4
 10
1369.7309
 20
1006.8764000000001
 11
1374.5147999999999
 21
1006.914
  0
LINE
  8
_0-0_LAYER001
  6
CONTINUOUS
 62
    4
 10
1374.5147999999999
 20
1006.914
 11
1379.2023999999997
 21
1007.0509999999999
  0
LINE
  8
_0-0_LAYER001
  6
CONTINUOUS
 62
    4
 10
1379.2023999999997
 20
1007.0509999999999
 11
1381.9795999999999
 21
1007.1722
  0
LINE
  8
_0-0_LAYER001
  6
CONTINUOUS
 62
    4
 10
1381.9795999999999
 20
1007.1722
 11
1387.0119
 21
1007.4576
  0
LINE
  8
_0-0_LAYER001
  6
CONTINUOUS
 62
    4
 10
1387.0119
 20
1007.4576
 11
1395.5381
 21
1008.1187
  0
LINE
  8
_0-0_LAYER001
  6
CONTINUOUS
 62
    4
 10
1395.5381
 20
1008.1187
 11
1404.0229999999999
 21
1008.9691
  0
LINE
  8
_0-0_LAYER001
  6
CONTINUOUS
 62
    4
 10
1404.0229999999999
 20
1008.9691
 11
1412.4142999999999
 21
1009.9641999999999
  0
LINE
  8
_0-0_LAYER001
  6
CONTINUOUS
 62
    4
 10
1412.4142999999999
 20
1009.9641999999999
 11
1420.7149999999999
 21
1011.0649000000001
  0
LINE
  8
_0-0_LAYER001
  6
CONTINUOUS
 62
    4
 10
1420.7149999999999
 20
1011.0649000000001
 11
1428.9227000000001
 21
1012.2320999999999
  0
LINE
  8
_0-0_LAYER001
  6
CONTINUOUS
 62
    4
 10
1428.9227000000001
 20
1012.2320999999999
 11
1433.6599000000001
 21
1012.9276
  0
LINE
  8
_0-0_LAYER001
  6
CONTINUOUS
 62
    4
 10
1433.6599000000001
 20
1012.9276
 11
1436.1152000000002
 21
1013.2914000000001
  0
LINE
  8
_0-0_LAYER001
  6
CONTINUOUS
 62
    4
 10
1436.1152000000002
 20
1013.2914000000001
 11
1440.3292999999999
 21
1013.9200000000001
  0
LINE
  8
_0-0_LAYER001
  6
CONTINUOUS
 62
    4
 10
1440.3292999999999
 20
1013.9200000000001
 11
1444.5409
 21
1014.5525
  0
LINE
  8
_0-0_LAYER001
  6
CONTINUOUS
 62
    4
 10
1444.5409
 20
1014.5525
 11
1448.7476000000001
 21
1015.1875
  0
LINE
  8
_0-0_LAYER001
  6
CONTINUOUS
 62
    4
 10
1448.7476000000001
 20
1015.1875
 11
1452.9497999999999
 21
1015.8243
  0
LINE
  8
_0-0_LAYER001
  6
CONTINUOUS
 62
    4
 10
1452.9497999999999
 20
1015.8243
 11
1457.1477
 21
1016.462
  0
LINE
  8
_0-0_LAYER001
  6
CONTINUOUS
 62
    4
 10
1457.1477
 20
1016.462
 11
1458.7654000000002
 21
1016.7079000000001
  0
LINE
  8
_0-0_LAYER001
  6
CONTINUOUS
 62
    4
 10
1206.3100999999999
 20
1059.674
 11
1206.7361000000001
 21
1059.8371
  0
ARC
  8
_0-0_LAYER001
  6
CONTINUOUS
 62
    4
 10
1207.3828000000001
 20
1056.8723
 40
3
 50
110.94902000000002
 51
178.70000000000002
  0
LINE
  8
_0-0_LAYER001
  6
CONTINUOUS
 62
    4
 10
1204.2742000000001
 20
1041.1012000000001
 11
1204.2742000000001
 21
1056.8236999999999
  0
LINE
  8
_0-0_LAYER001
  6
CONTINUOUS
 62
    4
 10
1205.6282000000001
 20
1040.1659999999999
 11
1211.8030000000001
 21
1042.5030999999999
  0
ARC
  8
_0-0_LAYER001
  6
CONTINUOUS
 62
    4
 10
1205.2742000000001
 20
1041.1012000000001
 40
1
 50
180
 51
290.73165999999998
  0
LINE
  8
_0-0_LAYER001
  6
CONTINUOUS
 62
    4
 10
1469.2741999999998
 20
1019.779
 11
1469.2741999999998
 21
1036.9764
  0
LINE
  8
_0-0_LAYER001
  6
CONTINUOUS
 62
    4
 10
1457.0007999999998
 20
1034.6628000000001
 11
1501.4551000000001
 21
1044.3107
  0
LINE
  8
_0-0_LAYER001
  6
CONTINUOUS
 62
    4
 10
1463.7460000000001
 20
1014.8290999999999
 11
1502.4178000000002
 21
1023.8791000000001
  0
LINE
  8
_0-0_LAYER001
  6
CONTINUOUS
 62
    4
 10
1502.4178000000002
 20
1024.8356000000001
 11
1502.4178000000002
 21
1023.8791000000001
  0
ARC
  8
_0-0_LAYER001
  6
CONTINUOUS
 62
    4
 10
1503.4178000000002
 20
1024.8356000000001
 40
1
 50
102.72435
 51
180
  0
LINE
  8
_0-0_LAYER001
  6
CONTINUOUS
 62
    4
 10
1508.2348000000002
 20
1026.9484
 11
1503.1975000000002
 21
1025.8109999999999
  0
ARC
  8
_0-0_LAYER001
  6
CONTINUOUS
 62
    4
 10
1508.4551000000001
 20
1025.973
 40
1
 50
0
 51
102.72435
  0
LINE
  8
_0-0_LAYER001
  6
CONTINUOUS
 62
    4
 10
1508.6671000000001
 20
1027.4568999999999
 11
1458.5331999999999
 21
1016.5763999999999
  0
ARC
  8
_0-0_LAYER001
  6
CONTINUOUS
 62
    4
 10
1508.4551000000001
 20
1028.4341999999999
 40
1
 50
282.24497000000002
 51
0
  0
LINE
  8
_0-0_LAYER001
  6
CONTINUOUS
 62
    4
 10
1508.6729
 20
1006.7162000000001
 11
1459.0889000000002
 21
995.64830000000006
  0
LINE
  8
_0-0_LAYER001
  6
CONTINUOUS
 62
    4
 10
1509.4551000000001
 20
1007.6922
 11
1509.4551000000001
 21
1025.973
  0
ARC
  8
_0-0_LAYER001
  6
CONTINUOUS
 62
    4
 10
1508.4551000000001
 20
1007.6922
 40
1
 50
282.58296000000001
 51
0.0000000000000254
  0
LINE
  8
_0-0_LAYER001
  6
CONTINUOUS
 62
    4
 10
1501.4551000000001
 20
1045.7677000000001
 11
1501.4551000000001
 21
1044.3107
  0
ARC
  8
_0-0_LAYER001
  6
CONTINUOUS
 62
    4
 10
1502.4551000000001
 20
1045.7677000000001
 40
1
 50
101.73308
 51
180
  0
LINE
  8
_0-0_LAYER001
  6
CONTINUOUS
 62
    4
 10
1508.2516999999998
 20
1047.9929999999999
 11
1502.2516999999998
 21
1046.7467999999999
  0
LINE
  8
_0-0_LAYER001
  6
CONTINUOUS
 62
    4
 10
1509.4551000000001
 20
1047.0138999999999
 11
1509.4551000000001
 21
1028.4341999999999
  0
ARC
  8
_0-0_LAYER001
  6
CONTINUOUS
 62
    4
 10
1508.4551000000001
 20
1047.0138999999999
 40
1
 50
0
 51
101.73308
  0
LINE
  8
_0-0_LAYER001
  6
DASHED1
 62
    2
 10
1308.6659
 20
1019.5320999999999
 11
1324.6659
 21
1019.5320999999999
  0
LINE
  8
_0-0_LAYER001
  6
DASHED1
 62
    2
 10
1324.6659
 20
1019.5320999999999
 11
1324.6659
 21
1016.5320999999999
  0
LINE
  8
_0-0_LAYER001
  6
DASHED1
 62
    2
 10
1308.6659
 20
1019.5320999999999
 11
1308.6659
 21
1016.5320999999999
  0
LINE
  8
_0-0_LAYER001
  6
DASHED1
 62
    2
 10
1308.6659
 20
1016.5320999999999
 11
1324.6659
 21
1016.5320999999999
  0
LINE
  8
_0-0_LAYER001
  6
DASHED1
 62
    2
 10
1319.6659
 20
961.63599999999997
 11
1316.6158
 21
947.12709999999993
  0
LINE
  8
_0-0_LAYER001
  6
DASHED1
 62
    2
 10
1319.6659
 20
1016.5320999999999
 11
1319.6659
 21
961.63599999999997
  0
LINE
  8
_0-0_LAYER001
  6
DASHED1
 62
    2
 10
1316.6158
 20
947.12709999999993
 11
1313.6659
 21
961.38460000000009
  0
LINE
  8
_0-0_LAYER001
  6
DASHED1
 62
    2
 10
1313.6659
 20
1016.5320999999999
 11
1313.6659
 21
961.38460000000009
  0
LINE
  8
_0-0_LAYER001
  6
DASHED1
 62
    2
 10
1573.6722
 20
1016.8008
 11
1589.6722
 21
1016.8008
  0
LINE
  8
_0-0_LAYER001
  6
DASHED1
 62
    2
 10
1589.6722
 20
1016.8008
 11
1589.6722
 21
1013.8008
  0
LINE
  8
_0-0_LAYER001
  6
DASHED1
 62
    2
 10
1573.6722
 20
1016.8008
 11
1573.6722
 21
1013.8008
  0
LINE
  8
_0-0_LAYER001
  6
DASHED1
 62
    2
 10
1573.6722
 20
1013.8008
 11
1589.6722
 21
1013.8008
  0
LINE
  8
_0-0_LAYER001
  6
DASHED1
 62
    2
 10
1584.6722
 20
958.90480000000002
 11
1581.6219999999998
 21
944.39589999999998
  0
LINE
  8
_0-0_LAYER001
  6
DASHED1
 62
    2
 10
1584.6722
 20
1013.8008
 11
1584.6722
 21
958.90480000000002
  0
LINE
  8
_0-0_LAYER001
  6
DASHED1
 62
    2
 10
1581.6219999999998
 20
944.39589999999998
 11
1578.6722
 21
958.65339999999992
  0
LINE
  8
_0-0_LAYER001
  6
DASHED1
 62
    2
 10
1578.6722
 20
1013.8008
 11
1578.6722
 21
958.65339999999992
  0
LINE
  8
_0-0_LAYER001
  6
CONTINUOUS
 62
    4
 10
1204.0972999999999
 20
1016.9119000000001
 11
1204.0972999999999
 21
1034.1093000000001
  0
LINE
  8
_0-0_LAYER001
  6
CONTINUOUS
 62
    4
 10
1064.3706999999999
 20
973.07259999999997
 11
1055.8353
 21
987.60590000000002
  0
LINE
  8
_0-0_LAYER001
  6
CONTINUOUS
 62
    4
 10
1072.5386000000001
 20
972.42229999999995
 11
1080.8448000000001
 21
982.48780000000011
  0
ARC
  8
_0-0_LAYER001
  6
CONTINUOUS
 62
    4
 10
1068.6822
 20
975.60470000000009
 40
5
 50
210.42578
 51
320.47001
  0
LINE
  8
_0-0_LAYER001
  6
CONTINUOUS
 62
    4
 10
1148.4842000000001
 20
971.9523999999999
 11
1141.1587999999999
 21
983.25849999999991
  0
LINE
  8
_0-0_LAYER001
  6
CONTINUOUS
 62
    4
 10
1156.9938
 20
972.14229999999998
 11
1165.9322
 21
987.38799999999992
  0
ARC
  8
_0-0_LAYER001
  6
CONTINUOUS
 62
    4
 10
1152.6804
 20
974.6712
 40
5
 50
212.93986000000001
 51
329.61716000000001
  0
LINE
  8
_0-0_LAYER001
  6
CONTINUOUS
 62
    4
 10
1196.2757999999999
 20
1011.7
 11
1198.7039
 21
1012.1038000000001
  0
LINE
  8
_0-0_LAYER001
  6
CONTINUOUS
 62
    4
 10
1192.0868
 20
1011.0037
 11
1196.2757999999999
 21
1011.7
  0
LINE
  8
_0-0_LAYER001
  6
CONTINUOUS
 62
    4
 10
1187.893
 20
1010.3081
 11
1192.0868
 21
1011.0037
  0
LINE
  8
_0-0_LAYER001
  6
CONTINUOUS
 62
    4
 10
1183.6941999999999
 20
1009.6142
 11
1187.893
 21
1010.3081
  0
LINE
  8
_0-0_LAYER001
  6
CONTINUOUS
 62
    4
 10
1179.4901
 20
1008.9227000000001
 11
1183.6941999999999
 21
1009.6142
  0
LINE
  8
_0-0_LAYER001
  6
CONTINUOUS
 62
    4
 10
1175.2833000000001
 20
1008.2349999999999
 11
1179.4901
 21
1008.9227000000001
  0
LINE
  8
_0-0_LAYER001
  6
CONTINUOUS
 62
    4
 10
1172.8309999999999
 20
1007.8364999999999
 11
1175.2833000000001
 21
1008.2349999999999
  0
LINE
  8
_0-0_LAYER001
  6
CONTINUOUS
 62
    4
 10
1168.0981999999999
 20
1007.0741
 11
1172.8309999999999
 21
1007.8364999999999
  0
LINE
  8
_0-0_LAYER001
  6
CONTINUOUS
 62
    4
 10
1159.8938000000001
 20
1005.7901999999999
 11
1168.0981999999999
 21
1007.0741
  0
LINE
  8
_0-0_LAYER001
  6
CONTINUOUS
 62
    4
 10
1151.5862999999999
 20
1004.5704000000001
 11
1159.8938000000001
 21
1005.7901999999999
  0
LINE
  8
_0-0_LAYER001
  6
CONTINUOUS
 62
    4
 10
1143.1781000000001
 20
1003.454
 11
1151.5862999999999
 21
1004.5704000000001
  0
LINE
  8
_0-0_LAYER001
  6
CONTINUOUS
 62
    4
 10
1134.6655000000001
 20
1002.4806000000001
 11
1143.1781000000001
 21
1003.454
  0
LINE
  8
_0-0_LAYER001
  6
CONTINUOUS
 62
    4
 10
1126.1062999999999
 20
1001.6966
 11
1134.6655000000001
 21
1002.4806000000001
  0
LINE
  8
_0-0_LAYER001
  6
CONTINUOUS
 62
    4
 10
1121.0447999999999
 20
1001.3386
 11
1126.1062999999999
 21
1001.6966
  0
LINE
  8
_0-0_LAYER001
  6
CONTINUOUS
 62
    4
 10
1118.2421999999999
 20
1001.1769999999999
 11
1121.0447999999999
 21
1001.3386
  0
LINE
  8
_0-0_LAYER001
  6
CONTINUOUS
 62
    4
 10
1113.5211999999999
 20
1000.9730999999999
 11
1118.2421999999999
 21
1001.1769999999999
  0
LINE
  8
_0-0_LAYER001
  6
CONTINUOUS
 62
    4
 10
1108.692
 20
1000.8676
 11
1113.5211999999999
 21
1000.9730999999999
  0
LINE
  8
_0-0_LAYER001
  6
CONTINUOUS
 62
    4
 10
1103.7902999999999
 20
1000.883
 11
1108.692
 21
1000.8676
  0
LINE
  8
_0-0_LAYER001
  6
CONTINUOUS
 62
    4
 10
1098.8193000000001
 20
1001.0409
 11
1103.7902999999999
 21
1000.883
  0
LINE
  8
_0-0_LAYER001
  6
CONTINUOUS
 62
    4
 10
1093.8619000000001
 20
1001.3586
 11
1098.8193000000001
 21
1001.0409
  0
LINE
  8
_0-0_LAYER001
  6
CONTINUOUS
 62
    4
 10
1090.8103000000001
 20
1001.6400000000001
 11
1093.8619000000001
 21
1001.3586
  0
LINE
  8
_0-0_LAYER001
  6
CONTINUOUS
 62
    4
 10
1086.8814
 20
1002.1023
 11
1090.8103000000001
 21
1001.6400000000001
  0
LINE
  8
_0-0_LAYER001
  6
CONTINUOUS
 62
    4
 10
1080.3675000000001
 20
1003.1248000000001
 11
1086.8814
 21
1002.1023
  0
LINE
  8
_0-0_LAYER001
  6
CONTINUOUS
 62
    4
 10
1073.8208
 20
1004.4770000000001
 11
1080.3675000000001
 21
1003.1248000000001
  0
LINE
  8
_0-0_LAYER001
  6
CONTINUOUS
 62
    4
 10
1067.3579
 20
1006.1328000000001
 11
1073.8208
 21
1004.4770000000001
  0
LINE
  8
_0-0_LAYER001
  6
CONTINUOUS
 62
    4
 10
1060.992
 20
1008.0835
 11
1067.3579
 21
1006.1328000000001
  0
LINE
  8
_0-0_LAYER001
  6
CONTINUOUS
 62
    4
 10
1054.8271999999999
 20
1010.2885000000001
 11
1060.992
 21
1008.0835
  0
LINE
  8
_0-0_LAYER001
  6
CONTINUOUS
 62
    4
 10
1051.1405999999999
 20
1011.7602999999999
 11
1054.8271999999999
 21
1010.2885000000001
  0
LINE
  8
_0-0_LAYER001
  6
CONTINUOUS
 62
    4
 10
1046.7763
 20
1013.6528000000001
 11
1051.1405999999999
 21
1011.7602999999999
  0
LINE
  8
_0-0_LAYER001
  6
CONTINUOUS
 62
    4
 10
1039.7072000000001
 20
1017.0678
 11
1046.7763
 21
1013.6528000000001
  0
LINE
  8
_0-0_LAYER001
  6
CONTINUOUS
 62
    4
 10
1032.8143
 20
1020.7973999999999
 11
1039.7072000000001
 21
1017.0678
  0
LINE
  8
_0-0_LAYER001
  6
CONTINUOUS
 62
    4
 10
1026.1773000000001
 20
1024.731
 11
1032.8143
 21
1020.7973999999999
  0
LINE
  8
_0-0_LAYER001
  6
CONTINUOUS
 62
    4
 10
1019.768
 20
1028.8135
 11
1026.1773000000001
 21
1024.731
  0
LINE
  8
_0-0_LAYER001
  6
CONTINUOUS
 62
    4
 10
1013.5838000000001
 20
1032.9756
 11
1019.768
 21
1028.8135
  0
LINE
  8
_0-0_LAYER001
  6
CONTINUOUS
 62
    4
 10
1010.0415
 20
1035.4393
 11
1013.5838000000001
 21
1032.9756
  0
LINE
  8
_0-0_LAYER001
  6
CONTINUOUS
 62
    4
 10
1007.8095000000001
 20
1037.0128
 11
1010.0415
 21
1035.4393
  0
LINE
  8
_0-0_LAYER001
  6
CONTINUOUS
 62
    4
 10
1004.1858999999999
 20
1039.5519999999999
 11
1007.8095000000001
 21
1037.0128
  0
LINE
  8
_0-0_LAYER001
  6
CONTINUOUS
 62
    4
 10
1000.8162
 20
1041.8175000000001
 11
1004.1858999999999
 21
1039.5519999999999
  0
LINE
  8
_0-0_LAYER001
  6
CONTINUOUS
 62
    4
 10
997.70119999999997
 20
1043.7446
 11
1000.8162
 21
1041.8175000000001
  0
LINE
  8
_0-0_LAYER001
  6
CONTINUOUS
 62
    4
 10
994.83400000000006
 20
1045.3003000000001
 11
997.70119999999997
 21
1043.7446
  0
LINE
  8
_0-0_LAYER001
  6
CONTINUOUS
 62
    4
 10
992.00289999999995
 20
1046.5688
 11
994.83400000000006
 21
1045.3003000000001
  0
LINE
  8
_0-0_LAYER001
  6
CONTINUOUS
 62
    4
 10
990.53970000000004
 20
1047.1008999999999
 11
992.00289999999995
 21
1046.5688
  0
LINE
  8
_0-0_LAYER001
  6
CONTINUOUS
 62
    4
 10
990.35860000000002
 20
1047.1587999999999
 11
990.53970000000004
 21
1047.1008999999999
  0
LINE
  8
_0-0_LAYER001
  6
CONTINUOUS
 62
    4
 10
989.57030000000009
 20
1047.3868
 11
990.35860000000002
 21
1047.1587999999999
  0
LINE
  8
_0-0_LAYER001
  6
CONTINUOUS
 62
    4
 10
988.91319999999996
 20
1047.5495000000001
 11
989.57030000000009
 21
1047.3868
  0
LINE
  8
_0-0_LAYER001
  6
CONTINUOUS
 62
    4
 10
988.33140000000003
 20
1047.6675
 11
988.91319999999996
 21
1047.5495000000001
  0
LINE
  8
_0-0_LAYER001
  6
CONTINUOUS
 62
    4
 10
988.29130000000009
 20
1047.6737000000001
 11
988.33140000000003
 21
1047.6675
  0
LINE
  8
_0-0_LAYER001
  6
CONTINUOUS
 62
    4
 10
1192.2652
 20
992.51250000000005
 11
1193.8793000000001
 21
992.78099999999995
  0
LINE
  8
_0-0_LAYER001
  6
CONTINUOUS
 62
    4
 10
1188.0766000000001
 20
991.81629999999996
 11
1192.2652
 21
992.51250000000005
  0
LINE
  8
_0-0_LAYER001
  6
CONTINUOUS
 62
    4
 10
1183.8837000000001
 20
991.12089999999989
 11
1188.0766000000001
 21
991.81629999999996
  0
LINE
  8
_0-0_LAYER001
  6
CONTINUOUS
 62
    4
 10
1179.6862000000001
 20
990.42710000000011
 11
1183.8837000000001
 21
991.12089999999989
  0
LINE
  8
_0-0_LAYER001
  6
CONTINUOUS
 62
    4
 10
1175.4838999999999
 20
989.7358999999999
 11
1179.6862000000001
 21
990.42710000000011
  0
LINE
  8
_0-0_LAYER001
  6
CONTINUOUS
 62
    4
 10
1171.279
 20
989.04860000000008
 11
1175.4838999999999
 21
989.7358999999999
  0
LINE
  8
_0-0_LAYER001
  6
CONTINUOUS
 62
    4
 10
1168.829
 20
988.65049999999997
 11
1171.279
 21
989.04860000000008
  0
LINE
  8
_0-0_LAYER001
  6
CONTINUOUS
 62
    4
 10
1164.1020000000001
 20
987.88889999999992
 11
1168.829
 21
988.65049999999997
  0
LINE
  8
_0-0_LAYER001
  6
CONTINUOUS
 62
    4
 10
1155.9113
 20
986.60719999999992
 11
1164.1020000000001
 21
987.88889999999992
  0
LINE
  8
_0-0_LAYER001
  6
CONTINUOUS
 62
    4
 10
1147.6268
 20
985.3907999999999
 11
1155.9113
 21
986.60719999999992
  0
LINE
  8
_0-0_LAYER001
  6
CONTINUOUS
 62
    4
 10
1139.2501999999999
 20
984.2786000000001
 11
1147.6268
 21
985.3907999999999
  0
LINE
  8
_0-0_LAYER001
  6
CONTINUOUS
 62
    4
 10
1130.7781
 20
983.3098
 11
1139.2501999999999
 21
984.2786000000001
  0
LINE
  8
_0-0_LAYER001
  6
CONTINUOUS
 62
    4
 10
1122.2619999999999
 20
982.52980000000002
 11
1130.7781
 21
983.3098
  0
LINE
  8
_0-0_LAYER001
  6
CONTINUOUS
 62
    4
 10
1117.2340999999999
 20
982.17419999999993
 11
1122.2619999999999
 21
982.52980000000002
  0
LINE
  8
_0-0_LAYER001
  6
CONTINUOUS
 62
    4
 10
1114.4589000000001
 20
982.0141000000001
 11
1117.2340999999999
 21
982.17419999999993
  0
LINE
  8
_0-0_LAYER001
  6
CONTINUOUS
 62
    4
 10
1109.7736
 20
981.81169999999997
 11
1114.4589000000001
 21
982.0141000000001
  0
LINE
  8
_0-0_LAYER001
  6
CONTINUOUS
 62
    4
 10
1104.9907000000001
 20
981.70730000000003
 11
1109.7736
 21
981.81169999999997
  0
LINE
  8
_0-0_LAYER001
  6
CONTINUOUS
 62
    4
 10
1100.1425999999999
 20
981.72250000000008
 11
1104.9907000000001
 21
981.70730000000003
  0
LINE
  8
_0-0_LAYER001
  6
CONTINUOUS
 62
    4
 10
1095.2325000000001
 20
981.87840000000006
 11
1100.1425999999999
 21
981.72250000000008
  0
LINE
  8
_0-0_LAYER001
  6
CONTINUOUS
 62
    4
 10
1090.3352
 20
982.19229999999993
 11
1095.2325000000001
 21
981.87840000000006
  0
LINE
  8
_0-0_LAYER001
  6
CONTINUOUS
 62
    4
 10
1087.3363999999999
 20
982.46890000000008
 11
1090.3352
 21
982.19229999999993
  0
LINE
  8
_0-0_LAYER001
  6
CONTINUOUS
 62
    4
 10
1083.4709
 20
982.92370000000005
 11
1087.3363999999999
 21
982.46890000000008
  0
LINE
  8
_0-0_LAYER001
  6
CONTINUOUS
 62
    4
 10
1077.0424
 20
983.93280000000004
 11
1083.4709
 21
982.92370000000005
  0
LINE
  8
_0-0_LAYER001
  6
CONTINUOUS
 62
    4
 10
1070.5889999999999
 20
985.26569999999992
 11
1077.0424
 21
983.93280000000004
  0
LINE
  8
_0-0_LAYER001
  6
CONTINUOUS
 62
    4
 10
1064.2167999999999
 20
986.89830000000006
 11
1070.5889999999999
 21
985.26569999999992
  0
LINE
  8
_0-0_LAYER001
  6
CONTINUOUS
 62
    4
 10
1057.9395
 20
988.82189999999991
 11
1064.2167999999999
 21
986.89830000000006
  0
LINE
  8
_0-0_LAYER001
  6
CONTINUOUS
 62
    4
 10
1051.8524
 20
990.99900000000002
 11
1057.9395
 21
988.82189999999991
  0
LINE
  8
_0-0_LAYER001
  6
CONTINUOUS
 62
    4
 10
1048.2266999999999
 20
992.44640000000004
 11
1051.8524
 21
990.99900000000002
  0
LINE
  8
_0-0_LAYER001
  6
CONTINUOUS
 62
    4
 10
1043.9268999999999
 20
994.31099999999992
 11
1048.2266999999999
 21
992.44640000000004
  0
LINE
  8
_0-0_LAYER001
  6
CONTINUOUS
 62
    4
 10
1036.9359999999999
 20
997.68820000000005
 11
1043.9268999999999
 21
994.31099999999992
  0
LINE
  8
_0-0_LAYER001
  6
CONTINUOUS
 62
    4
 10
1030.1179
 20
1001.3774000000001
 11
1036.9359999999999
 21
997.68820000000005
  0
LINE
  8
_0-0_LAYER001
  6
CONTINUOUS
 62
    4
 10
1023.5420999999999
 20
1005.2747999999999
 11
1030.1179
 21
1001.3774000000001
  0
LINE
  8
_0-0_LAYER001
  6
CONTINUOUS
 62
    4
 10
1017.1812
 20
1009.3263999999999
 11
1023.5420999999999
 21
1005.2747999999999
  0
LINE
  8
_0-0_LAYER001
  6
CONTINUOUS
 62
    4
 10
1011.0306
 20
1013.4658999999999
 11
1017.1812
 21
1009.3263999999999
  0
LINE
  8
_0-0_LAYER001
  6
CONTINUOUS
 62
    4
 10
1007.5061000000001
 20
1015.9172000000001
 11
1011.0306
 21
1013.4658999999999
  0
LINE
  8
_0-0_LAYER001
  6
CONTINUOUS
 62
    4
 10
1005.2769000000001
 20
1017.4887000000001
 11
1007.5061000000001
 21
1015.9172000000001
  0
LINE
  8
_0-0_LAYER001
  6
CONTINUOUS
 62
    4
 10
1001.6351999999999
 20
1020.0406
 11
1005.2769000000001
 21
1017.4887000000001
  0
LINE
  8
_0-0_LAYER001
  6
CONTINUOUS
 62
    4
 10
998.21810000000005
 20
1022.338
 11
1001.6351999999999
 21
1020.0406
  0
LINE
  8
_0-0_LAYER001
  6
CONTINUOUS
 62
    4
 10
995.02250000000004
 20
1024.3149000000001
 11
998.21810000000005
 21
1022.338
  0
LINE
  8
_0-0_LAYER001
  6
CONTINUOUS
 62
    4
 10
992.03850000000011
 20
1025.934
 11
995.02250000000004
 21
1024.3149000000001
  0
LINE
  8
_0-0_LAYER001
  6
CONTINUOUS
 62
    4
 10
989.07199999999989
 20
1027.2632000000001
 11
992.03850000000011
 21
1025.934
  0
LINE
  8
_0-0_LAYER001
  6
CONTINUOUS
 62
    4
 10
988.32199999999989
 20
1027.5359000000001
 11
989.07199999999989
 21
1027.2632000000001
  0
LINE
  8
_0-0_LAYER001
  6
CONTINUOUS
 62
    4
 10
988.65509999999995
 20
1047.579
 11
988.47900000000004
 21
1027.4056
  0
LINE
  8
_0-0_LAYER001
  6
CONTINUOUS
 62
    4
 10
1188.9807000000001
 20
982.09120000000007
 11
1186.7353000000001
 21
990.66470000000004
  0
ARC
  8
_0-0_LAYER001
  6
CONTINUOUS
 62
    4
 10
1191.8828000000001
 20
982.85130000000004
 40
3
 50
194.67639000000003
 51
270.00000000000006
  0
LINE
  8
_0-0_LAYER001
  6
CONTINUOUS
 62
    4
 10
1195.3253
 20
979.84699999999998
 11
1191.9075
 21
979.84699999999998
  0
LINE
  8
_0-0_LAYER001
  6
CONTINUOUS
 62
    4
 10
1198.2845
 20
982.35380000000009
 11
1200.2184999999999
 21
993.95800000000008
  0
ARC
  8
_0-0_LAYER001
  6
CONTINUOUS
 62
    4
 10
1195.3253
 20
982.84699999999998
 40
3
 50
270
 51
350.53766999999999
  0
LINE
  8
_0-0_LAYER001
  6
CONTINUOUS
 62
    4
 10
941.55889999999999
 20
1056.9692
 11
942.3728000000001
 21
1057.2759000000001
  0
LINE
  8
_0-0_LAYER001
  6
CONTINUOUS
 62
    4
 10
942.3728000000001
 20
1057.2759000000001
 11
945.9221
 21
1058.6155000000001
  0
LINE
  8
_0-0_LAYER001
  6
CONTINUOUS
 62
    4
 10
945.9221
 20
1058.6155000000001
 11
949.47869999999989
 21
1059.9643000000001
  0
LINE
  8
_0-0_LAYER001
  6
CONTINUOUS
 62
    4
 10
949.47869999999989
 20
1059.9643000000001
 11
953.04739999999993
 21
1061.3284000000001
  0
LINE
  8
_0-0_LAYER001
  6
CONTINUOUS
 62
    4
 10
953.04739999999993
 20
1061.3284000000001
 11
956.63270000000011
 21
1062.7134000000001
  0
LINE
  8
_0-0_LAYER001
  6
CONTINUOUS
 62
    4
 10
956.63270000000011
 20
1062.7134000000001
 11
960.23939999999993
 21
1064.1253999999999
  0
LINE
  8
_0-0_LAYER001
  6
CONTINUOUS
 62
    4
 10
960.23939999999993
 20
1064.1253999999999
 11
962.3429000000001
 21
1064.9590000000001
  0
LINE
  8
_0-0_LAYER001
  6
CONTINUOUS
 62
    4
 10
962.3429000000001
 20
1064.9590000000001
 11
964.42229999999995
 21
1065.7879
  0
LINE
  8
_0-0_LAYER001
  6
CONTINUOUS
 62
    4
 10
964.42229999999995
 20
1065.7879
 11
968.02880000000005
 21
1067.1893
  0
LINE
  8
_0-0_LAYER001
  6
CONTINUOUS
 62
    4
 10
968.02880000000005
 20
1067.1893
 11
971.66159999999991
 21
1068.4721
  0
LINE
  8
_0-0_LAYER001
  6
CONTINUOUS
 62
    4
 10
971.66159999999991
 20
1068.4721
 11
975.31950000000006
 21
1069.5387000000001
  0
LINE
  8
_0-0_LAYER001
  6
CONTINUOUS
 62
    4
 10
975.31950000000006
 20
1069.5387000000001
 11
979.00160000000005
 21
1070.2918999999999
  0
LINE
  8
_0-0_LAYER001
  6
CONTINUOUS
 62
    4
 10
979.00160000000005
 20
1070.2918999999999
 11
982.70689999999991
 21
1070.6343999999999
  0
LINE
  8
_0-0_LAYER001
  6
CONTINUOUS
 62
    4
 10
982.70689999999991
 20
1070.6343999999999
 11
984.86619999999994
 21
1070.6065000000001
  0
LINE
  8
_0-0_LAYER001
  6
CONTINUOUS
 62
    4
 10
984.86619999999994
 20
1070.6065000000001
 11
985.71540000000005
 21
1070.5452
  0
LINE
  8
_0-0_LAYER001
  6
CONTINUOUS
 62
    4
 10
985.71540000000005
 20
1070.5452
 11
987.17969999999991
 21
1070.3746000000001
  0
LINE
  8
_0-0_LAYER001
  6
CONTINUOUS
 62
    4
 10
987.17969999999991
 20
1070.3746000000001
 11
988.6407999999999
 21
1070.1279
  0
LINE
  8
_0-0_LAYER001
  6
CONTINUOUS
 62
    4
 10
988.6407999999999
 20
1070.1279
 11
990.09449999999993
 21
1069.8117999999999
  0
LINE
  8
_0-0_LAYER001
  6
CONTINUOUS
 62
    4
 10
990.09449999999993
 20
1069.8117999999999
 11
991.53659999999991
 21
1069.4332999999999
  0
LINE
  8
_0-0_LAYER001
  6
CONTINUOUS
 62
    4
 10
991.53659999999991
 20
1069.4332999999999
 11
992.96299999999997
 21
1068.9992
  0
LINE
  8
_0-0_LAYER001
  6
CONTINUOUS
 62
    4
 10
992.96299999999997
 20
1068.9992
 11
993.78150000000005
 21
1068.7246
  0
LINE
  8
_0-0_LAYER001
  6
CONTINUOUS
 62
    4
 10
993.78150000000005
 20
1068.7246
 11
996.27980000000002
 21
1067.7764
  0
LINE
  8
_0-0_LAYER001
  6
CONTINUOUS
 62
    4
 10
996.27980000000002
 20
1067.7764
 11
1000.4386999999999
 21
1065.8427999999999
  0
LINE
  8
_0-0_LAYER001
  6
CONTINUOUS
 62
    4
 10
1000.4386999999999
 20
1065.8427999999999
 11
1004.4425000000001
 21
1063.5974000000001
  0
LINE
  8
_0-0_LAYER001
  6
CONTINUOUS
 62
    4
 10
1004.4425000000001
 20
1063.5974000000001
 11
1008.3293000000001
 21
1061.1171999999999
  0
LINE
  8
_0-0_LAYER001
  6
CONTINUOUS
 62
    4
 10
1008.3293000000001
 20
1061.1171999999999
 11
1012.1373000000001
 21
1058.479
  0
LINE
  8
_0-0_LAYER001
  6
CONTINUOUS
 62
    4
 10
1012.1373000000001
 20
1058.479
 11
1015.9046000000001
 21
1055.7599
  0
LINE
  8
_0-0_LAYER001
  6
CONTINUOUS
 62
    4
 10
1015.9046000000001
 20
1055.7599
 11
1018.0859
 21
1054.1760999999999
  0
LINE
  8
_0-0_LAYER001
  6
CONTINUOUS
 62
    4
 10
1018.0859
 20
1054.1760999999999
 11
1021.4175
 21
1051.7892999999999
  0
LINE
  8
_0-0_LAYER001
  6
CONTINUOUS
 62
    4
 10
1021.4175
 20
1051.7892999999999
 11
1027.2097000000001
 21
1047.7724000000001
  0
LINE
  8
_0-0_LAYER001
  6
CONTINUOUS
 62
    4
 10
1027.2097000000001
 20
1047.7724000000001
 11
1033.0818999999999
 21
1043.9157
  0
LINE
  8
_0-0_LAYER001
  6
CONTINUOUS
 62
    4
 10
1033.0818999999999
 20
1043.9157
 11
1039.0561
 21
1040.2612999999999
  0
LINE
  8
_0-0_LAYER001
  6
CONTINUOUS
 62
    4
 10
1039.0561
 20
1040.2612999999999
 11
1045.1542999999999
 21
1036.8507
  0
LINE
  8
_0-0_LAYER001
  6
CONTINUOUS
 62
    4
 10
1045.1542999999999
 20
1036.8507
 11
1051.3985
 21
1033.7258999999999
  0
LINE
  8
_0-0_LAYER001
  6
CONTINUOUS
 62
    4
 10
1051.3985
 20
1033.7258999999999
 11
1055.0958000000001
 21
1032.0608999999999
  0
LINE
  8
_0-0_LAYER001
  6
CONTINUOUS
 62
    4
 10
1055.0958000000001
 20
1032.0608999999999
 11
1058.1550999999999
 21
1030.7898
  0
LINE
  8
_0-0_LAYER001
  6
CONTINUOUS
 62
    4
 10
1058.1550999999999
 20
1030.7898
 11
1063.5155999999999
 21
1028.7877000000001
  0
LINE
  8
_0-0_LAYER001
  6
CONTINUOUS
 62
    4
 10
1063.5155999999999
 20
1028.7877000000001
 11
1068.9712999999999
 21
1027.0322000000001
  0
LINE
  8
_0-0_LAYER001
  6
CONTINUOUS
 62
    4
 10
1068.9712999999999
 20
1027.0322000000001
 11
1074.5063
 21
1025.5314000000001
  0
LINE
  8
_0-0_LAYER001
  6
CONTINUOUS
 62
    4
 10
1074.5063
 20
1025.5314000000001
 11
1080.1045999999999
 21
1024.2934
  0
LINE
  8
_0-0_LAYER001
  6
CONTINUOUS
 62
    4
 10
1080.1045999999999
 20
1024.2934
 11
1085.7502999999999
 21
1023.3262
  0
LINE
  8
_0-0_LAYER001
  6
CONTINUOUS
 62
    4
 10
1085.7502999999999
 20
1023.3262
 11
1089.0402999999999
 21
1022.8924999999999
  0
LINE
  8
_0-0_LAYER001
  6
CONTINUOUS
 62
    4
 10
1089.0402999999999
 20
1022.8924999999999
 11
1091.5596
 21
1022.6246000000001
  0
LINE
  8
_0-0_LAYER001
  6
CONTINUOUS
 62
    4
 10
1091.5596
 20
1022.6246000000001
 11
1095.9117000000001
 21
1022.2846
  0
LINE
  8
_0-0_LAYER001
  6
CONTINUOUS
 62
    4
 10
1095.9117000000001
 20
1022.2846
 11
1100.2719
 21
1022.0851
  0
LINE
  8
_0-0_LAYER001
  6
CONTINUOUS
 62
    4
 10
1100.2719
 20
1022.0851
 11
1104.6370999999999
 21
1022.0105000000001
  0
LINE
  8
_0-0_LAYER001
  6
CONTINUOUS
 62
    4
 10
1104.6370999999999
 20
1022.0105000000001
 11
1109.0042000000001
 21
1022.0449000000001
  0
LINE
  8
_0-0_LAYER001
  6
CONTINUOUS
 62
    4
 10
1109.0042000000001
 20
1022.0449000000001
 11
1113.3701000000001
 21
1022.1723999999999
  0
LINE
  8
_0-0_LAYER001
  6
CONTINUOUS
 62
    4
 10
1113.3701000000001
 20
1022.1723999999999
 11
1115.9005
 21
1022.2828999999999
  0
LINE
  8
_0-0_LAYER001
  6
CONTINUOUS
 62
    4
 10
1115.9005
 20
1022.2828999999999
 11
1120.6296
 21
1022.5510999999999
  0
LINE
  8
_0-0_LAYER001
  6
CONTINUOUS
 62
    4
 10
1120.6296
 20
1022.5510999999999
 11
1128.7678000000001
 21
1023.1821
  0
LINE
  8
_0-0_LAYER001
  6
CONTINUOUS
 62
    4
 10
1128.7678000000001
 20
1023.1821
 11
1136.8886
 21
1023.9960000000001
  0
LINE
  8
_0-0_LAYER001
  6
CONTINUOUS
 62
    4
 10
1136.8886
 20
1023.9960000000001
 11
1144.9944
 21
1024.9573
  0
LINE
  8
_0-0_LAYER001
  6
CONTINUOUS
 62
    4
 10
1144.9944
 20
1024.9573
 11
1153.0879
 21
1026.0304000000001
  0
LINE
  8
_0-0_LAYER001
  6
CONTINUOUS
 62
    4
 10
1153.0879
 20
1026.0304000000001
 11
1161.1713999999999
 21
1027.1800000000001
  0
LINE
  8
_0-0_LAYER001
  6
CONTINUOUS
 62
    4
 10
1161.1713999999999
 20
1027.1800000000001
 11
1165.8562999999999
 21
1027.8678
  0
LINE
  8
_0-0_LAYER001
  6
CONTINUOUS
 62
    4
 10
1165.8562999999999
 20
1027.8678
 11
1168.2911999999999
 21
1028.2285999999999
  0
LINE
  8
_0-0_LAYER001
  6
CONTINUOUS
 62
    4
 10
1168.2911999999999
 20
1028.2285999999999
 11
1172.4882
 21
1028.8545999999999
  0
LINE
  8
_0-0_LAYER001
  6
CONTINUOUS
 62
    4
 10
1172.4882
 20
1028.8545999999999
 11
1176.684
 21
1029.4847
  0
LINE
  8
_0-0_LAYER001
  6
CONTINUOUS
 62
    4
 10
1176.684
 20
1029.4847
 11
1180.8788
 21
1030.1179999999999
  0
LINE
  8
_0-0_LAYER001
  6
CONTINUOUS
 62
    4
 10
1180.8788
 20
1030.1179999999999
 11
1185.0730000000001
 21
1030.7536
  0
LINE
  8
_0-0_LAYER001
  6
CONTINUOUS
 62
    4
 10
1185.0730000000001
 20
1030.7536
 11
1189.2666999999999
 21
1031.3905999999999
  0
LINE
  8
_0-0_LAYER001
  6
CONTINUOUS
 62
    4
 10
1189.2666999999999
 20
1031.3905999999999
 11
1191.6990000000001
 21
1031.7603999999999
  0
LINE
  8
_0-0_LAYER001
  6
CONTINUOUS
 62
    4
 10
946.66210000000001
 20
1039.6567
 11
948.72399999999993
 21
1040.4336000000001
  0
LINE
  8
_0-0_LAYER001
  6
CONTINUOUS
 62
    4
 10
948.72399999999993
 20
1040.4336000000001
 11
952.29160000000002
 21
1041.7800999999999
  0
LINE
  8
_0-0_LAYER001
  6
CONTINUOUS
 62
    4
 10
952.29160000000002
 20
1041.7800999999999
 11
955.88349999999991
 21
1043.1424
  0
LINE
  8
_0-0_LAYER001
  6
CONTINUOUS
 62
    4
 10
955.88349999999991
 20
1043.1424
 11
959.50389999999993
 21
1044.5262
  0
LINE
  8
_0-0_LAYER001
  6
CONTINUOUS
 62
    4
 10
959.50389999999993
 20
1044.5262
 11
963.15689999999995
 21
1045.9374
  0
LINE
  8
_0-0_LAYER001
  6
CONTINUOUS
 62
    4
 10
963.15689999999995
 20
1045.9374
 11
966.83609999999999
 21
1047.3777
  0
LINE
  8
_0-0_LAYER001
  6
CONTINUOUS
 62
    4
 10
966.83609999999999
 20
1047.3777
 11
968.99129999999991
 21
1048.2318
  0
LINE
  8
_0-0_LAYER001
  6
CONTINUOUS
 62
    4
 10
968.99129999999991
 20
1048.2318
 11
971.01479999999992
 21
1049.0383999999999
  0
LINE
  8
_0-0_LAYER001
  6
CONTINUOUS
 62
    4
 10
971.01479999999992
 20
1049.0383999999999
 11
974.28670000000011
 21
1050.3098
  0
LINE
  8
_0-0_LAYER001
  6
CONTINUOUS
 62
    4
 10
974.28670000000011
 20
1050.3098
 11
977.18180000000007
 21
1051.3321000000001
  0
LINE
  8
_0-0_LAYER001
  6
CONTINUOUS
 62
    4
 10
977.18180000000007
 20
1051.3321000000001
 11
979.65000000000009
 21
1052.0518
  0
LINE
  8
_0-0_LAYER001
  6
CONTINUOUS
 62
    4
 10
979.65000000000009
 20
1052.0518
 11
981.6416999999999
 21
1052.4592
  0
LINE
  8
_0-0_LAYER001
  6
CONTINUOUS
 62
    4
 10
981.6416999999999
 20
1052.4592
 11
983.42100000000005
 21
1052.6237000000001
  0
LINE
  8
_0-0_LAYER001
  6
CONTINUOUS
 62
    4
 10
983.42100000000005
 20
1052.6237000000001
 11
984.10050000000001
 21
1052.6149
  0
LINE
  8
_0-0_LAYER001
  6
CONTINUOUS
 62
    4
 10
984.10050000000001
 20
1052.6149
 11
984.02440000000001
 21
1052.6204
  0
LINE
  8
_0-0_LAYER001
  6
CONTINUOUS
 62
    4
 10
984.02440000000001
 20
1052.6204
 11
984.63809999999989
 21
1052.5489
  0
LINE
  8
_0-0_LAYER001
  6
CONTINUOUS
 62
    4
 10
984.63809999999989
 20
1052.5489
 11
985.22849999999994
 21
1052.4493
  0
LINE
  8
_0-0_LAYER001
  6
CONTINUOUS
 62
    4
 10
985.22849999999994
 20
1052.4493
 11
985.89589999999998
 21
1052.3042
  0
LINE
  8
_0-0_LAYER001
  6
CONTINUOUS
 62
    4
 10
985.89589999999998
 20
1052.3042
 11
986.62950000000001
 21
1052.1116
  0
LINE
  8
_0-0_LAYER001
  6
CONTINUOUS
 62
    4
 10
986.62950000000001
 20
1052.1116
 11
987.47859999999991
 21
1051.8532
  0
LINE
  8
_0-0_LAYER001
  6
CONTINUOUS
 62
    4
 10
987.47859999999991
 20
1051.8532
 11
987.72270000000003
 21
1051.7713000000001
  0
LINE
  8
_0-0_LAYER001
  6
CONTINUOUS
 62
    4
 10
987.72270000000003
 20
1051.7713000000001
 11
989.2826
 21
1051.1792
  0
LINE
  8
_0-0_LAYER001
  6
CONTINUOUS
 62
    4
 10
989.2826
 20
1051.1792
 11
992.23029999999994
 21
1049.8088
  0
LINE
  8
_0-0_LAYER001
  6
CONTINUOUS
 62
    4
 10
992.23029999999994
 20
1049.8088
 11
995.19139999999993
 21
1048.1482000000001
  0
LINE
  8
_0-0_LAYER001
  6
CONTINUOUS
 62
    4
 10
995.19139999999993
 20
1048.1482000000001
 11
998.3590999999999
 21
1046.1268
  0
LINE
  8
_0-0_LAYER001
  6
CONTINUOUS
 62
    4
 10
998.3590999999999
 20
1046.1268
 11
1001.7438
 21
1043.7819
  0
LINE
  8
_0-0_LAYER001
  6
CONTINUOUS
 62
    4
 10
1001.7438
 20
1043.7819
 11
1005.3495
 21
1041.1794
  0
LINE
  8
_0-0_LAYER001
  6
CONTINUOUS
 62
    4
 10
1005.3495
 20
1041.1794
 11
1007.5564999999999
 21
1039.577
  0
LINE
  8
_0-0_LAYER001
  6
CONTINUOUS
 62
    4
 10
1007.5564999999999
 20
1039.577
 11
1011.0464999999999
 21
1037.0767000000001
  0
LINE
  8
_0-0_LAYER001
  6
CONTINUOUS
 62
    4
 10
1011.0464999999999
 20
1037.0767000000001
 11
1017.1387
 21
1032.8516999999999
  0
LINE
  8
_0-0_LAYER001
  6
CONTINUOUS
 62
    4
 10
1017.1387
 20
1032.8516999999999
 11
1023.4423999999999
 21
1028.7117000000001
  0
LINE
  8
_0-0_LAYER001
  6
CONTINUOUS
 62
    4
 10
1023.4423999999999
 20
1028.7117000000001
 11
1029.9630999999999
 21
1024.7229
  0
LINE
  8
_0-0_LAYER001
  6
CONTINUOUS
 62
    4
 10
1029.9630999999999
 20
1024.7229
 11
1036.7291
 21
1020.9389000000001
  0
LINE
  8
_0-0_LAYER001
  6
CONTINUOUS
 62
    4
 10
1036.7291
 20
1020.9389000000001
 11
1043.6721
 21
1017.4644000000001
  0
LINE
  8
_0-0_LAYER001
  6
CONTINUOUS
 62
    4
 10
1043.6721
 20
1017.4644000000001
 11
1047.9455
 21
1015.54
  0
LINE
  8
_0-0_LAYER001
  6
CONTINUOUS
 62
    4
 10
1047.9455
 20
1015.54
 11
1051.5506
 21
1014.0419999999999
  0
LINE
  8
_0-0_LAYER001
  6
CONTINUOUS
 62
    4
 10
1051.5506
 20
1014.0419999999999
 11
1057.6067
 21
1011.7800999999999
  0
LINE
  8
_0-0_LAYER001
  6
CONTINUOUS
 62
    4
 10
1057.6067
 20
1011.7800999999999
 11
1063.8566000000001
 21
1009.7691
  0
LINE
  8
_0-0_LAYER001
  6
CONTINUOUS
 62
    4
 10
1063.8566000000001
 20
1009.7691
 11
1070.2053000000001
 21
1008.0477000000001
  0
LINE
  8
_0-0_LAYER001
  6
CONTINUOUS
 62
    4
 10
1070.2053000000001
 20
1008.0477000000001
 11
1076.6395
 21
1006.6248000000001
  0
LINE
  8
_0-0_LAYER001
  6
CONTINUOUS
 62
    4
 10
1076.6395
 20
1006.6248000000001
 11
1083.0532000000001
 21
1005.5260000000001
  0
LINE
  8
_0-0_LAYER001
  6
CONTINUOUS
 62
    4
 10
1083.0532000000001
 20
1005.5260000000001
 11
1086.9121
 21
1005.0173
  0
LINE
  8
_0-0_LAYER001
  6
CONTINUOUS
 62
    4
 10
1086.9121
 20
1005.0173
 11
1089.9067
 21
1004.6989000000001
  0
LINE
  8
_0-0_LAYER001
  6
CONTINUOUS
 62
    4
 10
1089.9067
 20
1004.6989000000001
 11
1094.7991
 21
1004.3167000000001
  0
LINE
  8
_0-0_LAYER001
  6
CONTINUOUS
 62
    4
 10
1094.7991
 20
1004.3167000000001
 11
1099.7066
 21
1004.0922
  0
LINE
  8
_0-0_LAYER001
  6
CONTINUOUS
 62
    4
 10
1099.7066
 20
1004.0922
 11
1104.5540000000001
 21
1004.0092999999999
  0
LINE
  8
_0-0_LAYER001
  6
CONTINUOUS
 62
    4
 10
1104.5540000000001
 20
1004.0092999999999
 11
1109.3379
 21
1004.0469000000001
  0
LINE
  8
_0-0_LAYER001
  6
CONTINUOUS
 62
    4
 10
1109.3379
 20
1004.0469000000001
 11
1114.0255999999999
 21
1004.1839
  0
LINE
  8
_0-0_LAYER001
  6
CONTINUOUS
 62
    4
 10
1114.0255999999999
 20
1004.1839
 11
1116.8027
 21
1004.3052
  0
LINE
  8
_0-0_LAYER001
  6
CONTINUOUS
 62
    4
 10
1116.8027
 20
1004.3052
 11
1121.8351
 21
1004.5906
  0
LINE
  8
_0-0_LAYER001
  6
CONTINUOUS
 62
    4
 10
1121.8351
 20
1004.5906
 11
1130.3612000000001
 21
1005.2516000000001
  0
LINE
  8
_0-0_LAYER001
  6
CONTINUOUS
 62
    4
 10
1130.3612000000001
 20
1005.2516000000001
 11
1138.8461
 21
1006.1020000000001
  0
LINE
  8
_0-0_LAYER001
  6
CONTINUOUS
 62
    4
 10
1138.8461
 20
1006.1020000000001
 11
1147.2374
 21
1007.0971
  0
LINE
  8
_0-0_LAYER001
  6
CONTINUOUS
 62
    4
 10
1147.2374
 20
1007.0971
 11
1155.5381
 21
1008.1977999999999
  0
LINE
  8
_0-0_LAYER001
  6
CONTINUOUS
 62
    4
 10
1155.5381
 20
1008.1977999999999
 11
1163.7458999999999
 21
1009.365
  0
LINE
  8
_0-0_LAYER001
  6
CONTINUOUS
 62
    4
 10
1163.7458999999999
 20
1009.365
 11
1168.4829999999999
 21
1010.0605
  0
LINE
  8
_0-0_LAYER001
  6
CONTINUOUS
 62
    4
 10
1168.4829999999999
 20
1010.0605
 11
1170.9383
 21
1010.4244000000001
  0
LINE
  8
_0-0_LAYER001
  6
CONTINUOUS
 62
    4
 10
1170.9383
 20
1010.4244000000001
 11
1175.1524999999999
 21
1011.0528999999999
  0
LINE
  8
_0-0_LAYER001
  6
CONTINUOUS
 62
    4
 10
1175.1524999999999
 20
1011.0528999999999
 11
1179.364
 21
1011.6854000000001
  0
LINE
  8
_0-0_LAYER001
  6
CONTINUOUS
 62
    4
 10
1179.364
 20
1011.6854000000001
 11
1183.5707
 21
1012.3205
  0
LINE
  8
_0-0_LAYER001
  6
CONTINUOUS
 62
    4
 10
1183.5707
 20
1012.3205
 11
1187.7728999999999
 21
1012.9573
  0
LINE
  8
_0-0_LAYER001
  6
CONTINUOUS
 62
    4
 10
1187.7728999999999
 20
1012.9573
 11
1191.9708000000001
 21
1013.5949000000001
  0
LINE
  8
_0-0_LAYER001
  6
CONTINUOUS
 62
    4
 10
1191.9708000000001
 20
1013.5949000000001
 11
1193.5885000000001
 21
1013.8407999999999
  0
LINE
  8
_0-0_LAYER001
  6
CONTINUOUS
 62
    4
 10
941.13329999999996
 20
1056.8069
 11
941.55929999999989
 21
1056.97
  0
ARC
  8
_0-0_LAYER001
  6
CONTINUOUS
 62
    4
 10
942.20589999999993
 20
1054.0052000000001
 40
3
 50
110.94902000000002
 51
178.70000000000002
  0
LINE
  8
_0-0_LAYER001
  6
CONTINUOUS
 62
    4
 10
939.0972999999999
 20
1038.2340999999999
 11
939.0972999999999
 21
1053.9566
  0
LINE
  8
_0-0_LAYER001
  6
CONTINUOUS
 62
    4
 10
940.45129999999995
 20
1037.2989
 11
946.62619999999993
 21
1039.6360999999999
  0
ARC
  8
_0-0_LAYER001
  6
CONTINUOUS
 62
    4
 10
940.0972999999999
 20
1038.2340999999999
 40
1
 50
180
 51
290.73165999999998
  0
LINE
  8
_0-0_LAYER001
  6
CONTINUOUS
 62
    4
 10
1191.8239000000001
 20
1031.7956999999999
 11
1236.2782
 21
1041.4436000000001
  0
LINE
  8
_0-0_LAYER001
  6
CONTINUOUS
 62
    4
 10
1198.5690999999999
 20
1011.962
 11
1237.2409
 21
1021.0119999999999
  0
LINE
  8
_0-0_LAYER001
  6
CONTINUOUS
 62
    4
 10
1237.2409
 20
1021.9684999999999
 11
1237.2409
 21
1021.0119999999999
  0
ARC
  8
_0-0_LAYER001
  6
CONTINUOUS
 62
    4
 10
1238.2409
 20
1021.9684999999999
 40
1
 50
102.72435
 51
180
  0
LINE
  8
_0-0_LAYER001
  6
CONTINUOUS
 62
    4
 10
1243.0579
 20
1024.0814
 11
1238.0207
 21
1022.9439
  0
ARC
  8
_0-0_LAYER001
  6
CONTINUOUS
 62
    4
 10
1243.2782
 20
1023.1059
 40
1
 50
0
 51
102.72435
  0
LINE
  8
_0-0_LAYER001
  6
CONTINUOUS
 62
    4
 10
1243.4902999999999
 20
1024.5898
 11
1193.3562999999999
 21
1013.7093
  0
ARC
  8
_0-0_LAYER001
  6
CONTINUOUS
 62
    4
 10
1243.2782
 20
1025.5671
 40
1
 50
282.24497000000002
 51
0
  0
LINE
  8
_0-0_LAYER001
  6
CONTINUOUS
 62
    4
 10
1243.4960000000001
 20
1003.8490999999999
 11
1193.9121
 21
992.7811999999999
  0
LINE
  8
_0-0_LAYER001
  6
CONTINUOUS
 62
    4
 10
1244.2782
 20
1004.8251
 11
1244.2782
 21
1023.1059
  0
ARC
  8
_0-0_LAYER001
  6
CONTINUOUS
 62
    4
 10
1243.2782
 20
1004.8251
 40
1
 50
282.58296000000001
 51
0.0000000000000254
  0
LINE
  8
_0-0_LAYER001
  6
CONTINUOUS
 62
    4
 10
1236.2782
 20
1042.9006999999999
 11
1236.2782
 21
1041.4436000000001
  0
ARC
  8
_0-0_LAYER001
  6
CONTINUOUS
 62
    4
 10
1237.2782
 20
1042.9006999999999
 40
1
 50
101.73308
 51
180
  0
LINE
  8
_0-0_LAYER001
  6
CONTINUOUS
 62
    4
 10
1243.0748000000001
 20
1045.1259
 11
1237.0748000000001
 21
1043.8797999999999
  0
LINE
  8
_0-0_LAYER001
  6
CONTINUOUS
 62
    4
 10
1244.2782
 20
1044.1468
 11
1244.2782
 21
1025.5671
  0
ARC
  8
_0-0_LAYER001
  6
CONTINUOUS
 62
    4
 10
1243.2782
 20
1044.1468
 40
1
 50
0
 51
101.73308
  0
LINE
  8
_0-0_LAYER001
  6
CONTINUOUS
 62
    4
 10
883.66110000000003
 20
972.13679999999999
 11
876.33570000000009
 21
983.44280000000003
  0
LINE
  8
_0-0_LAYER001
  6
CONTINUOUS
 62
    4
 10
892.17059999999992
 20
972.32670000000007
 11
901.1090999999999
 21
987.57230000000004
  0
ARC
  8
_0-0_LAYER001
  6
CONTINUOUS
 62
    4
 10
887.8572999999999
 20
974.85549999999989
 40
5
 50
212.93986000000001
 51
329.61716000000001
  0
LINE
  8
_0-0_LAYER001
  6
CONTINUOUS
 62
    4
 10
931.45270000000005
 20
1011.8842999999999
 11
933.88079999999991
 21
1012.2882
  0
LINE
  8
_0-0_LAYER001
  6
CONTINUOUS
 62
    4
 10
927.2636
 20
1011.1881000000001
 11
931.45270000000005
 21
1011.8842999999999
  0
LINE
  8
_0-0_LAYER001
  6
CONTINUOUS
 62
    4
 10
923.06979999999999
 20
1010.4925000000001
 11
927.2636
 21
1011.1881000000001
  0
LINE
  8
_0-0_LAYER001
  6
CONTINUOUS
 62
    4
 10
918.87100000000009
 20
1009.7985000000001
 11
923.06979999999999
 21
1010.4925000000001
  0
LINE
  8
_0-0_LAYER001
  6
CONTINUOUS
 62
    4
 10
914.66699999999992
 20
1009.107
 11
918.87100000000009
 21
1009.7985000000001
  0
LINE
  8
_0-0_LAYER001
  6
CONTINUOUS
 62
    4
 10
910.46019999999999
 20
1008.4194
 11
914.66699999999992
 21
1009.107
  0
LINE
  8
_0-0_LAYER001
  6
CONTINUOUS
 62
    4
 10
908.00790000000006
 20
1008.0209
 11
910.46019999999999
 21
1008.4194
  0
LINE
  8
_0-0_LAYER001
  6
CONTINUOUS
 62
    4
 10
903.27510000000007
 20
1007.2583999999999
 11
908.00790000000006
 21
1008.0209
  0
LINE
  8
_0-0_LAYER001
  6
CONTINUOUS
 62
    4
 10
895.07069999999999
 20
1005.9745
 11
903.27510000000007
 21
1007.2583999999999
  0
LINE
  8
_0-0_LAYER001
  6
CONTINUOUS
 62
    4
 10
886.7632000000001
 20
1004.7547
 11
895.07069999999999
 21
1005.9745
  0
LINE
  8
_0-0_LAYER001
  6
CONTINUOUS
 62
    4
 10
878.35490000000004
 20
1003.6383000000001
 11
886.7632000000001
 21
1004.7547
  0
LINE
  8
_0-0_LAYER001
  6
CONTINUOUS
 62
    4
 10
869.84230000000002
 20
1002.665
 11
878.35490000000004
 21
1003.6383000000001
  0
LINE
  8
_0-0_LAYER001
  6
CONTINUOUS
 62
    4
 10
861.28320000000008
 20
1001.8810000000001
 11
869.84230000000002
 21
1002.665
  0
LINE
  8
_0-0_LAYER001
  6
CONTINUOUS
 62
    4
 10
856.22170000000006
 20
1001.5229999999999
 11
861.28320000000008
 21
1001.8810000000001
  0
LINE
  8
_0-0_LAYER001
  6
CONTINUOUS
 62
    4
 10
853.41910000000007
 20
1001.3614
 11
856.22170000000006
 21
1001.5229999999999
  0
LINE
  8
_0-0_LAYER001
  6
CONTINUOUS
 62
    4
 10
848.69810000000007
 20
1001.1574000000001
 11
853.41910000000007
 21
1001.3614
  0
LINE
  8
_0-0_LAYER001
  6
CONTINUOUS
 62
    4
 10
843.86879999999996
 20
1001.0519999999999
 11
848.69810000000007
 21
1001.1574000000001
  0
LINE
  8
_0-0_LAYER001
  6
CONTINUOUS
 62
    4
 10
842.29130000000009
 20
1001.0569
 11
843.86879999999996
 21
1001.0519999999999
  0
LINE
  8
_0-0_LAYER001
  6
CONTINUOUS
 62
    4
 10
927.44200000000001
 20
992.69679999999994
 11
929.05610000000001
 21
992.96530000000007
  0
LINE
  8
_0-0_LAYER001
  6
CONTINUOUS
 62
    4
 10
923.25350000000003
 20
992.00060000000008
 11
927.44200000000001
 21
992.69679999999994
  0
LINE
  8
_0-0_LAYER001
  6
CONTINUOUS
 62
    4
 10
919.06060000000002
 20
991.30520000000001
 11
923.25350000000003
 21
992.00060000000008
  0
LINE
  8
_0-0_LAYER001
  6
CONTINUOUS
 62
    4
 10
914.86310000000003
 20
990.61149999999998
 11
919.06060000000002
 21
991.30520000000001
  0
LINE
  8
_0-0_LAYER001
  6
CONTINUOUS
 62
    4
 10
910.66080000000011
 20
989.9203
 11
914.86310000000003
 21
990.61149999999998
  0
LINE
  8
_0-0_LAYER001
  6
CONTINUOUS
 62
    4
 10
906.45589999999993
 20
989.23289999999997
 11
910.66080000000011
 21
989.9203
  0
LINE
  8
_0-0_LAYER001
  6
CONTINUOUS
 62
    4
 10
904.00579999999991
 20
988.83480000000009
 11
906.45589999999993
 21
989.23289999999997
  0
LINE
  8
_0-0_LAYER001
  6
CONTINUOUS
 62
    4
 10
899.27890000000002
 20
988.07330000000002
 11
904.00579999999991
 21
988.83480000000009
  0
LINE
  8
_0-0_LAYER001
  6
CONTINUOUS
 62
    4
 10
891.08819999999992
 20
986.79160000000002
 11
899.27890000000002
 21
988.07330000000002
  0
LINE
  8
_0-0_LAYER001
  6
CONTINUOUS
 62
    4
 10
882.80369999999994
 20
985.57510000000002
 11
891.08819999999992
 21
986.79160000000002
  0
LINE
  8
_0-0_LAYER001
  6
CONTINUOUS
 62
    4
 10
874.42710000000011
 20
984.46289999999999
 11
882.80369999999994
 21
985.57510000000002
  0
LINE
  8
_0-0_LAYER001
  6
CONTINUOUS
 62
    4
 10
865.95489999999995
 20
983.49420000000009
 11
874.42710000000011
 21
984.46289999999999
  0
LINE
  8
_0-0_LAYER001
  6
CONTINUOUS
 62
    4
 10
857.4387999999999
 20
982.71409999999992
 11
865.95489999999995
 21
983.49420000000009
  0
LINE
  8
_0-0_LAYER001
  6
CONTINUOUS
 62
    4
 10
852.41100000000006
 20
982.35850000000005
 11
857.4387999999999
 21
982.71409999999992
  0
LINE
  8
_0-0_LAYER001
  6
CONTINUOUS
 62
    4
 10
849.63580000000002
 20
982.19849999999997
 11
852.41100000000006
 21
982.35850000000005
  0
LINE
  8
_0-0_LAYER001
  6
CONTINUOUS
 62
    4
 10
844.95049999999992
 20
981.99610000000007
 11
849.63580000000002
 21
982.19849999999997
  0
LINE
  8
_0-0_LAYER001
  6
CONTINUOUS
 62
    4
 10
842.29130000000009
 20
981.9380000000001
 11
844.95049999999992
 21
981.99610000000007
  0
LINE
  8
_0-0_LAYER001
  6
CONTINUOUS
 62
    4
 10
924.1576
 20
982.27559999999994
 11
921.91210000000001
 21
990.84899999999993
  0
ARC
  8
_0-0_LAYER001
  6
CONTINUOUS
 62
    4
 10
927.05970000000002
 20
983.03569999999991
 40
3
 50
194.67639000000003
 51
270.00000000000006
  0
LINE
  8
_0-0_LAYER001
  6
CONTINUOUS
 62
    4
 10
930.5021999999999
 20
980.03140000000008
 11
927.08429999999998
 21
980.03140000000008
  0
LINE
  8
_0-0_LAYER001
  6
CONTINUOUS
 62
    4
 10
933.46129999999994
 20
982.53819999999996
 11
935.39540000000011
 21
994.14229999999998
  0
ARC
  8
_0-0_LAYER001
  6
CONTINUOUS
 62
    4
 10
930.5021999999999
 20
983.03140000000008
 40
3
 50
270
 51
350.53766999999999
  0
LINE
  8
_0-0_LAYER001
  6
CONTINUOUS
 62
    4
 10
842.29130000000009
 20
1022.2143000000001
 11
844.18100000000004
 21
1022.2292
  0
LINE
  8
_0-0_LAYER001
  6
CONTINUOUS
 62
    4
 10
844.18100000000004
 20
1022.2292
 11
848.54690000000005
 21
1022.3568
  0
LINE
  8
_0-0_LAYER001
  6
CONTINUOUS
 62
    4
 10
848.54690000000005
 20
1022.3568
 11
851.0773999999999
 21
1022.4673
  0
LINE
  8
_0-0_LAYER001
  6
CONTINUOUS
 62
    4
 10
851.0773999999999
 20
1022.4673
 11
855.80649999999991
 21
1022.7355
  0
LINE
  8
_0-0_LAYER001
  6
CONTINUOUS
 62
    4
 10
855.80649999999991
 20
1022.7355
 11
863.94470000000001
 21
1023.3664000000001
  0
LINE
  8
_0-0_LAYER001
  6
CONTINUOUS
 62
    4
 10
863.94470000000001
 20
1023.3664000000001
 11
872.06539999999995
 21
1024.1803
  0
LINE
  8
_0-0_LAYER001
  6
CONTINUOUS
 62
    4
 10
872.06539999999995
 20
1024.1803
 11
880.17129999999997
 21
1025.1415999999999
  0
LINE
  8
_0-0_LAYER001
  6
CONTINUOUS
 62
    4
 10
880.17129999999997
 20
1025.1415999999999
 11
888.26469999999995
 21
1026.2148
  0
LINE
  8
_0-0_LAYER001
  6
CONTINUOUS
 62
    4
 10
888.26469999999995
 20
1026.2148
 11
896.34830000000011
 21
1027.3643999999999
  0
LINE
  8
_0-0_LAYER001
  6
CONTINUOUS
 62
    4
 10
896.34830000000011
 20
1027.3643999999999
 11
901.03320000000008
 21
1028.0521000000001
  0
LINE
  8
_0-0_LAYER001
  6
CONTINUOUS
 62
    4
 10
901.03320000000008
 20
1028.0521000000001
 11
903.46810000000005
 21
1028.413
  0
LINE
  8
_0-0_LAYER001
  6
CONTINUOUS
 62
    4
 10
903.46810000000005
 20
1028.413
 11
907.66499999999996
 21
1029.039
  0
LINE
  8
_0-0_LAYER001
  6
CONTINUOUS
 62
    4
 10
907.66499999999996
 20
1029.039
 11
911.86079999999993
 21
1029.6691000000001
  0
LINE
  8
_0-0_LAYER001
  6
CONTINUOUS
 62
    4
 10
911.86079999999993
 20
1029.6691000000001
 11
916.05559999999991
 21
1030.3024
  0
LINE
  8
_0-0_LAYER001
  6
CONTINUOUS
 62
    4
 10
916.05559999999991
 20
1030.3024
 11
920.24980000000005
 21
1030.9380000000001
  0
LINE
  8
_0-0_LAYER001
  6
CONTINUOUS
 62
    4
 10
920.24980000000005
 20
1030.9380000000001
 11
924.44360000000006
 21
1031.5749000000001
  0
LINE
  8
_0-0_LAYER001
  6
CONTINUOUS
 62
    4
 10
924.44360000000006
 20
1031.5749000000001
 11
926.8759
 21
1031.9447
  0
LINE
  8
_0-0_LAYER001
  6
CONTINUOUS
 62
    4
 10
842.29130000000009
 20
1004.2138
 11
844.51479999999992
 21
1004.2312999999999
  0
LINE
  8
_0-0_LAYER001
  6
CONTINUOUS
 62
    4
 10
844.51479999999992
 20
1004.2312999999999
 11
849.2023999999999
 21
1004.3683000000001
  0
LINE
  8
_0-0_LAYER001
  6
CONTINUOUS
 62
    4
 10
849.2023999999999
 20
1004.3683000000001
 11
851.97959999999989
 21
1004.4894999999999
  0
LINE
  8
_0-0_LAYER001
  6
CONTINUOUS
 62
    4
 10
851.97959999999989
 20
1004.4894999999999
 11
857.01189999999997
 21
1004.7748999999999
  0
LINE
  8
_0-0_LAYER001
  6
CONTINUOUS
 62
    4
 10
857.01189999999997
 20
1004.7748999999999
 11
865.53809999999999
 21
1005.4359999999999
  0
LINE
  8
_0-0_LAYER001
  6
CONTINUOUS
 62
    4
 10
865.53809999999999
 20
1005.4359999999999
 11
874.02299999999991
 21
1006.2863
  0
LINE
  8
_0-0_LAYER001
  6
CONTINUOUS
 62
    4
 10
874.02299999999991
 20
1006.2863
 11
882.41429999999991
 21
1007.2815000000001
  0
LINE
  8
_0-0_LAYER001
  6
CONTINUOUS
 62
    4
 10
882.41429999999991
 20
1007.2815000000001
 11
890.71499999999992
 21
1008.3821
  0
LINE
  8
_0-0_LAYER001
  6
CONTINUOUS
 62
    4
 10
890.71499999999992
 20
1008.3821
 11
898.92270000000008
 21
1009.5494000000001
  0
LINE
  8
_0-0_LAYER001
  6
CONTINUOUS
 62
    4
 10
898.92270000000008
 20
1009.5494000000001
 11
903.65990000000011
 21
1010.2447999999999
  0
LINE
  8
_0-0_LAYER001
  6
CONTINUOUS
 62
    4
 10
903.65990000000011
 20
1010.2447999999999
 11
906.11519999999996
 21
1010.6087
  0
LINE
  8
_0-0_LAYER001
  6
CONTINUOUS
 62
    4
 10
906.11519999999996
 20
1010.6087
 11
910.3293000000001
 21
1011.2373
  0
LINE
  8
_0-0_LAYER001
  6
CONTINUOUS
 62
    4
 10
910.3293000000001
 20
1011.2373
 11
914.54089999999997
 21
1011.8697
  0
LINE
  8
_0-0_LAYER001
  6
CONTINUOUS
 62
    4
 10
914.54089999999997
 20
1011.8697
 11
918.74759999999992
 21
1012.5047999999999
  0
LINE
  8
_0-0_LAYER001
  6
CONTINUOUS
 62
    4
 10
918.74759999999992
 20
1012.5047999999999
 11
922.9498000000001
 21
1013.1415999999999
  0
LINE
  8
_0-0_LAYER001
  6
CONTINUOUS
 62
    4
 10
922.9498000000001
 20
1013.1415999999999
 11
927.14769999999999
 21
1013.7791999999999
  0
LINE
  8
_0-0_LAYER001
  6
CONTINUOUS
 62
    4
 10
927.14769999999999
 20
1013.7791999999999
 11
928.7654
 21
1014.0251000000001
  0
LINE
  8
_0-0_LAYER001
  6
CONTINUOUS
 62
    4
 10
939.27420000000006
 20
1017.0962999999999
 11
939.27420000000006
 21
1034.2936
  0
LINE
  8
_0-0_LAYER001
  6
CONTINUOUS
 62
    4
 10
927.00080000000003
 20
1031.9801
 11
971.4550999999999
 21
1041.6279999999999
  0
LINE
  8
_0-0_LAYER001
  6
CONTINUOUS
 62
    4
 10
933.74600000000009
 20
1012.1464000000001
 11
972.41779999999994
 21
1021.1963000000001
  0
LINE
  8
_0-0_LAYER001
  6
CONTINUOUS
 62
    4
 10
972.41779999999994
 20
1022.1528000000001
 11
972.41779999999994
 21
1021.1963000000001
  0
ARC
  8
_0-0_LAYER001
  6
CONTINUOUS
 62
    4
 10
973.41779999999994
 20
1022.1528000000001
 40
1
 50
102.72435
 51
180
  0
LINE
  8
_0-0_LAYER001
  6
CONTINUOUS
 62
    4
 10
978.23479999999995
 20
1024.2656999999999
 11
973.19749999999999
 21
1023.1283000000001
  0
ARC
  8
_0-0_LAYER001
  6
CONTINUOUS
 62
    4
 10
978.4550999999999
 20
1023.2902999999999
 40
1
 50
0
 51
102.72435
  0
LINE
  8
_0-0_LAYER001
  6
CONTINUOUS
 62
    4
 10
978.66709999999989
 20
1024.7742000000001
 11
928.53320000000008
 21
1013.8936000000001
  0
ARC
  8
_0-0_LAYER001
  6
CONTINUOUS
 62
    4
 10
978.4550999999999
 20
1025.7514000000001
 40
1
 50
282.24497000000002
 51
0
  0
LINE
  8
_0-0_LAYER001
  6
CONTINUOUS
 62
    4
 10
978.67290000000003
 20
1004.0334
 11
929.08889999999997
 21
992.96559999999999
  0
LINE
  8
_0-0_LAYER001
  6
CONTINUOUS
 62
    4
 10
979.4550999999999
 20
1005.0093999999999
 11
979.4550999999999
 21
1023.2902999999999
  0
ARC
  8
_0-0_LAYER001
  6
CONTINUOUS
 62
    4
 10
978.4550999999999
 20
1005.0093999999999
 40
1
 50
282.58296000000001
 51
0.0000000000000254
  0
LINE
  8
_0-0_LAYER001
  6
CONTINUOUS
 62
    4
 10
971.4550999999999
 20
1043.085
 11
971.4550999999999
 21
1041.6279999999999
  0
ARC
  8
_0-0_LAYER001
  6
CONTINUOUS
 62
    4
 10
972.4550999999999
 20
1043.085
 40
1
 50
101.73308
 51
180
  0
LINE
  8
_0-0_LAYER001
  6
CONTINUOUS
 62
    4
 10
978.25170000000003
 20
1045.3103000000001
 11
972.25170000000003
 21
1044.0641000000001
  0
LINE
  8
_0-0_LAYER001
  6
CONTINUOUS
 62
    4
 10
979.4550999999999
 20
1044.3312000000001
 11
979.4550999999999
 21
1025.7514000000001
  0
ARC
  8
_0-0_LAYER001
  6
CONTINUOUS
 62
    4
 10
978.4550999999999
 20
1044.3312000000001
 40
1
 50
0
 51
101.73308
  0
LINE
  8
_0-0_LAYER001
  6
DASHED1
 62
    2
 10
1043.6722
 20
1014.1180999999999
 11
1059.6722
 21
1014.1180999999999
  0
LINE
  8
_0-0_LAYER001
  6
DASHED1
 62
    2
 10
1059.6722
 20
1014.1180999999999
 11
1059.6722
 21
1011.1180999999999
  0
LINE
  8
_0-0_LAYER001
  6
DASHED1
 62
    2
 10
1043.6722
 20
1014.1180999999999
 11
1043.6722
 21
1011.1180999999999
  0
LINE
  8
_0-0_LAYER001
  6
DASHED1
 62
    2
 10
1043.6722
 20
1011.1180999999999
 11
1059.6722
 21
1011.1180999999999
  0
LINE
  8
_0-0_LAYER001
  6
DASHED1
 62
    2
 10
1054.6722
 20
956.22199999999998
 11
1051.6220000000001
 21
941.71309999999994
  0
LINE
  8
_0-0_LAYER001
  6
DASHED1
 62
    2
 10
1054.6722
 20
1011.1180999999999
 11
1054.6722
 21
956.22199999999998
  0
LINE
  8
_0-0_LAYER001
  6
DASHED1
 62
    2
 10
1051.6220000000001
 20
941.71309999999994
 11
1048.6722
 21
955.9706000000001
  0
LINE
  8
_0-0_LAYER001
  6
DASHED1
 62
    2
 10
1048.6722
 20
1011.1180999999999
 11
1048.6722
 21
955.9706000000001
  0
LINE
  8
_0-0_LAYER001
  6
CONTINUOUS
 62
    2
 10
1853.8454000000002
 20
1090.5065
 11
1847.2917000000002
 21
1081.5618999999999
  0
LINE
  8
_0-0_LAYER001
  6
CONTINUOUS
 62
    2
 10
1856.3764000000001
 20
1092.9655
 11
1871.3764000000001
 21
1092.9655
  0
LINE
  8
_0-4_LAYER006
  6
CONTINUOUS
 62
    2
 10
1865.0473000000002
 20
1135.5862
 11
1859.7440000000001
 21
1130.2828999999999
  0
LINE
  8
_0-4_LAYER006
  6
CONTINUOUS
 62
    2
 10
1859.7440000000001
 20
1130.2828999999999
 11
1861.6851000000001
 21
1137.5273999999999
  0
LINE
  8
_0-4_LAYER006
  6
CONTINUOUS
 62
    2
 10
1859.7440000000001
 20
1130.2828999999999
 11
1898.0418
 21
1196.6167
  0
LINE
  8
_0-4_LAYER006
  6
CONTINUOUS
 62
    2
 10
1898.0418
 20
1196.6167
 11
1979.0418
 21
1196.6167
  0
LINE
  8
_0-0_LAYER001
  6
CONTINUOUS
 62
    2
 10
1815.723
 20
1153.2279000000001
 11
1817.6642000000002
 21
1145.9834000000001
  0
LINE
  8
_0-0_LAYER001
  6
CONTINUOUS
 62
    2
 10
1817.6642000000002
 20
1145.9834000000001
 11
1812.3609000000001
 21
1151.2867000000001
  0
LINE
  8
_0-0_LAYER001
  6
CONTINUOUS
 62
    2
 10
1817.6642000000002
 20
1145.9834000000001
 11
1716.5551999999998
 21
1321.1093000000001
  0
LINE
  8
_0-0_LAYER001
  6
CONTINUOUS
 62
    2
 10
1716.5551999999998
 20
1321.1093000000001
 11
1569.5551999999998
 21
1321.1093000000001
  0
LINE
  8
_0-0_LAYER001
  6
CONTINUOUS
 62
    2
 10
1775.8427000000001
 20
1157.4363000000001
 11
1777.7838000000002
 21
1150.1918000000001
  0
LINE
  8
_0-0_LAYER001
  6
CONTINUOUS
 62
    2
 10
1777.7838000000002
 20
1150.1918000000001
 11
1772.4805000000001
 21
1155.4951000000001
  0
LINE
  8
_0-0_LAYER001
  6
CONTINUOUS
 62
    2
 10
1777.7838000000002
 20
1150.1918000000001
 11
1697.6387
 21
1289.0072
  0
LINE
  8
_0-0_LAYER001
  6
CONTINUOUS
 62
    2
 10
1697.6387
 20
1289.0072
 11
1463.6387
 21
1289.0072
  0
LINE
  8
_0-0_LAYER001
  6
CONTINUOUS
 62
    2
 10
1785.7627000000002
 20
1086.8629000000001
 11
1787.7037999999998
 21
1079.6184000000001
  0
LINE
  8
_0-0_LAYER001
  6
CONTINUOUS
 62
    2
 10
1787.7037999999998
 20
1079.6184000000001
 11
1782.4005000000002
 21
1084.9217000000001
  0
LINE
  8
_0-0_LAYER001
  6
CONTINUOUS
 62
    2
 10
1787.7037999999998
 20
1079.6184000000001
 11
1707.3980000000001
 21
1218.7121
  0
LINE
  8
_0-0_LAYER001
  6
CONTINUOUS
 62
    2
 10
1707.3980000000001
 20
1218.7121
 11
1628.6037999999999
 21
1218.7121
  0
LINE
  8
_0-0_LAYER001
  6
CONTINUOUS
 62
    2
 10
1744.5785999999998
 20
1081.8924
 11
1746.5196999999998
 21
1074.6479999999999
  0
LINE
  8
_0-0_LAYER001
  6
CONTINUOUS
 62
    2
 10
1746.5196999999998
 20
1074.6479999999999
 11
1741.2163999999998
 21
1079.9512999999999
  0
LINE
  8
_0-0_LAYER001
  6
CONTINUOUS
 62
    2
 10
1746.5196999999998
 20
1074.6479999999999
 11
1682.0801999999999
 21
1186.2606000000001
  0
LINE
  8
_0-0_LAYER001
  6
CONTINUOUS
 62
    2
 10
1682.0801999999999
 20
1186.2606000000001
 11
1568.0801999999999
 21
1186.2606000000001
  0
LINE
  8
_0-0_LAYER001
  6
CONTINUOUS
 62
    2
 10
2103.5261
 20
1167.5585000000001
 11
2051.0261
 21
1167.5585000000001
  0
CIRCLE
  8
_0-0_LAYER001
  6
CONTINUOUS
 62
    2
 10
2101.0261
 20
1167.5585000000001
 40
1.6999999999999997
  0
LINE
  8
_0-0_LAYER001
  6
CONTINUOUS
 62
    2
 10
2101.0261
 20
1167.5585000000001
 11
2101.0261
 21
1317.5585000000001
  0
CIRCLE
  8
_0-0_LAYER001
  6
CONTINUOUS
 62
    2
 10
2101.0261
 20
1317.5585000000001
 40
1.6999999999999997
  0
LINE
  8
_0-0_LAYER001
  6
CONTINUOUS
 62
    2
 10
2103.5261
 20
1317.5585000000001
 11
2051.0261
 21
1317.5585000000001
  0
LINE
  8
_0-2_LAYER004
  6
CONTINUOUS
 62
    2
 10
1876.1824000000001
 20
1297.8687
 11
1876.1824000000001
 21
881.14670000000001
  0
LINE
  8
_0-2_LAYER004
  6
CONTINUOUS
 62
    2
 10
1159.0614
 20
983.04870000000005
 11
859.92640000000006
 21
983.04870000000005
  0
LINE
  8
_0-2_LAYER004
  6
CONTINUOUS
 62
    2
 10
1856.3764000000001
 20
963.15869999999995
 11
1856.3764000000001
 21
1092.9655
  0
LINE
  8
_0-2_LAYER004
  6
CONTINUOUS
 62
    2
 10
1871.3764000000001
 20
1092.9655
 11
1871.3764000000001
 21
963.15869999999995
  0
LINE
  8
_0-2_LAYER004
  6
CONTINUOUS
 62
    2
 10
1146.3974000000001
 20
983.04870000000005
 11
1728.9964
 21
983.04870000000005
  0
LINE
  8
_0-2_LAYER004
  6
CONTINUOUS
 62
    2
 10
847.26240000000007
 20
968.04870000000005
 11
1728.9964
 21
968.04870000000005
  0
LINE
  8
_0-2_LAYER004
  6
CONTINUOUS
 62
    2
 10
1728.9964
 20
983.04870000000005
 11
1728.9964
 21
968.04870000000005
  0
LINE
  8
_0-2_LAYER004
  6
CONTINUOUS
 62
    2
 10
1692.2114000000001
 20
965.04870000000005
 11
1692.2114000000001
 21
968.04870000000005
  0
LINE
  8
_0-2_LAYER004
  6
CONTINUOUS
 62
    2
 10
1692.2114000000001
 20
968.04870000000005
 11
1716.2114000000001
 21
968.04870000000005
  0
LINE
  8
_0-2_LAYER004
  6
CONTINUOUS
 62
    2
 10
1716.2114000000001
 20
968.04870000000005
 11
1716.2114000000001
 21
965.04870000000005
  0
LINE
  8
_0-2_LAYER004
  6
CONTINUOUS
 62
    2
 10
1716.2114000000001
 20
965.04870000000005
 11
1692.2114000000001
 21
965.04870000000005
  0
LINE
  8
_0-2_LAYER004
  6
CONTINUOUS
 62
    2
 10
1692.2114000000001
 20
965.04870000000005
 11
1716.2114000000001
 21
968.04870000000005
  0
LINE
  8
_0-2_LAYER004
  6
CONTINUOUS
 62
    2
 10
847.26240000000007
 20
965.04870000000005
 11
1716.2114000000001
 21
965.04870000000005
  0
LINE
  8
_0-2_LAYER004
  6
CONTINUOUS
 62
    2
 10
1734.2714000000001
 20
963.78469999999993
 11
1734.2714000000001
 21
983.04870000000005
  0
LINE
  8
_0-2_LAYER004
  6
CONTINUOUS
 62
    2
 10
1734.2714000000001
 20
983.04870000000005
 11
1754.8154
 21
983.04870000000005
  0
LINE
  8
_0-2_LAYER004
  6
CONTINUOUS
 62
    2
 10
1853.8454000000002
 20
963.78469999999993
 11
1853.8454000000002
 21
1090.5065
  0
LINE
  8
_0-2_LAYER004
  6
CONTINUOUS
 62
    2
 10
1876.1824000000001
 20
946.91270000000009
 11
847.26240000000007
 21
946.91270000000009
  0
LINE
  8
_0-2_LAYER004
  6
CONTINUOUS
 62
    2
 10
1876.1824000000001
 20
958.91270000000009
 11
847.26240000000007
 21
958.91270000000009
  0
LINE
  8
_0-2_LAYER004
  6
CONTINUOUS
 62
    2
 10
1734.2714000000001
 20
963.78469999999993
 11
1853.8454000000002
 21
963.78469999999993
  0
LINE
  8
_0-2_LAYER004
  6
DASHED3
 62
    2
 10
1873.8593999999998
 20
961.40969999999993
 11
847.26240000000007
 21
961.40969999999993
  0
LINE
  8
_0-2_LAYER004
  6
DASHED3
 62
    2
 10
1873.8593999999998
 20
961.40969999999993
 11
1873.8593999999998
 21
1258.9127000000001
  0
LINE
  8
_0-2_LAYER004
  6
CONTINUOUS
 62
    2
 10
1871.3764000000001
 20
963.15869999999995
 11
1856.3764000000001
 21
963.15869999999995
  0
LINE
  8
_0-2_LAYER004
  6
CONTINUOUS
 62
    3
 10
1876.1824000000001
 20
881.14670000000001
 11
1876.1824000000001
 21
727.05670000000009
  0
LINE
  8
_0-2_LAYER004
  6
CONTINUOUS
 62
    2
 10
1816.1824000000001
 20
886.91270000000009
 11
1816.1824000000001
 21
946.91270000000009
  0
LINE
  8
_0-2_LAYER004
  6
CONTINUOUS
 62
    2
 10
1816.1824000000001
 20
946.91270000000009
 11
1876.1824000000001
 21
946.91270000000009
  0
LINE
  8
_0-2_LAYER004
  6
CONTINUOUS
 62
    2
 10
1876.1824000000001
 20
946.91270000000009
 11
1876.1824000000001
 21
886.91270000000009
  0
LINE
  8
_0-2_LAYER004
  6
CONTINUOUS
 62
    2
 10
1876.1824000000001
 20
886.91270000000009
 11
1816.1824000000001
 21
886.91270000000009
  0
LINE
  8
_0-2_LAYER004
  6
CONTINUOUS
 62
    2
 10
1876.1824000000001
 20
946.91270000000009
 11
1816.1824000000001
 21
886.91270000000009
  0
LINE
  8
_0-2_LAYER004
  6
CONTINUOUS
 62
    2
 10
1778.1614
 20
1133.0695000000001
 11
1775.4584
 21
1147.8235
  0
LINE
  8
_0-2_LAYER004
  6
CONTINUOUS
 62
    2
 10
1775.4584
 20
1147.8235
 11
1863.9863999999998
 21
1164.0395000000001
  0
LINE
  8
_0-2_LAYER004
  6
CONTINUOUS
 62
    2
 10
1863.9863999999998
 20
1164.0395000000001
 11
1866.6884
 21
1149.2845
  0
LINE
  8
_0-2_LAYER004
  6
CONTINUOUS
 62
    2
 10
1866.6884
 20
1149.2845
 11
1778.1614
 21
1133.0695000000001
  0
LINE
  8
_0-2_LAYER004
  6
CONTINUOUS
 62
    2
 10
1775.4584
 20
1147.8235
 11
1866.6884
 21
1149.2845
  0
LINE
  8
_0-2_LAYER004
  6
CONTINUOUS
 62
    2
 10
1766.1824000000001
 20
1148.0668000000001
 11
1765.6343999999999
 21
1129.9878000000001
  0
LINE
  8
_0-2_LAYER004
  6
CONTINUOUS
 62
    2
 10
1841.1824000000001
 20
1167.0355
 11
1853.1824000000001
 21
1167.0355
  0
LINE
  8
_0-2_LAYER004
  6
CONTINUOUS
 62
    2
 10
1853.1824000000001
 20
1174.8444999999999
 11
1853.1824000000001
 21
1214.8444999999999
  0
LINE
  8
_0-2_LAYER004
  6
CONTINUOUS
 62
    2
 10
1853.1824000000001
 20
1214.8444999999999
 11
1871.1824000000001
 21
1214.8444999999999
  0
LINE
  8
_0-2_LAYER004
  6
CONTINUOUS
 62
    2
 10
1871.1824000000001
 20
1214.8444999999999
 11
1871.1824000000001
 21
1174.8444999999999
  0
LINE
  8
_0-2_LAYER004
  6
CONTINUOUS
 62
    2
 10
1871.1824000000001
 20
1174.8444999999999
 11
1853.1824000000001
 21
1174.8444999999999
  0
LINE
  8
_0-2_LAYER004
  6
CONTINUOUS
 62
    2
 10
1871.1824000000001
 20
1214.8444999999999
 11
1853.1824000000001
 21
1174.8444999999999
  0
LINE
  8
_0-2_LAYER004
  6
CONTINUOUS
 62
    2
 10
1766.1824000000001
 20
1148.0668000000001
 11
1872.5974000000001
 21
1167.5585000000001
  0
LINE
  8
_0-2_LAYER004
  6
CONTINUOUS
 62
    2
 10
1872.5974000000001
 20
1142.5585000000001
 11
1872.5974000000001
 21
1317.5585000000001
  0
LINE
  8
_0-5_LAYER007
  6
CONTINUOUS
 62
    3
 10
1876.1824000000001
 20
1375.7407000000001
 11
1876.1824000000001
 21
864.41370000000006
  0
LINE
  8
_0-2_LAYER004
  6
CONTINUOUS
 62
    3
 10
1876.1824000000001
 20
1297.8687
 11
1876.1824000000001
 21
1375.7407000000001
  0
LINE
  8
_0-2_LAYER004
  6
CONTINUOUS
 62
    2
 10
1853.1824000000001
 20
1167.0355
 11
1853.1824000000001
 21
1375.7407000000001
  0
LINE
  8
_0-2_LAYER004
  6
CONTINUOUS
 62
    2
 10
1841.1824000000001
 20
1167.0355
 11
1841.1824000000001
 21
1375.7407000000001
  0
LINE
  8
_0-2_LAYER004
  6
CONTINUOUS
 62
    2
 10
1513.1824000000001
 20
886.91270000000009
 11
1513.1824000000001
 21
946.91270000000009
  0
LINE
  8
_0-2_LAYER004
  6
CONTINUOUS
 62
    2
 10
1513.1824000000001
 20
946.91270000000009
 11
1573.1824000000001
 21
946.91270000000009
  0
LINE
  8
_0-2_LAYER004
  6
CONTINUOUS
 62
    2
 10
1573.1824000000001
 20
946.91270000000009
 11
1573.1824000000001
 21
886.91270000000009
  0
LINE
  8
_0-2_LAYER004
  6
CONTINUOUS
 62
    2
 10
1573.1824000000001
 20
886.91270000000009
 11
1513.1824000000001
 21
886.91270000000009
  0
LINE
  8
_0-2_LAYER004
  6
CONTINUOUS
 62
    2
 10
1573.1824000000001
 20
946.91270000000009
 11
1513.1824000000001
 21
886.91270000000009
  0
LINE
  8
_0-2_LAYER004
  6
CONTINUOUS
 62
    2
 10
1210.1823999999999
 20
886.91270000000009
 11
1210.1823999999999
 21
946.91270000000009
  0
LINE
  8
_0-2_LAYER004
  6
CONTINUOUS
 62
    2
 10
1210.1823999999999
 20
946.91270000000009
 11
1270.1823999999999
 21
946.91270000000009
  0
LINE
  8
_0-2_LAYER004
  6
CONTINUOUS
 62
    2
 10
1270.1823999999999
 20
946.91270000000009
 11
1270.1823999999999
 21
886.91270000000009
  0
LINE
  8
_0-2_LAYER004
  6
CONTINUOUS
 62
    2
 10
1270.1823999999999
 20
886.91270000000009
 11
1210.1823999999999
 21
886.91270000000009
  0
LINE
  8
_0-2_LAYER004
  6
CONTINUOUS
 62
    2
 10
1270.1823999999999
 20
946.91270000000009
 11
1210.1823999999999
 21
886.91270000000009
  0
LINE
  8
_0-2_LAYER004
  6
CONTINUOUS
 62
    2
 10
907.18239999999992
 20
886.91270000000009
 11
907.18239999999992
 21
946.91270000000009
  0
LINE
  8
_0-2_LAYER004
  6
CONTINUOUS
 62
    2
 10
907.18239999999992
 20
946.91270000000009
 11
967.18239999999992
 21
946.91270000000009
  0
LINE
  8
_0-2_LAYER004
  6
CONTINUOUS
 62
    2
 10
967.18239999999992
 20
946.91270000000009
 11
967.18239999999992
 21
886.91270000000009
  0
LINE
  8
_0-2_LAYER004
  6
CONTINUOUS
 62
    2
 10
967.18239999999992
 20
886.91270000000009
 11
907.18239999999992
 21
886.91270000000009
  0
LINE
  8
_0-2_LAYER004
  6
CONTINUOUS
 62
    2
 10
967.18239999999992
 20
946.91270000000009
 11
907.18239999999992
 21
886.91270000000009
  0
LINE
  8
_0-2_LAYER004
  6
CONTINUOUS
 62
    2
 10
1530.3063999999999
 20
965.04870000000005
 11
1530.3063999999999
 21
968.04870000000005
  0
LINE
  8
_0-2_LAYER004
  6
CONTINUOUS
 62
    2
 10
1530.3063999999999
 20
968.04870000000005
 11
1554.3054000000002
 21
968.04870000000005
  0
LINE
  8
_0-2_LAYER004
  6
CONTINUOUS
 62
    2
 10
1554.3054000000002
 20
968.04870000000005
 11
1554.3054000000002
 21
965.04870000000005
  0
LINE
  8
_0-2_LAYER004
  6
CONTINUOUS
 62
    2
 10
1554.3054000000002
 20
965.04870000000005
 11
1530.3063999999999
 21
965.04870000000005
  0
LINE
  8
_0-2_LAYER004
  6
CONTINUOUS
 62
    2
 10
1530.3063999999999
 20
965.04870000000005
 11
1554.3054000000002
 21
968.04870000000005
  0
LINE
  8
_0-2_LAYER004
  6
CONTINUOUS
 62
    2
 10
1222.1053999999999
 20
965.04870000000005
 11
1222.1053999999999
 21
968.04870000000005
  0
LINE
  8
_0-2_LAYER004
  6
CONTINUOUS
 62
    2
 10
1222.1053999999999
 20
968.04870000000005
 11
1246.1053999999999
 21
968.04870000000005
  0
LINE
  8
_0-2_LAYER004
  6
CONTINUOUS
 62
    2
 10
1246.1053999999999
 20
968.04870000000005
 11
1246.1053999999999
 21
965.04870000000005
  0
LINE
  8
_0-2_LAYER004
  6
CONTINUOUS
 62
    2
 10
1246.1053999999999
 20
965.04870000000005
 11
1222.1053999999999
 21
965.04870000000005
  0
LINE
  8
_0-2_LAYER004
  6
CONTINUOUS
 62
    2
 10
1222.1053999999999
 20
965.04870000000005
 11
1246.1053999999999
 21
968.04870000000005
  0
LINE
  8
_0-2_LAYER004
  6
CONTINUOUS
 62
    2
 10
916.53939999999989
 20
965.04870000000005
 11
916.53939999999989
 21
968.04870000000005
  0
LINE
  8
_0-2_LAYER004
  6
CONTINUOUS
 62
    2
 10
916.53939999999989
 20
968.04870000000005
 11
940.53939999999989
 21
968.04870000000005
  0
LINE
  8
_0-2_LAYER004
  6
CONTINUOUS
 62
    2
 10
940.53939999999989
 20
968.04870000000005
 11
940.53939999999989
 21
965.04870000000005
  0
LINE
  8
_0-2_LAYER004
  6
CONTINUOUS
 62
    2
 10
940.53939999999989
 20
965.04870000000005
 11
916.53939999999989
 21
965.04870000000005
  0
LINE
  8
_0-2_LAYER004
  6
CONTINUOUS
 62
    2
 10
916.53939999999989
 20
965.04870000000005
 11
940.53939999999989
 21
968.04870000000005
  0
CIRCLE
  8
_0-3_LAYER005
  6
CONTINUOUS
 62
    2
 10
1807.6904
 20
1062.0954999999999
 40
1.1619999999999999
  0
CIRCLE
  8
_0-3_LAYER005
  6
CONTINUOUS
 62
    2
 10
1804.4034000000001
 20
1067.2946999999999
 40
1.1619999999999999
  0
CIRCLE
  8
_0-3_LAYER005
  6
CONTINUOUS
 62
    2
 10
1821.0709999999999
 20
1085.481
 40
1.1619999999999999
  0
CIRCLE
  8
_0-3_LAYER005
  6
CONTINUOUS
 62
    2
 10
1794.5423999999998
 20
1072.7784999999999
 40
1.1619999999999999
  0
CIRCLE
  8
_0-3_LAYER005
  6
CONTINUOUS
 62
    2
 10
1813.4423999999999
 20
1076.8875
 40
1.1619999999999999
  0
CIRCLE
  8
_0-3_LAYER005
  6
CONTINUOUS
 62
    2
 10
1831.9573999999998
 20
1052.8179
 40
1.1619999999999999
  0
CIRCLE
  8
_0-3_LAYER005
  6
CONTINUOUS
 62
    2
 10
1802.8092999999999
 20
1081.3082999999999
 40
1.1619999999999999
  0
CIRCLE
  8
_0-3_LAYER005
  6
CONTINUOUS
 62
    2
 10
1818.3733999999999
 20
1056.6116999999999
 40
1.1619999999999999
  0
CIRCLE
  8
_0-3_LAYER005
  6
CONTINUOUS
 62
    2
 10
1821.6604000000002
 20
1064.0077000000001
 40
1.1619999999999999
  0
CIRCLE
  8
_0-3_LAYER005
  6
CONTINUOUS
 62
    2
 10
1830.6994
 20
1068.9386999999999
 40
1.1619999999999999
  0
CIRCLE
  8
_0-3_LAYER005
  6
CONTINUOUS
 62
    2
 10
1834.2559000000001
 20
1079.5630000000001
 40
1.1619999999999999
  0
CIRCLE
  8
_0-3_LAYER005
  6
CONTINUOUS
 62
    2
 10
1822.4823999999999
 20
1061.2745
 40
1.1619999999999999
  0
CIRCLE
  8
_0-3_LAYER005
  6
CONTINUOUS
 62
    2
 10
1833.9863999999998
 20
1069.4915000000001
 40
1.1619999999999999
  0
CIRCLE
  8
_0-3_LAYER005
  6
CONTINUOUS
 62
    2
 10
1832.3434000000002
 20
1071.9575
 40
1.1619999999999999
  0
CIRCLE
  8
_0-3_LAYER005
  6
CONTINUOUS
 62
    2
 10
1839.7393999999999
 20
1076.0654999999999
 40
1.1619999999999999
  0
CIRCLE
  8
_0-3_LAYER005
  6
CONTINUOUS
 62
    2
 10
1842.2044000000001
 20
1084.2835
 40
1.1619999999999999
  0
CIRCLE
  8
_0-3_LAYER005
  6
CONTINUOUS
 62
    2
 10
1807.8604999999998
 20
1116.8498
 40
1.1619999999999999
  0
CIRCLE
  8
_0-3_LAYER005
  6
CONTINUOUS
 62
    2
 10
1798.0210000000002
 20
1113.7949000000001
 40
1.1619999999999999
  0
CIRCLE
  8
_0-3_LAYER005
  6
CONTINUOUS
 62
    2
 10
1800.5457999999999
 20
1110.1803
 40
1.1619999999999999
  0
CIRCLE
  8
_0-3_LAYER005
  6
CONTINUOUS
 62
    2
 10
1789.6113999999998
 20
1109.7584999999999
 40
1.1619999999999999
  0
CIRCLE
  8
_0-3_LAYER005
  6
CONTINUOUS
 62
    2
 10
1794.6073000000001
 20
1108.6167
 40
1.1619999999999999
  0
CIRCLE
  8
_0-3_LAYER005
  6
CONTINUOUS
 62
    2
 10
1823.4807000000001
 20
1117.4094
 40
1.1619999999999999
  0
CIRCLE
  8
_0-3_LAYER005
  6
CONTINUOUS
 62
    2
 10
1807.6904
 20
1111.4014999999999
 40
1.1619999999999999
  0
CIRCLE
  8
_0-3_LAYER005
  6
CONTINUOUS
 62
    2
 10
1814.2644
 20
1110.5805
 40
1.1619999999999999
  0
CIRCLE
  8
_0-3_LAYER005
  6
CONTINUOUS
 62
    2
 10
1819.0628999999999
 20
1115.2004999999999
 40
1.1619999999999999
  0
CIRCLE
  8
_0-3_LAYER005
  6
CONTINUOUS
 62
    2
 10
1829.5477000000001
 20
1112.2311999999999
 40
1.1619999999999999
  0
CIRCLE
  8
_0-3_LAYER005
  6
CONTINUOUS
 62
    2
 10
1834.8083999999999
 20
1113.0454999999999
 40
1.1619999999999999
  0
CIRCLE
  8
_0-3_LAYER005
  6
CONTINUOUS
 62
    2
 10
1836.4524000000001
 20
1107.2935
 40
1.1619999999999999
  0
CIRCLE
  8
_0-3_LAYER005
  6
CONTINUOUS
 62
    2
 10
1834.8083999999999
 20
1100.7184999999999
 40
1.1619999999999999
  0
CIRCLE
  8
_0-3_LAYER005
  6
CONTINUOUS
 62
    2
 10
1816.7294000000002
 20
1068.6695
 40
1.1619999999999999
  0
CIRCLE
  8
_0-3_LAYER005
  6
CONTINUOUS
 62
    2
 10
1803.5814
 20
1068.6695
 40
1.1619999999999999
  0
CIRCLE
  8
_0-3_LAYER005
  6
CONTINUOUS
 62
    2
 10
1811.7993999999999
 20
1069.7607
 40
1.1619999999999999
  0
CIRCLE
  8
_0-3_LAYER005
  6
CONTINUOUS
 62
    2
 10
1828.6704
 20
1052.5486000000001
 40
1.1619999999999999
  0
CIRCLE
  8
_0-3_LAYER005
  6
CONTINUOUS
 62
    2
 10
1809.3334
 20
1079.3525
 40
1.1619999999999999
  0
CIRCLE
  8
_0-3_LAYER005
  6
CONTINUOUS
 62
    2
 10
1797.8294000000001
 20
1075.2445
 40
1.1619999999999999
  0
CIRCLE
  8
_0-3_LAYER005
  6
CONTINUOUS
 62
    2
 10
1788.1280000000002
 20
1079.2788
 40
1.1619999999999999
  0
CIRCLE
  8
_0-3_LAYER005
  6
CONTINUOUS
 62
    2
 10
1792.2370000000001
 20
1082.5658000000001
 40
1.1619999999999999
  0
CIRCLE
  8
_0-3_LAYER005
  6
CONTINUOUS
 62
    2
 10
1822.7139999999999
 20
1089.5899999999999
 40
1.1619999999999999
  0
CIRCLE
  8
_0-3_LAYER005
  6
CONTINUOUS
 62
    2
 10
1812.6203999999998
 20
1064.0077000000001
 40
1.1619999999999999
  0
CIRCLE
  8
_0-3_LAYER005
  6
CONTINUOUS
 62
    2
 10
1820.8384000000001
 20
1068.1167
 40
1.1619999999999999
  0
CIRCLE
  8
_0-3_LAYER005
  6
CONTINUOUS
 62
    2
 10
1829.8773999999999
 20
1073.8697
 40
1.1619999999999999
  0
CIRCLE
  8
_0-3_LAYER005
  6
CONTINUOUS
 62
    2
 10
1829.8773999999999
 20
1057.9875
 40
1.1619999999999999
  0
CIRCLE
  8
_0-3_LAYER005
  6
CONTINUOUS
 62
    2
 10
1812.4070999999999
 20
1084.021
 40
1.1619999999999999
  0
CIRCLE
  8
_0-3_LAYER005
  6
CONTINUOUS
 62
    2
 10
1829.8773999999999
 20
1069.4915000000001
 40
1.1619999999999999
  0
CIRCLE
  8
_0-3_LAYER005
  6
CONTINUOUS
 62
    2
 10
1828.2343999999998
 20
1075.2445
 40
1.1619999999999999
  0
CIRCLE
  8
_0-3_LAYER005
  6
CONTINUOUS
 62
    2
 10
1826.5904
 20
1076.8875
 40
1.1619999999999999
  0
CIRCLE
  8
_0-3_LAYER005
  6
CONTINUOUS
 62
    2
 10
1821.6604000000002
 20
1076.8875
 40
1.1619999999999999
  0
CIRCLE
  8
_0-3_LAYER005
  6
CONTINUOUS
 62
    2
 10
1815.0864000000001
 20
1068.6695
 40
1.1619999999999999
  0
CIRCLE
  8
_0-3_LAYER005
  6
CONTINUOUS
 62
    2
 10
1806.8683999999998
 20
1072.7784999999999
 40
1.1619999999999999
  0
CIRCLE
  8
_0-3_LAYER005
  6
CONTINUOUS
 62
    2
 10
1801.9373999999998
 20
1073.8697
 40
1.1619999999999999
  0
CIRCLE
  8
_0-3_LAYER005
  6
CONTINUOUS
 62
    2
 10
1827.6808999999998
 20
1083.672
 40
1.1619999999999999
  0
CIRCLE
  8
_0-3_LAYER005
  6
CONTINUOUS
 62
    2
 10
1818.6060000000002
 20
1089.5899999999999
 40
1.1619999999999999
  0
LINE
  8
_0-1_LAYER003
  6
CONTINUOUS
 62
    7
 10
1624.5978
 20
1419.9187999999999
 11
1797.0978
 21
1419.9187999999999
  0
LINE
  8
_0-1_LAYER003
  6
CONTINUOUS
 62
    7
 10
2051.0261
 20
1317.5585000000001
 11
2103.5261
 21
1317.5585000000001
  0
LINE
  8
_0-1_LAYER003
  6
CONTINUOUS
 62
    7
 10
1569.5551999999998
 20
1321.1093000000001
 11
1716.5551999999998
 21
1321.1093000000001
  0
LINE
  8
_0-1_LAYER003
  6
CONTINUOUS
 62
    7
 10
1730.9479000000001
 20
1341.4378999999999
 11
1771.4479000000001
 21
1341.4378999999999
  0
LINE
  8
_0-1_LAYER003
  6
CONTINUOUS
 62
    7
 10
1697.6387
 20
1289.0072
 11
1463.6387
 21
1289.0072
  0
LINE
  8
_0-1_LAYER003
  6
CONTINUOUS
 62
    7
 10
1628.6037999999999
 20
1218.7121
 11
1707.3980000000001
 21
1218.7121
  0
LINE
  8
_0-1_LAYER003
  6
CONTINUOUS
 62
    7
 10
1682.0801999999999
 20
1186.2606000000001
 11
1568.0801999999999
 21
1186.2606000000001
  0
LINE
  8
_0-1_LAYER003
  6
CONTINUOUS
 62
    7
 10
1347.5761
 20
1086.7361000000001
 11
1388.0761000000002
 21
1086.7361000000001
  0
LINE
  8
_0-1_LAYER003
  6
CONTINUOUS
 62
    7
 10
1007.8904
 20
752.52399999999989
 11
1212.7130999999999
 21
752.52399999999989
  0
LINE
  8
_0-1_LAYER003
  6
CONTINUOUS
 62
    7
 10
1195.4036000000001
 20
722.54299999999989
 11
964.4036000000001
 21
722.54299999999989
  0
LINE
  8
_0-1_LAYER003
  6
CONTINUOUS
 62
    7
 10
1006.3567
 20
692.44769999999994
 11
1178.028
 21
692.44769999999994
  0
LINE
  8
_0-1_LAYER003
  6
CONTINUOUS
 62
    7
 10
1160.7846
 20
662.58110000000011
 11
1099.5641000000001
 21
662.58110000000011
  0
LINE
  8
_0-1_LAYER003
  6
CONTINUOUS
 62
    7
 10
1926.7085999999999
 20
795.45810000000006
 11
2127.7085999999999
 21
795.45810000000006
  0
LINE
  8
_0-1_LAYER003
  6
CONTINUOUS
 62
    7
 10
1925.8258000000001
 20
894.62220000000002
 11
2089.3258000000001
 21
894.62220000000002
  0
LINE
  8
_0-1_LAYER003
  6
CONTINUOUS
 62
    7
 10
938.73180000000002
 20
849.1226999999999
 11
938.73180000000002
 21
797.42269999999985
  0
LINE
  8
_0-1_LAYER003
  6
CONTINUOUS
 62
    7
 10
938.73180000000002
 20
799.1226999999999
 11
1773.7318
 21
799.1226999999999
  0
LINE
  8
_0-1_LAYER003
  6
CONTINUOUS
 62
    7
 10
1773.7318
 20
796.6226999999999
 11
1773.7318
 21
847.62760000000003
  0
LINE
  8
_0-1_LAYER003
  6
CONTINUOUS
 62
    7
 10
1734.2714000000001
 20
897.62760000000003
 11
1734.2714000000001
 21
845.12760000000003
  0
LINE
  8
_0-1_LAYER003
  6
CONTINUOUS
 62
    7
 10
1735.9714000000004
 20
847.62760000000003
 11
1853.8454000000002
 21
847.62760000000003
  0
LINE
  8
_0-1_LAYER003
  6
CONTINUOUS
 62
    7
 10
1853.8454000000002
 20
847.62760000000003
 11
1853.8454000000002
 21
897.62760000000003
  0
LINE
  8
_0-1_LAYER003
  6
CONTINUOUS
 62
    7
 10
1876.1824000000001
 20
886.91270000000009
 11
1816.1824000000001
 21
886.91270000000009
  0
LINE
  8
_0-1_LAYER003
  6
CONTINUOUS
 62
    7
 10
1816.1824000000001
 20
886.91270000000009
 11
1816.1824000000001
 21
946.91270000000009
  0
LINE
  8
_0-1_LAYER003
  6
CONTINUOUS
 62
    7
 10
1816.1824000000001
 20
946.91270000000009
 11
1876.1824000000001
 21
946.91270000000009
  0
LINE
  8
_0-1_LAYER003
  6
CONTINUOUS
 62
    7
 10
1816.1824000000001
 20
946.91270000000009
 11
847.26240000000007
 21
946.91270000000009
  0
LINE
  8
_0-1_LAYER003
  6
CONTINUOUS
 62
    7
 10
847.26240000000007
 20
968.04870000000005
 11
1728.9964
 21
968.04870000000005
  0
LINE
  8
_0-1_LAYER003
  6
CONTINUOUS
 62
    7
 10
1728.9964
 20
968.04870000000005
 11
1728.9964
 21
983.04870000000005
  0
LINE
  8
_0-1_LAYER003
  6
CONTINUOUS
 62
    7
 10
1728.9964
 20
983.04870000000005
 11
844.95049999999992
 21
983.04870000000005
  0
LINE
  8
_0-1_LAYER003
  6
CONTINUOUS
 62
    7
 10
847.26240000000007
 20
965.04870000000005
 11
1716.2114000000001
 21
965.04870000000005
  0
LINE
  8
_0-1_LAYER003
  6
CONTINUOUS
 62
    7
 10
1734.2714000000001
 20
963.78469999999993
 11
1734.2714000000001
 21
983.04870000000005
  0
LINE
  8
_0-1_LAYER003
  6
CONTINUOUS
 62
    7
 10
1734.2714000000001
 20
983.04870000000005
 11
1754.8154
 21
983.04870000000005
  0
LINE
  8
_0-1_LAYER003
  6
CONTINUOUS
 62
    7
 10
1734.2714000000001
 20
963.78469999999993
 11
1853.8454000000002
 21
963.78469999999993
  0
LINE
  8
_0-1_LAYER003
  6
CONTINUOUS
 62
    7
 10
1853.8454000000002
 20
963.78469999999993
 11
1853.8454000000002
 21
1090.5065
  0
LINE
  8
_0-1_LAYER003
  6
CONTINUOUS
 62
    7
 10
1856.3764000000001
 20
1092.9655
 11
1871.3764000000001
 21
1092.9655
  0
LINE
  8
_0-1_LAYER003
  6
CONTINUOUS
 62
    7
 10
1871.3764000000001
 20
1092.9655
 11
1871.3764000000001
 21
963.15869999999995
  0
LINE
  8
_0-1_LAYER003
  6
CONTINUOUS
 62
    7
 10
1871.3764000000001
 20
963.15869999999995
 11
1856.3764000000001
 21
963.15869999999995
  0
LINE
  8
_0-1_LAYER003
  6
CONTINUOUS
 62
    7
 10
1856.3764000000001
 20
963.15869999999995
 11
1856.3764000000001
 21
1092.9655
  0
LINE
  8
_0-1_LAYER003
  6
CONTINUOUS
 62
    7
 10
1873.8593999999998
 20
961.40969999999993
 11
1873.8593999999998
 21
1258.9127000000001
  0
LINE
  8
_0-1_LAYER003
  6
CONTINUOUS
 62
    7
 10
1876.1824000000001
 20
1375.7407000000001
 11
1876.1824000000001
 21
727.05670000000009
  0
LINE
  8
_0-1_LAYER003
  6
CONTINUOUS
 62
    7
 10
1907.3890000000001
 20
1090.5065
 11
1957.3890000000001
 21
1090.5065
  0
LINE
  8
_0-1_LAYER003
  6
CONTINUOUS
 62
    7
 10
1957.3890000000001
 20
1090.5065
 11
1957.3890000000001
 21
965.48469999999998
  0
LINE
  8
_0-1_LAYER003
  6
CONTINUOUS
 62
    7
 10
1959.0890000000002
 20
963.78469999999993
 11
1907.3890000000001
 21
963.78469999999993
  0
LINE
  8
_0-1_LAYER003
  6
CONTINUOUS
 62
    7
 10
1907.3890000000001
 20
963.78469999999993
 11
1959.0890000000002
 21
963.78469999999993
  0
LINE
  8
_0-1_LAYER003
  6
CONTINUOUS
 62
    7
 10
1957.3890000000001
 20
963.78469999999993
 11
1957.3890000000001
 21
965.48469999999998
  0
LINE
  8
_0-1_LAYER003
  6
CONTINUOUS
 62
    7
 10
1957.3890000000001
 20
1090.5065
 11
1959.0890000000002
 21
1090.5065
  0
LINE
  8
_0-1_LAYER003
  6
CONTINUOUS
 62
    7
 10
1939.0778
 20
958.91270000000009
 11
2016.5778
 21
958.91270000000009
  0
LINE
  8
_0-1_LAYER003
  6
CONTINUOUS
 62
    7
 10
2014.0778
 20
960.61270000000013
 11
2014.0778
 21
1258.9137000000001
  0
LINE
  8
_0-1_LAYER003
  6
CONTINUOUS
 62
    7
 10
2015.7778000000003
 20
1258.9137000000001
 11
1939.0778
 21
1258.9137000000001
  0
LINE
  8
_0-1_LAYER003
  6
CONTINUOUS
 62
    7
 10
1898.0418
 20
1196.6167
 11
1979.0418
 21
1196.6167
  0
LINE
  8
_0-1_LAYER003
  6
CONTINUOUS
 62
    7
 10
2051.0261
 20
1167.5585000000001
 11
2102.7261000000003
 21
1167.5585000000001
  0
LINE
  8
_0-1_LAYER003
  6
CONTINUOUS
 62
    7
 10
2101.0261
 20
1167.5585000000001
 11
2101.0261
 21
1317.5585000000001
  0
LINE
  8
_0-1_LAYER003
  6
CONTINUOUS
 62
    7
 10
2014.0778
 20
960.61270000000013
 11
2014.0778
 21
958.91270000000009
  0
LINE
  8
_0-1_LAYER003
  6
CONTINUOUS
 62
    7
 10
1872.5974000000001
 20
1317.5585000000001
 11
1872.5974000000001
 21
1167.5585000000001
  0
LINE
  8
_0-1_LAYER003
  6
CONTINUOUS
 62
    7
 10
1853.1824000000001
 20
1214.8444999999999
 11
1871.1824000000001
 21
1214.8444999999999
  0
LINE
  8
_0-1_LAYER003
  6
CONTINUOUS
 62
    7
 10
1871.1824000000001
 20
1214.8444999999999
 11
1871.1824000000001
 21
1174.8444999999999
  0
LINE
  8
_0-1_LAYER003
  6
CONTINUOUS
 62
    7
 10
1871.1824000000001
 20
1174.8444999999999
 11
1853.1824000000001
 21
1174.8444999999999
  0
LINE
  8
_0-1_LAYER003
  6
CONTINUOUS
 62
    7
 10
1853.1824000000001
 20
1174.8444999999999
 11
1853.1824000000001
 21
1167.0355
  0
LINE
  8
_0-1_LAYER003
  6
CONTINUOUS
 62
    7
 10
1853.1824000000001
 20
1167.0355
 11
1841.1824000000001
 21
1167.0355
  0
LINE
  8
_0-1_LAYER003
  6
CONTINUOUS
 62
    7
 10
1841.1824000000001
 20
1167.0355
 11
1841.1824000000001
 21
1375.7407000000001
  0
LINE
  8
_0-1_LAYER003
  6
CONTINUOUS
 62
    7
 10
1853.1824000000001
 20
1375.7407000000001
 11
1853.1824000000001
 21
1167.0355
  0
LINE
  8
_0-1_LAYER003
  6
CONTINUOUS
 62
    7
 10
1876.1824000000001
 20
1117.9655
 11
1846.1824000000001
 21
1117.9655
  0
LINE
  8
_0-1_LAYER003
  6
CONTINUOUS
 62
    7
 10
1846.1824000000001
 20
1117.9655
 11
1846.1824000000001
 21
1145.4613999999999
  0
LINE
  8
_0-1_LAYER003
  6
CONTINUOUS
 62
    7
 10
1859.8526999999999
 20
1147.9655
 11
1876.1824000000001
 21
1147.9655
  0
LINE
  8
_0-1_LAYER003
  6
CONTINUOUS
 62
    7
 10
1836.6033000000002
 20
1142.2710999999999
 11
1836.6033000000002
 21
1123.9078
  0
LINE
  8
_0-1_LAYER003
  6
CONTINUOUS
 62
    7
 10
1836.6033000000002
 20
1123.9078
 11
1851.2386000000001
 21
1123.9078
  0
LINE
  8
_0-1_LAYER003
  6
CONTINUOUS
 62
    7
 10
1851.2386000000001
 20
1123.9078
 11
1851.2386000000001
 21
1142.2710999999999
  0
LINE
  8
_0-1_LAYER003
  6
CONTINUOUS
 62
    7
 10
1851.2386000000001
 20
1142.2710999999999
 11
1836.6033000000002
 21
1142.2710999999999
  0
LINE
  8
_0-1_LAYER003
  6
CONTINUOUS
 62
    7
 10
1827.6287000000002
 20
1110.7911999999999
 11
1827.6287000000002
 21
1092.1516999999999
  0
LINE
  8
_0-1_LAYER003
  6
CONTINUOUS
 62
    7
 10
1766.1824000000001
 20
1183.1102000000001
 11
1766.1824000000001
 21
1229.7997
  0
LINE
  8
_0-1_LAYER003
  6
CONTINUOUS
 62
    7
 10
1766.1824000000001
 20
1227.2997
 11
1841.1824000000001
 21
1227.2997
  0
LINE
  8
_0-1_LAYER003
  6
CONTINUOUS
 62
    7
 10
1876.1824000000001
 20
958.91270000000009
 11
847.26240000000007
 21
958.91270000000009
  0
LINE
  8
_0-1_LAYER003
  6
CONTINUOUS
 62
    7
 10
847.26240000000007
 20
961.40969999999993
 11
1873.8593999999998
 21
961.40969999999993
  0
LINE
  8
_0-1_LAYER003
  6
CONTINUOUS
 62
    7
 10
1573.1824000000001
 20
946.91270000000009
 11
1573.1824000000001
 21
886.91270000000009
  0
LINE
  8
_0-1_LAYER003
  6
CONTINUOUS
 62
    7
 10
1573.1824000000001
 20
886.91270000000009
 11
1513.1824000000001
 21
886.91270000000009
  0
LINE
  8
_0-1_LAYER003
  6
CONTINUOUS
 62
    7
 10
1513.1824000000001
 20
886.91270000000009
 11
1513.1824000000001
 21
946.91270000000009
  0
LINE
  8
_0-1_LAYER003
  6
CONTINUOUS
 62
    7
 10
1468.7318
 20
849.1226999999999
 11
1468.7318
 21
796.6226999999999
  0
LINE
  8
_0-1_LAYER003
  6
CONTINUOUS
 62
    7
 10
1203.7318
 20
849.1226999999999
 11
1203.7318
 21
796.6226999999999
  0
LINE
  8
_0-1_LAYER003
  6
CONTINUOUS
 62
    7
 10
1210.1823999999999
 20
946.91270000000009
 11
1210.1823999999999
 21
886.91270000000009
  0
LINE
  8
_0-1_LAYER003
  6
CONTINUOUS
 62
    7
 10
1210.1823999999999
 20
886.91270000000009
 11
1270.1823999999999
 21
886.91270000000009
  0
LINE
  8
_0-1_LAYER003
  6
CONTINUOUS
 62
    7
 10
1270.1823999999999
 20
886.91270000000009
 11
1270.1823999999999
 21
946.91270000000009
  0
LINE
  8
_0-1_LAYER003
  6
CONTINUOUS
 62
    7
 10
967.18239999999992
 20
946.91270000000009
 11
967.18239999999992
 21
886.91270000000009
  0
LINE
  8
_0-1_LAYER003
  6
CONTINUOUS
 62
    7
 10
967.18239999999992
 20
886.91270000000009
 11
907.18239999999992
 21
886.91270000000009
  0
LINE
  8
_0-1_LAYER003
  6
CONTINUOUS
 62
    7
 10
907.18239999999992
 20
886.91270000000009
 11
907.18239999999992
 21
946.91270000000009
  0
LINE
  8
_0-1_LAYER003
  6
CONTINUOUS
 62
    7
 10
916.53939999999989
 20
968.04870000000005
 11
916.53939999999989
 21
965.04870000000005
  0
LINE
  8
_0-1_LAYER003
  6
CONTINUOUS
 62
    7
 10
940.53939999999989
 20
968.04870000000005
 11
940.53939999999989
 21
965.04870000000005
  0
LINE
  8
_0-1_LAYER003
  6
CONTINUOUS
 62
    7
 10
1222.1053999999999
 20
968.04870000000005
 11
1222.1053999999999
 21
965.04870000000005
  0
LINE
  8
_0-1_LAYER003
  6
CONTINUOUS
 62
    7
 10
1246.1053999999999
 20
968.04870000000005
 11
1246.1053999999999
 21
965.04870000000005
  0
LINE
  8
_0-1_LAYER003
  6
CONTINUOUS
 62
    7
 10
1530.3063999999999
 20
968.04870000000005
 11
1530.3063999999999
 21
965.04870000000005
  0
LINE
  8
_0-1_LAYER003
  6
CONTINUOUS
 62
    7
 10
1554.3054000000002
 20
968.04870000000005
 11
1554.3054000000002
 21
965.04870000000005
  0
LINE
  8
_0-1_LAYER003
  6
CONTINUOUS
 62
    7
 10
1797.0978
 20
1419.9187999999999
 11
1847.2536
 21
1333.0464999999999
  0
LINE
  8
_0-1_LAYER003
  6
CONTINUOUS
 62
    7
 10
1847.2536
 20
1333.0464999999999
 11
1845.3123999999998
 21
1340.2909
  0
LINE
  8
_0-1_LAYER003
  6
CONTINUOUS
 62
    7
 10
1847.2536
 20
1333.0464999999999
 11
1841.9503
 21
1338.3498
  0
LINE
  8
_0-1_LAYER003
  6
CONTINUOUS
 62
    7
 10
1771.4479000000001
 20
1341.4378999999999
 11
1864.3346000000001
 21
1180.5535
  0
LINE
  8
_0-1_LAYER003
  6
CONTINUOUS
 62
    7
 10
1864.3346000000001
 20
1180.5535
 11
1862.3933999999999
 21
1187.798
  0
LINE
  8
_0-1_LAYER003
  6
CONTINUOUS
 62
    7
 10
1864.3346000000001
 20
1180.5535
 11
1859.0313000000001
 21
1185.8568
  0
LINE
  8
_0-1_LAYER003
  6
CONTINUOUS
 62
    7
 10
1853.1824000000001
 20
1174.8444999999999
 11
1871.1824000000001
 21
1214.8444999999999
  0
LINE
  8
_0-1_LAYER003
  6
CONTINUOUS
 62
    7
 10
1898.0418
 20
1196.6167
 11
1859.7440000000001
 21
1130.2828999999999
  0
LINE
  8
_0-1_LAYER003
  6
CONTINUOUS
 62
    7
 10
1859.7440000000001
 20
1130.2828999999999
 11
1865.0473000000002
 21
1135.5862
  0
LINE
  8
_0-1_LAYER003
  6
CONTINUOUS
 62
    7
 10
1859.7440000000001
 20
1130.2828999999999
 11
1861.6851000000001
 21
1137.5273999999999
  0
LINE
  8
_0-1_LAYER003
  6
CONTINUOUS
 62
    7
 10
1872.5974000000001
 20
1142.5585000000001
 11
1872.5974000000001
 21
1167.5585000000001
  0
LINE
  8
_0-1_LAYER003
  6
CONTINUOUS
 62
    7
 10
1872.5974000000001
 20
1167.5585000000001
 11
1766.1824000000001
 21
1148.0668000000001
  0
LINE
  8
_0-1_LAYER003
  6
CONTINUOUS
 62
    7
 10
1766.1824000000001
 20
1148.0668000000001
 11
1765.6343999999999
 21
1129.9878000000001
  0
LINE
  8
_0-1_LAYER003
  6
CONTINUOUS
 62
    7
 10
1765.6343999999999
 20
1129.9878000000001
 11
1770.7044000000001
 21
1136.0775000000001
  0
LINE
  8
_0-1_LAYER003
  6
CONTINUOUS
 62
    7
 10
1775.4584
 20
1147.8235
 11
1778.1614
 21
1133.0695000000001
  0
LINE
  8
_0-1_LAYER003
  6
CONTINUOUS
 62
    7
 10
1778.1614
 20
1133.0695000000001
 11
1866.6884
 21
1149.2845
  0
LINE
  8
_0-1_LAYER003
  6
CONTINUOUS
 62
    7
 10
1866.6884
 20
1149.2845
 11
1863.9863999999998
 21
1164.0395000000001
  0
LINE
  8
_0-1_LAYER003
  6
CONTINUOUS
 62
    7
 10
1863.9863999999998
 20
1164.0395000000001
 11
1775.4584
 21
1147.8235
  0
LINE
  8
_0-1_LAYER003
  6
CONTINUOUS
 62
    7
 10
1775.4584
 20
1147.8235
 11
1866.6884
 21
1149.2845
  0
LINE
  8
_0-1_LAYER003
  6
CONTINUOUS
 62
    7
 10
1876.1824000000001
 20
1147.9655
 11
1846.1824000000001
 21
1117.9655
  0
LINE
  8
_0-1_LAYER003
  6
CONTINUOUS
 62
    7
 10
1851.2386000000001
 20
1123.9078
 11
1853.7239
 21
1119.0753
  0
LINE
  8
_0-1_LAYER003
  6
CONTINUOUS
 62
    7
 10
1853.7239
 20
1119.0753
 11
1833.2964000000002
 21
1093.4942000000001
  0
LINE
  8
_0-1_LAYER003
  6
CONTINUOUS
 62
    7
 10
1833.2964000000002
 20
1093.4942000000001
 11
1827.6287000000002
 21
1092.1516999999999
  0
LINE
  8
_0-1_LAYER003
  6
CONTINUOUS
 62
    7
 10
1827.6287000000002
 20
1109.673344493212
 11
1850.6864
 21
1123.9078
  0
LINE
  8
_0-1_LAYER003
  6
CONTINUOUS
 62
    7
 10
1815.723
 20
1153.2279000000001
 11
1817.6642000000002
 21
1145.9834000000001
  0
LINE
  8
_0-1_LAYER003
  6
CONTINUOUS
 62
    7
 10
1817.6642000000002
 20
1145.9834000000001
 11
1812.3609000000001
 21
1151.2867000000001
  0
LINE
  8
_0-1_LAYER003
  6
CONTINUOUS
 62
    7
 10
1817.6642000000002
 20
1145.9834000000001
 11
1716.5551999999998
 21
1321.1093000000001
  0
LINE
  8
_0-1_LAYER003
  6
CONTINUOUS
 62
    7
 10
1697.6387
 20
1289.0072
 11
1777.7838000000002
 21
1150.1918000000001
  0
LINE
  8
_0-1_LAYER003
  6
CONTINUOUS
 62
    7
 10
1775.8427000000001
 20
1157.4363000000001
 11
1777.7838000000002
 21
1150.1918000000001
  0
LINE
  8
_0-1_LAYER003
  6
CONTINUOUS
 62
    7
 10
1777.7838000000002
 20
1150.1918000000001
 11
1772.4805000000001
 21
1155.4951000000001
  0
LINE
  8
_0-1_LAYER003
  6
CONTINUOUS
 62
    7
 10
1785.7627000000002
 20
1086.8629000000001
 11
1787.7037999999998
 21
1079.6184000000001
  0
LINE
  8
_0-1_LAYER003
  6
CONTINUOUS
 62
    7
 10
1787.7037999999998
 20
1079.6184000000001
 11
1782.4005000000002
 21
1084.9217000000001
  0
LINE
  8
_0-1_LAYER003
  6
CONTINUOUS
 62
    7
 10
1787.2651314714785
 20
1080.0570685285215
 11
1707.3980000000001
 21
1218.7121
  0
LINE
  8
_0-1_LAYER003
  6
CONTINUOUS
 62
    7
 10
1682.0801999999999
 20
1186.2606000000001
 11
1746.5196999999998
 21
1074.6479999999999
  0
LINE
  8
_0-1_LAYER003
  6
CONTINUOUS
 62
    7
 10
1746.5196999999998
 20
1074.6479999999999
 11
1744.5785999999998
 21
1081.8924
  0
LINE
  8
_0-1_LAYER003
  6
CONTINUOUS
 62
    7
 10
1746.5196999999998
 20
1074.6479999999999
 11
1741.2163999999998
 21
1079.9512999999999
  0
LINE
  8
_0-1_LAYER003
  6
CONTINUOUS
 62
    7
 10
1853.8454000000002
 20
1090.5065
 11
1847.2917000000002
 21
1081.5618999999999
  0
LINE
  8
_0-1_LAYER003
  6
CONTINUOUS
 62
    7
 10
1856.3764000000001
 20
1092.9655
 11
1871.3764000000001
 21
963.15869999999995
  0
LINE
  8
_0-1_LAYER003
  6
CONTINUOUS
 62
    7
 10
1864.9809
 20
1000.0087000000001
 11
1866.922
 21
992.76420000000007
  0
LINE
  8
_0-1_LAYER003
  6
CONTINUOUS
 62
    7
 10
1864.9809
 20
1000.0087000000001
 11
1870.2842000000001
 21
994.70540000000005
  0
LINE
  8
_0-1_LAYER003
  6
CONTINUOUS
 62
    7
 10
1864.9809
 20
1000.0087000000001
 11
1925.8258000000001
 21
894.62220000000002
  0
LINE
  8
_0-1_LAYER003
  6
CONTINUOUS
 62
    7
 10
1876.1824000000001
 20
946.91270000000009
 11
1816.1824000000001
 21
886.91270000000009
  0
LINE
  8
_0-1_LAYER003
  6
CONTINUOUS
 62
    7
 10
1828.9385000000002
 20
964.80079999999998
 11
1830.8796000000002
 21
957.55639999999994
  0
LINE
  8
_0-1_LAYER003
  6
CONTINUOUS
 62
    7
 10
1828.9385000000002
 20
964.80079999999998
 11
1834.2417999999998
 21
959.49749999999995
  0
LINE
  8
_0-1_LAYER003
  6
CONTINUOUS
 62
    7
 10
1828.9385000000002
 20
964.80079999999998
 11
1926.7085999999999
 21
795.45810000000006
  0
LINE
  8
_0-1_LAYER003
  6
CONTINUOUS
 62
    7
 10
1439.4879000000001
 20
997.6884
 11
1437.5466999999999
 21
1004.9328
  0
LINE
  8
_0-1_LAYER003
  6
CONTINUOUS
 62
    7
 10
1439.4879000000001
 20
997.6884
 11
1434.1846
 21
1002.9917
  0
LINE
  8
_0-1_LAYER003
  6
CONTINUOUS
 62
    7
 10
1439.4879000000001
 20
997.6884
 11
1388.0761000000002
 21
1086.7361000000001
  0
LINE
  8
_0-1_LAYER003
  6
CONTINUOUS
 62
    7
 10
1270.1823999999999
 20
946.91270000000009
 11
1210.1823999999999
 21
886.91270000000009
  0
LINE
  8
_0-1_LAYER003
  6
CONTINUOUS
 62
    7
 10
1342.0247999999997
 20
976.49839999999995
 11
1336.7215000000001
 21
971.19509999999991
  0
LINE
  8
_0-1_LAYER003
  6
CONTINUOUS
 62
    7
 10
1336.7215000000001
 20
971.19509999999991
 11
1342.0247999999997
 21
976.49839999999995
  0
LINE
  8
_0-1_LAYER003
  6
CONTINUOUS
 62
    7
 10
1342.0247999999997
 20
976.49839999999995
 11
1340.0835999999999
 21
969.25389999999993
  0
LINE
  8
_0-1_LAYER003
  6
CONTINUOUS
 62
    7
 10
1342.0247999999997
 20
976.49839999999995
 11
1160.7846
 21
662.58110000000011
  0
LINE
  8
_0-1_LAYER003
  6
CONTINUOUS
 62
    7
 10
967.18239999999992
 20
946.91270000000009
 11
907.18239999999992
 21
886.91270000000009
  0
LINE
  8
_0-1_LAYER003
  6
CONTINUOUS
 62
    7
 10
1573.1824000000001
 20
946.91270000000009
 11
1513.1824000000001
 21
886.91270000000009
  0
LINE
  8
_0-1_LAYER003
  6
CONTINUOUS
 62
    7
 10
1554.3054000000002
 20
968.04870000000005
 11
1530.3063999999999
 21
965.04870000000005
  0
LINE
  8
_0-1_LAYER003
  6
CONTINUOUS
 62
    7
 10
1246.1053999999999
 20
968.04870000000005
 11
1222.1053999999999
 21
965.04870000000005
  0
LINE
  8
_0-1_LAYER003
  6
CONTINUOUS
 62
    7
 10
940.53939999999989
 20
968.04870000000005
 11
916.53939999999989
 21
965.04870000000005
  0
TEXT
  8
_0-0_LAYER001
 62
    7
 10
1925.8258000000003
 20
897.12219999999991
 40
20
 41
1
 50
0
  1
下地材：１５ｘ１２５
  0
TEXT
  8
_0-0_LAYER001
 62
    7
 10
1730.9479000000006
 20
1343.9378999999999
 40
20
 41
1
 50
0
  1
胴　縁
  0
TEXT
  8
_0-0_LAYER001
 62
    7
 10
1096.2845999999993
 20
665.08110000000079
 40
20
 41
1
 50
0
  1
　垂木　
  0
TEXT
  8
_0-0_LAYER001
 62
    7
 10
1568.0801999999999
 20
1188.7606000000001
 40
20
 41
1
 50
0
  1
熨斗瓦２段積み
  0
TEXT
  8
_0-2_LAYER004
 62
    7
 10
2129.3462101399123
 20
1174.2798153289496
 40
20
 41
1
 50
90
  1
水切り立上がり寸法
  0
TEXT
  8
_0-0_LAYER001
 62
    7
 10
1332.8980306301694
 20
1091.2184979655549
 40
20
 41
1
 50
0
  1
　桟　瓦
  0
TEXT
  8
_0-0_LAYER001
 62
    7
 10
1644.6403185788065
 20
1219.5829694738168
 40
20
 41
1
 50
0
  1
葺　土　
  0
TEXT
  8
_0-1_LAYER003
 62
    7
 10
2039.7361594548875
 20
1034.5380819748934
 40
20
 41
1
 50
90
  1
下葺き材立上がり寸法
  0
TEXT
  8
_0-0_LAYER001
 62
    7
 10
1058.2956201278453
 20
812.38459425141082
 40
20
 41
1
 50
0
  1
265
  0
TEXT
  8
_0-0_LAYER001
 62
    7
 10
1325.6654247481813
 20
812.38459425141082
 40
20
 41
1
 50
0
  1
265
  0
TEXT
  8
_0-0_LAYER001
 62
    7
 10
1609.3173649062953
 20
813.24154875339889
 40
20
 41
1
 50
0
  1
305
  0
TEXT
  8
_0-0_LAYER001
 62
    7
 10
1779.8513108019595
 20
857.80318285678788
 40
20
 41
1
 50
0
  1
120
  0
TEXT
  8
_0-0_LAYER001
 62
    7
 10
1941.3908524493713
 20
1015.0331426962526
 40
20
 41
1
 50
90
  1
125
  0
TEXT
  8
_0-0_LAYER001
 62
    7
 10
2003.0605961668125
 20
1094.5526400826525
 40
20
 41
1
 50
90
  1
300
  0
TEXT
  8
_0-0_LAYER001
 62
    7
 10
1899.5295058852992
 20
1201.9160012836178
 40
20
 41
1
 50
0
  1
30×30
  0
TEXT
  8
_0-0_LAYER001
 62
    7
 10
2085.7840680117674
 20
1234.0062092296339
 40
20
 41
1
 50
90
  1
150
  0
TEXT
  8
_0-0_LAYER001
 62
    7
 10
1796.1334463397363
 20
1237.4340272375869
 40
20
 41
1
 50
0
  1
75
  0
TEXT
  8
_0-0_LAYER001
 62
    7
 10
1404.5820861477703
 20
1292.9340960499667
 40
20
 41
1
 50
0
  1
雨押水切カラー鋼板0.35ｍｍ以上
  0
TEXT
  8
_0-0_LAYER001
 62
    7
 10
1926.7085999999995
 20
797.95809999999983
 40
20
 41
1
 50
0
  1
捨谷カラー鋼板0.35ｍｍ以上
  0
TEXT
  8
_0-0_LAYER001
 62
    7
 10
949.51817918548386
 20
697.73991526778764
 40
20
 41
1
 50
0
  1
　野地板：杉ｔ＝１２　
  0
TEXT
  8
_0-0_LAYER001
 62
    7
 10
958.54427308416075
 20
724.8181969638182
 40
20
 41
1
 50
0
  1
　下葺材：ルーフィング
  0
TEXT
  8
_0-0_LAYER001
 62
    7
 10
976.59646088151464
 20
754.90517662607454
 40
20
 41
1
 50
0
  1
　瓦桟：１５ｘ３０以上　
  0
TEXT
  8
_0-0_LAYER001
 62
    7
 10
1548.2490744643858
 20
1325.053441225833
 40
20
 41
1
 50
0
  1
笠木：１５ｘ９０
  0
TEXT
  8
_0-0_LAYER001
 62
    7
 10
1608.4230337888985
 20
1425.8448230943918
 40
20
 41
1
 50
0
  1
外壁　防火サイディング
  0
ENDSEC
  0
EOF
