  0
SECTION
  2
HEADER
  9
$ACADVER
  1
AC1009
  9
$INSBASE
 10
0
 20
0
 30
0
  9
$EXTMIN
 10
0
 20
0
  9
$EXTMAX
 10
2970
 20
2100
  9
$LIMMIN
 10
0
 20
0
  9
$LIMMAX
 10
2970
 20
2100
  9
$LTSCALE
 40
10
  0
ENDSEC
  0
SECTION
  2
TABLES
  0
TABLE
  2
LTYPE
 70
     9
  0
LTYPE
  2
CONTINUOUS
 70
    64
  3
実線
 72
    65
 73
     0
 40
0.0
  0
LTYPE
  2
DASHED1
 70
    64
  3
--  --  --  --  --  --  --  --  
 72
    65
 73
     2
 40
2.5
 49
1.25
 49
-1.25
  0
LTYPE
  2
DASHED2
 70
    64
  3
----    ----    ----    ----    
 72
    65
 73
     2
 40
5.0
 49
2.5
 49
-2.5
  0
LTYPE
  2
DASHED3
 70
    64
  3
------  ------  ------  ------  
 72
    65
 73
     2
 40
5.0
 49
3.75
 49
-1.25
  0
LTYPE
  2
CENTER1
 70
    64
  3
----- - ----- - ----- - ----- - 
 72
    65
 73
     4
 40
10.0
 49
6.25
 49
-1.25
 49
1.25
 49
-1.25
  0
LTYPE
  2
CENTER2
 70
    64
  3
----------  --  ----------  --  
 72
    65
 73
     4
 40
20.0
 49
12.5
 49
-2.5
 49
2.5
 49
-2.5
  0
LTYPE
  2
PHANTOM1
 70
    64
  3
--- - - --- - - --- - - --- - - 
 72
    65
 73
     6
 40
10.0
 49
3.25
 49
-1.25
 49
1.25
 49
-1.25
 49
1.25
 49
-1.25
  0
LTYPE
  2
PHANTOM2
 70
    64
  3
--------  -  -  --------  -  -  
 72
    65
 73
     6
 40
20.0
 49
10.0
 49
-2.5
 49
1.25
 49
-2.5
 49
1.25
 49
-2.5
  0
LTYPE
  2
DOT
 70
    64
  3
-   -   -   -   -   -   -   -   
 72
    65
 73
     2
 40
2.5
 49
0.625
 49
-1.875
  0
LTYPE
  2
DUMMY
 70
    64
  3
ダミー
 72
    65
 73
     0
 40
0.0
  0
LTYPE
  2
RAND1
 70
    64
  3
ランダム線1
 72
    65
 73
     4
 40
10.0
 49
1.0
 49
-2.0
 49
3.0
 49
-4.0
  0
LTYPE
  2
RAND2
 70
    64
  3
ランダム線2
 72
    65
 73
     4
 40
14.0
 49
2.0
 49
-3.0
 49
4.0
 49
-5.0
  0
LTYPE
  2
RAND3
 70
    64
  3
ランダム線3
 72
    65
 73
     4
 40
18.0
 49
3.0
 49
-4.0
 49
5.0
 49
-6.0
  0
LTYPE
  2
RAND4
 70
    64
  3
ランダム線4
 72
    65
 73
     4
 40
22.0
 49
4.0
 49
-5.0
 49
6.0
 49
-7.0
  0
LTYPE
  2
RAND5
 70
    64
  3
ランダム線5
 72
    65
 73
     4
 40
26.0
 49
5.0
 49
-6.0
 49
7.0
 49
-8.0
  0
LTYPE
  2
LONG1
 70
    64
  3
----------  --  ----------  --  
 72
    65
 73
     4
 40
40.0
 49
32.5
 49
-2.5
 49
2.5
 49
-2.5
  0
LTYPE
  2
LONG2
 70
    64
  3
--------  -  -  --------  -  -  
 72
    65
 73
     6
 40
40.0
 49
30.0
 49
-2.5
 49
1.25
 49
-2.5
 49
1.25
 49
-2.5
  0
LTYPE
  2
LONG3
 70
    64
  3
+++++++++++++++..+++++++++++++++
 72
    65
 73
     2
 40
40.0
 49
37.5
 49
-2.5
  0
LTYPE
  2
LONG4
 70
    64
  3
+++++++++++++++..+++++++++++++++
 72
    65
 73
     2
 40
80.0
 49
75.0
 49
-5.0
  0
LTYPE
  2
LONG5
 70
    64
  3
----------  --  ----------  --  
 72
    65
 73
     4
 40
60.0
 49
37.5
 49
-7.5
 49
7.5
 49
-7.5
  0
LTYPE
  2
dashed
 70
   64
  3
-------   -------------   ------
 72
   65
 73
    2
 40
7.5
 49
6
 49
-1.5
  0
LTYPE
  2
dashed_spaced
 70
   64
  3
----        --------        ----
 72
   65
 73
    2
 40
12
 49
6
 49
-6
  0
LTYPE
  2
long_dashed_dotted
 70
   64
  3
------------- --- --------------
 72
   65
 73
    4
 40
15.25
 49
12
 49
-1.5
 49
0.25
 49
-1.5
  0
LTYPE
  2
long_dashed_double-dotted
 70
   64
  3
----------- --- --- ------------
 72
   65
 73
    6
 40
17
 49
12
 49
-1.5
 49
0.25
 49
-1.5
 49
0.25
 49
-1.5
  0
LTYPE
  2
long_dashed_triplicate-dotted
 70
   64
  3
--------- --- --- --- ----------
 72
   65
 73
    8
 40
18.75
 49
12
 49
-1.5
 49
0.25
 49
-1.5
 49
0.25
 49
-1.5
 49
0.25
 49
-1.5
  0
LTYPE
  2
dotted
 70
   64
  3
   -       -       -       -    
 72
   65
 73
    2
 40
1.75
 49
0.25
 49
-1.5
  0
LTYPE
  2
chain
 70
   64
  3
-------------- -- --------------
 72
   65
 73
    4
 40
18.5
 49
12
 49
-1.5
 49
3.5
 49
-1.5
  0
LTYPE
  2
chain_double_dash
 70
   64
  3
------------ -- -- -------------
 72
   65
 73
    6
 40
23.5
 49
12
 49
-1.5
 49
3.5
 49
-1.5
 49
3.5
 49
-1.5
  0
LTYPE
  2
dashed_dotted
 70
   64
  3
-----------     -     ----------
 72
   65
 73
    4
 40
9.25
 49
6
 49
-1.5
 49
0.25
 49
-1.5
  0
LTYPE
  2
double-dashed_dotted
 70
   64
  3
------   -----------   -   -----
 72
   65
 73
    6
 40
16.75
 49
6
 49
-1.5
 49
6
 49
-1.5
 49
0.25
 49
-1.5
  0
LTYPE
  2
dashed_double-dotted
 70
   64
  3
---------    -    -    ---------
 72
   65
 73
    6
 40
11
 49
6
 49
-1.5
 49
0.25
 49
-1.5
 49
0.25
 49
-1.5
  0
LTYPE
  2
double-dashed_double-dotted
 70
   64
  3
-----   ---------   -   -   ----
 72
   65
 73
    8
 40
18.5
 49
6
 49
-1.5
 49
6
 49
-1.5
 49
0.25
 49
-1.5
 49
0.25
 49
-1.5
  0
LTYPE
  2
dashed_triplicate-dotted
 70
   64
  3
-------    -    -    -    ------
 72
   65
 73
    8
 40
12.75
 49
6
 49
-1.5
 49
0.25
 49
-1.5
 49
0.25
 49
-1.5
 49
0.25
 49
-1.5
  0
LTYPE
  2
double-dashed_triplicate-dotted
 70
   64
  3
-----  ---------  -  -  -  -----
 72
   65
 73
   10
 40
20.25
 49
6
 49
-1.5
 49
6
 49
-1.5
 49
0.25
 49
-1.5
 49
0.25
 49
-1.5
 49
0.25
 49
-1.5
  0
LTYPE
  2
undefined
 70
   64
  3
--------------------------------
 72
   65
 73
    0
 40
0
  0
ENDTAB
  0
TABLE
  2
STYLE
  5
3
100
AcDbSymbolTable
 70
     1
  0
STYLE
  5
10
100
AcDbSymbolTableRecord
100
AcDbTextStyleTableRecord
  2
STANDARD
 70
     0
 40
0.0
 41
1.0
 50
0.0
 71
     0
 42
0.2
  3
txt
  4
bigfont.shx
  0
STYLE
  5
26
100
AcDbSymbolTableRecord
100
AcDbTextStyleTableRecord
  2
TATEGAKI
 70
    68
 40
0.0
 41
1.0
 50
0.0
 71
     0
 42
1.0
  3
txt
  4
bigfont.shx
  0
ENDTAB
  0
TABLE
  2
LAYER
 70
    7
  0
LAYER
  2
_0-0_LAYER001
 70
   64
 62
    7
  6
CONTINUOUS
  0
LAYER
  2
_0-1_LAYER003
 70
   64
 62
    7
  6
CONTINUOUS
  0
LAYER
  2
_0-2_LAYER004
 70
   64
 62
    7
  6
CONTINUOUS
  0
LAYER
  2
_0-3_LAYER005
 70
   64
 62
    7
  6
CONTINUOUS
  0
LAYER
  2
_0-4_LAYER006
 70
   64
 62
    7
  6
CONTINUOUS
  0
LAYER
  2
_0-5_LAYER007
 70
   64
 62
    7
  6
CONTINUOUS
  0
LAYER
  2
ADD_LINE
 70
   64
 62
    7
  6
CONTINUOUS
  0
ENDTAB
  0
ENDSEC
  0
SECTION
  2
BLOCKS
  0
ENDSEC
  0
SECTION
  2
ENTITIES
  0
LINE
  8
_0-0_LAYER001
  6
CONTINUOUS
 62
    2
 10
1858.1909000000001
 20
1078.1990942443849
 11
1852.2017000000001
 21
1070.0248999999999
  0
LINE
  8
_0-0_LAYER001
  6
CONTINUOUS
 62
    2
 10
1501.3368999999998
 20
1002.3227999999999
 11
1503.2779999999998
 21
995.0784000000001
  0
LINE
  8
_0-0_LAYER001
  6
CONTINUOUS
 62
    2
 10
1503.2779999999998
 20
995.0784000000001
 11
1497.9747000000002
 21
1000.3816999999999
  0
LINE
  8
_0-0_LAYER001
  6
CONTINUOUS
 62
    2
 10
1503.2779999999998
 20
995.0784000000001
 11
1451.8663000000001
 21
1084.1261
  0
LINE
  8
_0-0_LAYER001
  6
CONTINUOUS
 62
    2
 10
1451.8663000000001
 20
1084.1261
 11
1411.3662999999999
 21
1084.1261
  0
LINE
  8
_0-0_LAYER001
  6
CONTINUOUS
 62
    2
 10
2020.9232000000002
 20
1261.1895999999999
 11
1943.4232000000002
 21
1261.1895999999999
  0
CIRCLE
  8
_0-0_LAYER001
  6
CONTINUOUS
 62
    2
 10
2018.4232000000002
 20
1261.1895999999999
 40
1.6999999999999997
  0
LINE
  8
_0-0_LAYER001
  6
CONTINUOUS
 62
    2
 10
2018.4232000000002
 20
1261.1895999999999
 11
2018.4232000000002
 21
961.18859999999995
  0
CIRCLE
  8
_0-0_LAYER001
  6
CONTINUOUS
 62
    2
 10
2018.4232000000002
 20
961.18859999999995
 40
1.6999999999999997
  0
LINE
  8
_0-0_LAYER001
  6
CONTINUOUS
 62
    2
 10
2020.9232000000002
 20
961.18859999999995
 11
1943.4232000000002
 21
961.18859999999995
  0
LINE
  8
_0-0_LAYER001
  6
CONTINUOUS
 62
    2
 10
1860.7219
 20
1078.1990000000001
 11
1875.7219
 21
965.43460000000005
  0
LINE
  8
_0-0_LAYER001
  6
CONTINUOUS
 62
    2
 10
2108.3872999999999
 20
961.18859999999995
 11
2055.8872999999999
 21
961.18859999999995
  0
CIRCLE
  8
_0-0_LAYER001
  6
CONTINUOUS
 62
    2
 10
2105.8872999999999
 20
961.18859999999995
 40
1.6999999999999997
  0
LINE
  8
_0-0_LAYER001
  6
CONTINUOUS
 62
    2
 10
2105.8872999999999
 20
961.18859999999995
 11
2105.8872999999999
 21
1127.98
  0
CIRCLE
  8
_0-0_LAYER001
  6
CONTINUOUS
 62
    2
 10
2105.8872999999999
 20
1127.98
 40
1.6999999999999997
  0
LINE
  8
_0-0_LAYER001
  6
CONTINUOUS
 62
    2
 10
2108.3872999999999
 20
1127.98
 11
2055.8872999999999
 21
1127.98
  0
CIRCLE
  8
_0-0_LAYER001
  6
CONTINUOUS
 62
    2
 10
2105.8872999999999
 20
1127.98
 40
1.6999999999999997
  0
LINE
  8
_0-0_LAYER001
  6
CONTINUOUS
 62
    2
 10
2105.8872999999999
 20
1127.98
 11
2105.8872999999999
 21
1277.98
  0
CIRCLE
  8
_0-0_LAYER001
  6
CONTINUOUS
 62
    2
 10
2105.8872999999999
 20
1277.98
 40
1.6999999999999997
  0
LINE
  8
_0-0_LAYER001
  6
CONTINUOUS
 62
    2
 10
2108.3872999999999
 20
1277.98
 11
2055.8872999999999
 21
1277.98
  0
LINE
  8
_0-0_LAYER001
  6
CONTINUOUS
 62
    2
 10
1964.6120999999998
 20
961.18859999999995
 11
1937.1120999999998
 21
961.18859999999995
  0
CIRCLE
  8
_0-0_LAYER001
  6
CONTINUOUS
 62
    2
 10
1962.1120999999998
 20
961.18859999999995
 40
1.6999999999999997
  0
LINE
  8
_0-0_LAYER001
  6
CONTINUOUS
 62
    2
 10
1962.1120999999998
 20
961.18859999999995
 11
1962.1120999999998
 21
1078.1990000000001
  0
CIRCLE
  8
_0-0_LAYER001
  6
CONTINUOUS
 62
    2
 10
1962.1120999999998
 20
1078.1990000000001
 40
1.6999999999999997
  0
LINE
  8
_0-0_LAYER001
  6
CONTINUOUS
 62
    2
 10
1964.6120999999998
 20
1078.1990000000001
 11
1937.1120999999998
 21
1078.1990000000001
  0
LINE
  8
_0-0_LAYER001
  6
CONTINUOUS
 62
    2
 10
1848.3267000000001
 20
1338.0150000000001
 11
1850.2678000000001
 21
1330.7706000000003
  0
LINE
  8
_0-0_LAYER001
  6
CONTINUOUS
 62
    2
 10
1850.2678000000001
 20
1330.7706000000003
 11
1844.9645
 21
1336.0739000000001
  0
LINE
  8
_0-0_LAYER001
  6
CONTINUOUS
 62
    2
 10
1850.2678000000001
 20
1330.7706000000003
 11
1800.1120999999998
 21
1417.6429000000003
  0
LINE
  8
_0-0_LAYER001
  6
CONTINUOUS
 62
    2
 10
1800.1120999999998
 20
1417.6429000000003
 11
1627.6120999999998
 21
1417.6429000000003
  0
LINE
  8
_0-0_LAYER001
  6
CONTINUOUS
 62
    2
 10
1865.7422000000001
 20
1173.6193000000001
 11
1867.6833000000001
 21
1166.3748000000001
  0
LINE
  8
_0-0_LAYER001
  6
CONTINUOUS
 62
    2
 10
1867.6833000000001
 20
1166.3748000000001
 11
1862.3800000000001
 21
1171.6781000000001
  0
LINE
  8
_0-0_LAYER001
  6
CONTINUOUS
 62
    2
 10
1867.6833000000001
 20
1166.3748000000001
 11
1766.4747000000002
 21
1341.6732999999999
  0
LINE
  8
_0-0_LAYER001
  6
CONTINUOUS
 62
    2
 10
1766.4747000000002
 20
1341.6732999999999
 11
1725.9747000000002
 21
1341.6732999999999
  0
LINE
  8
_0-0_LAYER001
  6
CONTINUOUS
 62
    2
 10
1812.473
 20
1123.7723000000001
 11
1814.4142000000002
 21
1116.5279
  0
LINE
  8
_0-0_LAYER001
  6
CONTINUOUS
 62
    2
 10
1814.4142000000002
 20
1116.5279
 11
1809.1109000000001
 21
1121.8312000000001
  0
LINE
  8
_0-0_LAYER001
  6
CONTINUOUS
 62
    2
 10
1814.4142000000002
 20
1116.5279
 11
1731.2184999999999
 21
1260.6270999999999
  0
LINE
  8
_0-0_LAYER001
  6
CONTINUOUS
 62
    2
 10
1731.2184999999999
 20
1260.6270999999999
 11
1497.2184999999999
 21
1260.6270999999999
  0
LINE
  8
_0-0_LAYER001
  6
CONTINUOUS
 62
    2
 10
1767.8270000000002
 20
1085.4888000000001
 11
1769.7682
 21
1078.2444
  0
LINE
  8
_0-0_LAYER001
  6
CONTINUOUS
 62
    2
 10
1769.7682
 20
1078.2444
 11
1764.4648999999999
 21
1083.5477000000001
  0
LINE
  8
_0-0_LAYER001
  6
CONTINUOUS
 62
    2
 10
1769.7682
 20
1078.2444
 11
1682.8020000000001
 21
1228.8742999999999
  0
LINE
  8
_0-0_LAYER001
  6
CONTINUOUS
 62
    2
 10
1682.8020000000001
 20
1228.8742999999999
 11
1568.8020000000001
 21
1228.8742999999999
  0
LINE
  8
_0-0_LAYER001
  6
CONTINUOUS
 62
    2
 10
1871.2674999999999
 20
995.04009999999994
 11
1869.3263999999999
 21
1002.2846
  0
LINE
  8
_0-0_LAYER001
  6
CONTINUOUS
 62
    2
 10
1869.3263999999999
 20
1002.2846
 11
1874.6297
 21
996.98129999999992
  0
LINE
  8
_0-0_LAYER001
  6
CONTINUOUS
 62
    2
 10
1869.3263999999999
 20
1002.2846
 11
1930.1713
 21
896.89810000000011
  0
LINE
  8
_0-0_LAYER001
  6
CONTINUOUS
 62
    2
 10
1930.1713
 20
896.89810000000011
 11
2093.6713
 21
896.89810000000011
  0
LINE
  8
_0-4_LAYER006
  6
CONTINUOUS
 62
    2
 10
1869.3928000000001
 20
1101.7443000000001
 11
1864.0895
 21
1096.441
  0
LINE
  8
_0-4_LAYER006
  6
CONTINUOUS
 62
    2
 10
1864.0895
 20
1096.441
 11
1866.0306
 21
1103.6855
  0
LINE
  8
_0-4_LAYER006
  6
CONTINUOUS
 62
    2
 10
1864.0895
 20
1096.441
 11
1902.3872999999999
 21
1162.7747999999999
  0
LINE
  8
_0-4_LAYER006
  6
CONTINUOUS
 62
    2
 10
1902.3872999999999
 20
1162.7747999999999
 11
1983.3872999999999
 21
1162.7747999999999
  0
LINE
  8
_0-0_LAYER001
  6
CONTINUOUS
 62
    2
 10
1836.2145
 20
958.7826
 11
1834.2734
 21
966.02700000000004
  0
LINE
  8
_0-0_LAYER001
  6
CONTINUOUS
 62
    2
 10
1834.2734
 20
966.02700000000004
 11
1839.5767000000001
 21
960.72370000000001
  0
LINE
  8
_0-0_LAYER001
  6
CONTINUOUS
 62
    2
 10
1834.2734
 20
966.02700000000004
 11
1932.0434
 21
796.68429999999989
  0
LINE
  8
_0-0_LAYER001
  6
CONTINUOUS
 62
    2
 10
1932.0434
 20
796.68429999999989
 11
2133.0434
 21
796.68429999999989
  0
LINE
  8
_0-0_LAYER001
  6
CONTINUOUS
 62
    2
 10
1843.9301
 20
1121.2637999999999
 11
1845.8712
 21
1114.0193999999999
  0
LINE
  8
_0-0_LAYER001
  6
CONTINUOUS
 62
    2
 10
1845.8712
 20
1114.0193999999999
 11
1840.5679
 21
1119.3226999999999
  0
LINE
  8
_0-0_LAYER001
  6
CONTINUOUS
 62
    2
 10
1845.8712
 20
1114.0193999999999
 11
1742.1282999999999
 21
1293.7074000000002
  0
LINE
  8
_0-0_LAYER001
  6
CONTINUOUS
 62
    2
 10
1742.1282999999999
 20
1293.7074000000002
 11
1595.1282999999999
 21
1293.7074000000002
  0
LINE
  8
_0-0_LAYER001
  6
CONTINUOUS
 62
    2
 10
1182.3734999999999
 20
694.72360000000003
 11
1010.7021999999999
 21
694.72360000000003
  0
LINE
  8
_0-0_LAYER001
  6
CONTINUOUS
 62
    2
 10
1779.5814999999998
 20
1032.2822000000001
 11
1781.5225999999998
 21
1025.0378000000001
  0
LINE
  8
_0-0_LAYER001
  6
CONTINUOUS
 62
    2
 10
1781.5225999999998
 20
1025.0378000000001
 11
1776.2193000000002
 21
1030.3411000000001
  0
LINE
  8
_0-0_LAYER001
  6
CONTINUOUS
 62
    2
 10
1781.5225999999998
 20
1025.0378000000001
 11
1685.3811000000001
 21
1191.5598
  0
LINE
  8
_0-0_LAYER001
  6
CONTINUOUS
 62
    2
 10
1685.3811000000001
 20
1191.5598
 11
1613.5904
 21
1191.5598
  0
LINE
  8
_0-0_LAYER001
  6
CONTINUOUS
 62
    2
 10
1199.7491
 20
724.81889999999999
 11
959.44589999999994
 21
724.81889999999999
  0
LINE
  8
_0-0_LAYER001
  6
CONTINUOUS
 62
    2
 10
1165.1300000000001
 20
664.85699999999997
 11
1103.9096
 21
664.85699999999997
  0
LINE
  8
_0-0_LAYER001
  6
CONTINUOUS
 62
    2
 10
1341.0669000000003
 20
973.47090000000003
 11
1346.3702000000001
 21
978.77420000000006
  0
LINE
  8
_0-0_LAYER001
  6
CONTINUOUS
 62
    2
 10
1346.3702000000001
 20
978.77420000000006
 11
1344.4291000000001
 21
971.52980000000002
  0
LINE
  8
_0-0_LAYER001
  6
CONTINUOUS
 62
    2
 10
1346.3702000000001
 20
978.77420000000006
 11
1165.1300000000001
 21
664.85699999999997
  0
LINE
  8
_0-0_LAYER001
  6
CONTINUOUS
 62
    2
 10
1217.0586000000001
 20
754.79989999999998
 11
1012.2358999999999
 21
754.79989999999998
  0
LINE
  8
_0-0_LAYER001
  6
CONTINUOUS
 62
    4
 10
1832.1723000000002
 20
1078.4931999999999
 11
1832.1723000000002
 21
1078.0274999999999
  0
LINE
  8
_0-0_LAYER001
  6
CONTINUOUS
 62
    4
 10
1832.1723000000002
 20
1078.0274999999999
 11
1832.1723000000002
 21
1076.7632000000001
  0
LINE
  8
_0-0_LAYER001
  6
CONTINUOUS
 62
    4
 10
1832.1723000000002
 20
1076.7632000000001
 11
1832.1723000000002
 21
1074.9001000000001
  0
LINE
  8
_0-0_LAYER001
  6
CONTINUOUS
 62
    4
 10
1832.1723000000002
 20
1074.9001000000001
 11
1832.1723000000002
 21
1072.6377
  0
LINE
  8
_0-0_LAYER001
  6
CONTINUOUS
 62
    4
 10
1832.1723000000002
 20
1072.6377
 11
1832.1723000000002
 21
1070.1757
  0
LINE
  8
_0-0_LAYER001
  6
CONTINUOUS
 62
    4
 10
1832.1723000000002
 20
1070.1757
 11
1832.1723000000002
 21
1067.7138
  0
LINE
  8
_0-0_LAYER001
  6
CONTINUOUS
 62
    4
 10
1832.1723000000002
 20
1067.7138
 11
1832.1723000000002
 21
1065.4513999999999
  0
LINE
  8
_0-0_LAYER001
  6
CONTINUOUS
 62
    4
 10
1832.1723000000002
 20
1065.4513999999999
 11
1832.1723000000002
 21
1063.5882999999999
  0
LINE
  8
_0-0_LAYER001
  6
CONTINUOUS
 62
    4
 10
1832.1723000000002
 20
1063.5882999999999
 11
1832.1723000000002
 21
1062.3240000000001
  0
LINE
  8
_0-0_LAYER001
  6
CONTINUOUS
 62
    4
 10
1832.1723000000002
 20
1062.3240000000001
 11
1832.1723000000002
 21
1061.8581999999999
  0
LINE
  8
_0-0_LAYER001
  6
CONTINUOUS
 62
    4
 10
1832.1723000000002
 20
1061.8581999999999
 11
1831.0248000000001
 21
1061.8780999999999
  0
LINE
  8
_0-0_LAYER001
  6
CONTINUOUS
 62
    4
 10
1831.0248000000001
 20
1061.8780999999999
 11
1827.6502
 21
1061.7826
  0
LINE
  8
_0-0_LAYER001
  6
CONTINUOUS
 62
    4
 10
1827.6502
 20
1061.7826
 11
1822.1502999999998
 21
1061.3387
  0
LINE
  8
_0-0_LAYER001
  6
CONTINUOUS
 62
    4
 10
1822.1502999999998
 20
1061.3387
 11
1814.6266999999998
 21
1060.3135
  0
LINE
  8
_0-0_LAYER001
  6
CONTINUOUS
 62
    4
 10
1814.6266999999998
 20
1060.3135
 11
1805.1813999999999
 21
1058.4742000000001
  0
LINE
  8
_0-0_LAYER001
  6
CONTINUOUS
 62
    4
 10
1805.1813999999999
 20
1058.4742000000001
 11
1793.9159
 21
1055.5879
  0
LINE
  8
_0-0_LAYER001
  6
CONTINUOUS
 62
    4
 10
1793.9159
 20
1055.5879
 11
1780.9322000000002
 21
1051.4217000000001
  0
LINE
  8
_0-0_LAYER001
  6
CONTINUOUS
 62
    4
 10
1780.9322000000002
 20
1051.4217000000001
 11
1766.3319999999999
 21
1045.7426
  0
LINE
  8
_0-0_LAYER001
  6
CONTINUOUS
 62
    4
 10
1766.3319999999999
 20
1045.7426
 11
1750.2170000000001
 21
1038.3179
  0
LINE
  8
_0-0_LAYER001
  6
CONTINUOUS
 62
    4
 10
1750.2170000000001
 20
1038.3179
 11
1732.6889999999999
 21
1028.9145000000001
  0
LINE
  8
_0-0_LAYER001
  6
CONTINUOUS
 62
    4
 10
1732.6889999999999
 20
1028.9145000000001
 11
1732.6889999999999
 21
1029.6726000000001
  0
LINE
  8
_0-0_LAYER001
  6
CONTINUOUS
 62
    4
 10
1732.6889999999999
 20
1029.6726000000001
 11
1732.6889999999999
 21
1031.7301
  0
LINE
  8
_0-0_LAYER001
  6
CONTINUOUS
 62
    4
 10
1732.6889999999999
 20
1031.7301
 11
1732.6889999999999
 21
1034.7623000000001
  0
LINE
  8
_0-0_LAYER001
  6
CONTINUOUS
 62
    4
 10
1732.6889999999999
 20
1034.7623000000001
 11
1732.6889999999999
 21
1038.4441999999999
  0
LINE
  8
_0-0_LAYER001
  6
CONTINUOUS
 62
    4
 10
1732.6889999999999
 20
1038.4441999999999
 11
1732.6889999999999
 21
1042.451
  0
LINE
  8
_0-0_LAYER001
  6
CONTINUOUS
 62
    4
 10
1732.6889999999999
 20
1042.451
 11
1732.6889999999999
 21
1046.4577999999999
  0
LINE
  8
_0-0_LAYER001
  6
CONTINUOUS
 62
    4
 10
1732.6889999999999
 20
1046.4577999999999
 11
1732.6889999999999
 21
1050.1396999999999
  0
LINE
  8
_0-0_LAYER001
  6
CONTINUOUS
 62
    4
 10
1732.6889999999999
 20
1050.1396999999999
 11
1732.6889999999999
 21
1053.1719000000001
  0
LINE
  8
_0-0_LAYER001
  6
CONTINUOUS
 62
    4
 10
1732.6889999999999
 20
1053.1719000000001
 11
1732.6889999999999
 21
1055.2293999999999
  0
LINE
  8
_0-0_LAYER001
  6
CONTINUOUS
 62
    4
 10
1732.6889999999999
 20
1055.2293999999999
 11
1732.6889999999999
 21
1055.9875
  0
LINE
  8
_0-0_LAYER001
  6
CONTINUOUS
 62
    4
 10
1732.6889999999999
 20
1055.9875
 11
1734.3561
 21
1056.5735999999999
  0
LINE
  8
_0-0_LAYER001
  6
CONTINUOUS
 62
    4
 10
1734.3561
 20
1056.5735999999999
 11
1739.0585000000001
 21
1058.1714999999999
  0
LINE
  8
_0-0_LAYER001
  6
CONTINUOUS
 62
    4
 10
1739.0585000000001
 20
1058.1714999999999
 11
1746.3481999999999
 21
1060.5405000000001
  0
LINE
  8
_0-0_LAYER001
  6
CONTINUOUS
 62
    4
 10
1746.3481999999999
 20
1060.5405000000001
 11
1755.777
 21
1063.4399000000001
  0
LINE
  8
_0-0_LAYER001
  6
CONTINUOUS
 62
    4
 10
1755.777
 20
1063.4399000000001
 11
1766.8966
 21
1066.6288
  0
LINE
  8
_0-0_LAYER001
  6
CONTINUOUS
 62
    4
 10
1766.8966
 20
1066.6288
 11
1779.2588999999998
 21
1069.8668
  0
LINE
  8
_0-0_LAYER001
  6
CONTINUOUS
 62
    4
 10
1779.2588999999998
 20
1069.8668
 11
1792.4159
 21
1072.9129
  0
LINE
  8
_0-0_LAYER001
  6
CONTINUOUS
 62
    4
 10
1792.4159
 20
1072.9129
 11
1805.9191999999998
 21
1075.5264999999999
  0
LINE
  8
_0-0_LAYER001
  6
CONTINUOUS
 62
    4
 10
1805.9191999999998
 20
1075.5264999999999
 11
1819.3207000000002
 21
1077.4667999999999
  0
LINE
  8
_0-0_LAYER001
  6
CONTINUOUS
 62
    4
 10
1832.1723000000002
 20
1078.4931999999999
 11
1819.2084
 21
1077.4505999999999
  0
LINE
  8
_0-0_LAYER001
  6
CONTINUOUS
 62
    4
 10
1843.8162000000002
 20
1110.806
 11
1843.8162000000002
 21
1110.3403000000001
  0
LINE
  8
_0-0_LAYER001
  6
CONTINUOUS
 62
    4
 10
1843.8162000000002
 20
1110.3403000000001
 11
1843.8162000000002
 21
1109.076
  0
LINE
  8
_0-0_LAYER001
  6
CONTINUOUS
 62
    4
 10
1843.8162000000002
 20
1109.076
 11
1843.8162000000002
 21
1107.2129
  0
LINE
  8
_0-0_LAYER001
  6
CONTINUOUS
 62
    4
 10
1843.8162000000002
 20
1107.2129
 11
1843.8162000000002
 21
1104.9504999999999
  0
LINE
  8
_0-0_LAYER001
  6
CONTINUOUS
 62
    4
 10
1843.8162000000002
 20
1104.9504999999999
 11
1843.8162000000002
 21
1102.4884999999999
  0
LINE
  8
_0-0_LAYER001
  6
CONTINUOUS
 62
    4
 10
1843.8162000000002
 20
1102.4884999999999
 11
1843.8162000000002
 21
1100.0265999999999
  0
LINE
  8
_0-0_LAYER001
  6
CONTINUOUS
 62
    4
 10
1843.8162000000002
 20
1100.0265999999999
 11
1843.8162000000002
 21
1097.7642000000001
  0
LINE
  8
_0-0_LAYER001
  6
CONTINUOUS
 62
    4
 10
1843.8162000000002
 20
1097.7642000000001
 11
1843.8162000000002
 21
1095.9011
  0
LINE
  8
_0-0_LAYER001
  6
CONTINUOUS
 62
    4
 10
1843.8162000000002
 20
1095.9011
 11
1843.8162000000002
 21
1094.6368
  0
LINE
  8
_0-0_LAYER001
  6
CONTINUOUS
 62
    4
 10
1843.8162000000002
 20
1094.6368
 11
1843.8162000000002
 21
1094.1711
  0
LINE
  8
_0-0_LAYER001
  6
CONTINUOUS
 62
    4
 10
1843.8162000000002
 20
1094.1711
 11
1842.6687000000002
 21
1094.191
  0
LINE
  8
_0-0_LAYER001
  6
CONTINUOUS
 62
    4
 10
1842.6687000000002
 20
1094.191
 11
1839.2941000000001
 21
1094.0953999999999
  0
LINE
  8
_0-0_LAYER001
  6
CONTINUOUS
 62
    4
 10
1839.2941000000001
 20
1094.0953999999999
 11
1833.7941999999998
 21
1093.6514999999999
  0
LINE
  8
_0-0_LAYER001
  6
CONTINUOUS
 62
    4
 10
1833.7941999999998
 20
1093.6514999999999
 11
1826.2705999999998
 21
1092.6262999999999
  0
LINE
  8
_0-0_LAYER001
  6
CONTINUOUS
 62
    4
 10
1826.2705999999998
 20
1092.6262999999999
 11
1816.8252000000002
 21
1090.787
  0
LINE
  8
_0-0_LAYER001
  6
CONTINUOUS
 62
    4
 10
1816.8252000000002
 20
1090.787
 11
1805.5598
 21
1087.9006999999999
  0
LINE
  8
_0-0_LAYER001
  6
CONTINUOUS
 62
    4
 10
1805.5598
 20
1087.9006999999999
 11
1792.5761000000002
 21
1083.7345
  0
LINE
  8
_0-0_LAYER001
  6
CONTINUOUS
 62
    4
 10
1792.5761000000002
 20
1083.7345
 11
1777.9758999999999
 21
1078.0554
  0
LINE
  8
_0-0_LAYER001
  6
CONTINUOUS
 62
    4
 10
1777.9758999999999
 20
1078.0554
 11
1761.8609000000001
 21
1070.6306999999999
  0
LINE
  8
_0-0_LAYER001
  6
CONTINUOUS
 62
    4
 10
1761.8609000000001
 20
1070.6306999999999
 11
1744.3328999999999
 21
1061.2273
  0
LINE
  8
_0-0_LAYER001
  6
CONTINUOUS
 62
    4
 10
1744.3328999999999
 20
1061.2273
 11
1744.3328999999999
 21
1061.9854
  0
LINE
  8
_0-0_LAYER001
  6
CONTINUOUS
 62
    4
 10
1744.3328999999999
 20
1061.9854
 11
1744.3328999999999
 21
1064.0428999999999
  0
LINE
  8
_0-0_LAYER001
  6
CONTINUOUS
 62
    4
 10
1744.3328999999999
 20
1064.0428999999999
 11
1744.3328999999999
 21
1067.0751
  0
LINE
  8
_0-0_LAYER001
  6
CONTINUOUS
 62
    4
 10
1744.3328999999999
 20
1067.0751
 11
1744.3328999999999
 21
1070.7570000000001
  0
LINE
  8
_0-0_LAYER001
  6
CONTINUOUS
 62
    4
 10
1744.3328999999999
 20
1070.7570000000001
 11
1744.3328999999999
 21
1074.7637999999999
  0
LINE
  8
_0-0_LAYER001
  6
CONTINUOUS
 62
    4
 10
1744.3328999999999
 20
1074.7637999999999
 11
1744.3328999999999
 21
1078.7706000000001
  0
LINE
  8
_0-0_LAYER001
  6
CONTINUOUS
 62
    4
 10
1744.3328999999999
 20
1078.7706000000001
 11
1744.3328999999999
 21
1082.4525000000001
  0
LINE
  8
_0-0_LAYER001
  6
CONTINUOUS
 62
    4
 10
1744.3328999999999
 20
1082.4525000000001
 11
1744.3328999999999
 21
1085.4847
  0
LINE
  8
_0-0_LAYER001
  6
CONTINUOUS
 62
    4
 10
1744.3328999999999
 20
1085.4847
 11
1744.3328999999999
 21
1087.5422000000001
  0
LINE
  8
_0-0_LAYER001
  6
CONTINUOUS
 62
    4
 10
1744.3328999999999
 20
1087.5422000000001
 11
1744.3328999999999
 21
1088.3003000000001
  0
LINE
  8
_0-0_LAYER001
  6
CONTINUOUS
 62
    4
 10
1744.3328999999999
 20
1088.3003000000001
 11
1745.9998999999998
 21
1088.8864000000001
  0
LINE
  8
_0-0_LAYER001
  6
CONTINUOUS
 62
    4
 10
1745.9998999999998
 20
1088.8864000000001
 11
1750.7024000000001
 21
1090.4843000000001
  0
LINE
  8
_0-0_LAYER001
  6
CONTINUOUS
 62
    4
 10
1750.7024000000001
 20
1090.4843000000001
 11
1757.9920999999999
 21
1092.8533
  0
LINE
  8
_0-0_LAYER001
  6
CONTINUOUS
 62
    4
 10
1757.9920999999999
 20
1092.8533
 11
1767.4207999999999
 21
1095.7527
  0
LINE
  8
_0-0_LAYER001
  6
CONTINUOUS
 62
    4
 10
1767.4207999999999
 20
1095.7527
 11
1778.5405000000001
 21
1098.9417000000001
  0
LINE
  8
_0-0_LAYER001
  6
CONTINUOUS
 62
    4
 10
1778.5405000000001
 20
1098.9417000000001
 11
1790.9027999999998
 21
1102.1795999999999
  0
LINE
  8
_0-0_LAYER001
  6
CONTINUOUS
 62
    4
 10
1790.9027999999998
 20
1102.1795999999999
 11
1804.0596999999998
 21
1105.2257
  0
LINE
  8
_0-0_LAYER001
  6
CONTINUOUS
 62
    4
 10
1804.0596999999998
 20
1105.2257
 11
1817.5630000000001
 21
1107.8393000000001
  0
LINE
  8
_0-0_LAYER001
  6
CONTINUOUS
 62
    4
 10
1817.5630000000001
 20
1107.8393000000001
 11
1830.9645999999998
 21
1109.7796000000001
  0
LINE
  8
_0-0_LAYER001
  6
CONTINUOUS
 62
    4
 10
1843.8162000000002
 20
1110.806
 11
1830.8523
 21
1109.7634
  0
LINE
  8
_0-1_LAYER003
  6
CONTINUOUS
 62
    2
 10
1769.9798999999998
 20
1100.4093
 11
1775.0499
 21
1106.499
  0
LINE
  8
_0-0_LAYER001
  6
CONTINUOUS
 62
    2
 10
1770.5279
 20
1200.2212
 11
1770.5279
 21
1153.5317
  0
CIRCLE
  8
_0-0_LAYER001
  6
CONTINUOUS
 62
    2
 10
1770.5279
 20
1197.7212
 40
1.6999999999999997
  0
LINE
  8
_0-0_LAYER001
  6
CONTINUOUS
 62
    2
 10
1770.5279
 20
1197.7212
 11
1845.5279
 21
1197.7212
  0
CIRCLE
  8
_0-0_LAYER001
  6
CONTINUOUS
 62
    2
 10
1845.5279
 20
1197.7212
 40
1.6999999999999997
  0
LINE
  8
_0-0_LAYER001
  6
CONTINUOUS
 62
    2
 10
1845.5279
 20
1200.2212
 11
1845.5279
 21
1182.7212
  0
LINE
  8
_0-4_LAYER006
  6
CONTINUOUS
 62
    2
 10
1850.5279
 20
1115.6949999999999
 11
1850.5279
 21
1088.1990000000001
  0
LINE
  8
_0-4_LAYER006
  6
CONTINUOUS
 62
    2
 10
1850.5279
 20
1088.1990000000001
 11
1880.5279
 21
1088.1990000000001
  0
LINE
  8
_0-4_LAYER006
  6
CONTINUOUS
 62
    2
 10
1880.5279
 20
1088.1990000000001
 11
1880.5279
 21
1118.1990000000001
  0
LINE
  8
_0-4_LAYER006
  6
CONTINUOUS
 62
    2
 10
1880.5279
 20
1118.1990000000001
 11
1850.5279
 21
1088.1990000000001
  0
LINE
  8
_0-0_LAYER001
  6
CONTINUOUS
 62
    2
 10
1777.6727999999998
 20
1078.3443
 11
1776.6550999999999
 21
1069.1848
  0
LINE
  8
_0-0_LAYER001
  6
CONTINUOUS
 62
    2
 10
1880.5279
 20
1118.1990000000001
 11
1864.0895
 21
1118.1990000000001
  0
LINE
  8
_0-0_LAYER001
  6
CONTINUOUS
 62
    2
 10
1836.1469000000002
 20
1111.5655999999999
 11
1836.1469000000002
 21
1093.0016000000001
  0
LINE
  8
_0-0_LAYER001
  6
CONTINUOUS
 62
    2
 10
1836.1469000000002
 20
1093.0016000000001
 11
1854.5963000000002
 21
1093.0016000000001
  0
LINE
  8
_0-0_LAYER001
  6
CONTINUOUS
 62
    2
 10
1836.1469000000002
 20
1111.5655999999999
 11
1854.5963000000002
 21
1111.5655999999999
  0
LINE
  8
_0-0_LAYER001
  6
CONTINUOUS
 62
    2
 10
1854.5963000000002
 20
1111.5655999999999
 11
1854.5963000000002
 21
1093.0016000000001
  0
LINE
  8
_0-0_LAYER001
  6
CONTINUOUS
 62
    2
 10
1826.4065000000001
 20
1079.5943
 11
1826.4065000000001
 21
1060.6865
  0
LINE
  8
_0-0_LAYER001
  6
CONTINUOUS
 62
    2
 10
1826.4065000000001
 20
1060.6865
 11
1832.1723000000002
 21
1061.8581999999999
  0
LINE
  8
_0-0_LAYER001
  6
CONTINUOUS
 62
    2
 10
1832.1723000000002
 20
1061.8581999999999
 11
1859.5237999999999
 21
1089.3347000000001
  0
LINE
  8
_0-0_LAYER001
  6
CONTINUOUS
 62
    2
 10
1826.4065000000001
 20
1079.5943
 11
1854.5963000000002
 21
1093.0016000000001
  0
LINE
  8
_0-0_LAYER001
  6
CONTINUOUS
 62
    2
 10
1854.5963000000002
 20
1093.0016000000001
 11
1859.5237999999999
 21
1089.3347000000001
  0
ARC
  8
_0-0_LAYER001
  6
CONTINUOUS
 62
    2
 10
1660.1302000000001
 20
1046.0612000000001
 40
115.76602
 50
341.74545999999998
 51
1.6742919999999779
  0
LINE
  8
_0-0_LAYER001
  6
CONTINUOUS
 62
    2
 10
1860.7219
 20
1078.1990000000001
 11
1875.7219
 21
1078.1990000000001
  0
LINE
  8
_0-0_LAYER001
  6
CONTINUOUS
 62
    2
 10
1020.9482
 20
797.47530000000006
 11
1020.9482
 21
849.97530000000006
  0
CIRCLE
  8
_0-0_LAYER001
  6
CONTINUOUS
 62
    2
 10
1020.9482
 20
799.97530000000006
 40
1.6999999999999997
  0
LINE
  8
_0-0_LAYER001
  6
CONTINUOUS
 62
    2
 10
1020.9482
 20
799.97530000000006
 11
1285.9482
 21
799.97530000000006
  0
CIRCLE
  8
_0-0_LAYER001
  6
CONTINUOUS
 62
    2
 10
1285.9482
 20
799.97530000000006
 40
1.6999999999999997
  0
LINE
  8
_0-0_LAYER001
  6
CONTINUOUS
 62
    2
 10
1285.9482
 20
797.47530000000006
 11
1285.9482
 21
849.97530000000006
  0
CIRCLE
  8
_0-0_LAYER001
  6
CONTINUOUS
 62
    2
 10
1285.9482
 20
799.97530000000006
 40
1.6999999999999997
  0
LINE
  8
_0-0_LAYER001
  6
CONTINUOUS
 62
    2
 10
1285.9482
 20
799.97530000000006
 11
1550.9481999999998
 21
799.97530000000006
  0
CIRCLE
  8
_0-0_LAYER001
  6
CONTINUOUS
 62
    2
 10
1550.9481999999998
 20
799.97530000000006
 40
1.6999999999999997
  0
LINE
  8
_0-0_LAYER001
  6
CONTINUOUS
 62
    2
 10
1550.9481999999998
 20
797.47530000000006
 11
1550.9481999999998
 21
849.97530000000006
  0
CIRCLE
  8
_0-0_LAYER001
  6
CONTINUOUS
 62
    2
 10
1550.9481999999998
 20
799.97530000000006
 40
1.6999999999999997
  0
LINE
  8
_0-0_LAYER001
  6
CONTINUOUS
 62
    2
 10
1550.9481999999998
 20
799.97530000000006
 11
1855.9481999999998
 21
799.97530000000006
  0
CIRCLE
  8
_0-0_LAYER001
  6
CONTINUOUS
 62
    2
 10
1855.9481999999998
 20
799.97530000000006
 40
1.6999999999999997
  0
LINE
  8
_0-0_LAYER001
  6
CONTINUOUS
 62
    2
 10
1855.9481999999998
 20
797.47530000000006
 11
1855.9481999999998
 21
849.97530000000006
  0
LINE
  8
_0-0_LAYER001
  6
CONTINUOUS
 62
    2
 10
1858.1909000000001
 20
853.95749999999998
 11
1858.1909000000001
 21
906.45749999999998
  0
CIRCLE
  8
_0-0_LAYER001
  6
CONTINUOUS
 62
    2
 10
1858.1909000000001
 20
856.45749999999998
 40
1.6999999999999997
  0
LINE
  8
_0-0_LAYER001
  6
CONTINUOUS
 62
    2
 10
1858.1909000000001
 20
856.45749999999998
 11
1738.6169
 21
856.45749999999998
  0
CIRCLE
  8
_0-0_LAYER001
  6
CONTINUOUS
 62
    2
 10
1738.6169
 20
856.45749999999998
 40
1.6999999999999997
  0
LINE
  8
_0-0_LAYER001
  6
CONTINUOUS
 62
    2
 10
1738.6169
 20
853.95749999999998
 11
1738.6169
 21
906.45749999999998
  0
LINE
  8
_0-0_LAYER001
  6
CONTINUOUS
 62
    4
 10
1816.2325000000001
 20
1021.5316
 11
1816.2325000000001
 21
1038.729
  0
LINE
  8
_0-0_LAYER001
  6
CONTINUOUS
 62
    4
 10
1676.5059000000001
 20
977.69229999999993
 11
1667.9704000000002
 21
992.22559999999999
  0
LINE
  8
_0-0_LAYER001
  6
CONTINUOUS
 62
    4
 10
1684.6738
 20
977.04199999999992
 11
1692.98
 21
987.10750000000007
  0
ARC
  8
_0-0_LAYER001
  6
CONTINUOUS
 62
    4
 10
1680.8173000000002
 20
980.22440000000006
 40
5
 50
210.42578
 51
320.47001
  0
LINE
  8
_0-0_LAYER001
  6
CONTINUOUS
 62
    4
 10
1760.6194
 20
976.57210000000009
 11
1753.2939999999999
 21
987.87820000000011
  0
LINE
  8
_0-0_LAYER001
  6
CONTINUOUS
 62
    4
 10
1769.1289000000002
 20
976.76199999999994
 11
1778.0673000000002
 21
992.00770000000011
  0
ARC
  8
_0-0_LAYER001
  6
CONTINUOUS
 62
    4
 10
1764.8155999999999
 20
979.29089999999997
 40
5
 50
212.93986000000001
 51
329.61716000000001
  0
LINE
  8
_0-0_LAYER001
  6
CONTINUOUS
 62
    4
 10
1808.4110000000001
 20
1016.3197
 11
1810.8391000000001
 21
1016.7236
  0
LINE
  8
_0-0_LAYER001
  6
CONTINUOUS
 62
    4
 10
1804.2219
 20
1015.6233999999999
 11
1808.4110000000001
 21
1016.3197
  0
LINE
  8
_0-0_LAYER001
  6
CONTINUOUS
 62
    4
 10
1800.0281
 20
1014.9278999999999
 11
1804.2219
 21
1015.6233999999999
  0
LINE
  8
_0-0_LAYER001
  6
CONTINUOUS
 62
    4
 10
1795.8292999999999
 20
1014.2338999999999
 11
1800.0281
 21
1014.9278999999999
  0
LINE
  8
_0-0_LAYER001
  6
CONTINUOUS
 62
    4
 10
1791.6253000000002
 20
1013.5424
 11
1795.8292999999999
 21
1014.2338999999999
  0
LINE
  8
_0-0_LAYER001
  6
CONTINUOUS
 62
    4
 10
1787.4184
 20
1012.8548000000001
 11
1791.6253000000002
 21
1013.5424
  0
LINE
  8
_0-0_LAYER001
  6
CONTINUOUS
 62
    4
 10
1784.9661999999998
 20
1012.4563000000001
 11
1787.4184
 21
1012.8548000000001
  0
LINE
  8
_0-0_LAYER001
  6
CONTINUOUS
 62
    4
 10
1780.2334000000001
 20
1011.6938
 11
1784.9661999999998
 21
1012.4563000000001
  0
LINE
  8
_0-0_LAYER001
  6
CONTINUOUS
 62
    4
 10
1772.029
 20
1010.4099000000001
 11
1780.2334000000001
 21
1011.6938
  0
LINE
  8
_0-0_LAYER001
  6
CONTINUOUS
 62
    4
 10
1763.7215000000001
 20
1009.1901
 11
1772.029
 21
1010.4099000000001
  0
LINE
  8
_0-0_LAYER001
  6
CONTINUOUS
 62
    4
 10
1755.3132000000001
 20
1008.0736999999999
 11
1763.7215000000001
 21
1009.1901
  0
LINE
  8
_0-0_LAYER001
  6
CONTINUOUS
 62
    4
 10
1746.8006
 20
1007.1003000000001
 11
1755.3132000000001
 21
1008.0736999999999
  0
LINE
  8
_0-0_LAYER001
  6
CONTINUOUS
 62
    4
 10
1738.2415000000001
 20
1006.3163
 11
1746.8006
 21
1007.1003000000001
  0
LINE
  8
_0-0_LAYER001
  6
CONTINUOUS
 62
    4
 10
1733.1799999999998
 20
1005.9583
 11
1738.2415000000001
 21
1006.3163
  0
LINE
  8
_0-0_LAYER001
  6
CONTINUOUS
 62
    4
 10
1730.3773999999999
 20
1005.7967000000001
 11
1733.1799999999998
 21
1005.9583
  0
LINE
  8
_0-0_LAYER001
  6
CONTINUOUS
 62
    4
 10
1725.6563000000001
 20
1005.5927999999999
 11
1730.3773999999999
 21
1005.7967000000001
  0
LINE
  8
_0-0_LAYER001
  6
CONTINUOUS
 62
    4
 10
1720.8271
 20
1005.4873
 11
1725.6563000000001
 21
1005.5927999999999
  0
LINE
  8
_0-0_LAYER001
  6
CONTINUOUS
 62
    4
 10
1715.9254999999998
 20
1005.5027
 11
1720.8271
 21
1005.4873
  0
LINE
  8
_0-0_LAYER001
  6
CONTINUOUS
 62
    4
 10
1710.9544999999998
 20
1005.6605999999999
 11
1715.9254999999998
 21
1005.5027
  0
LINE
  8
_0-0_LAYER001
  6
CONTINUOUS
 62
    4
 10
1705.9971
 20
1005.9783
 11
1710.9544999999998
 21
1005.6605999999999
  0
LINE
  8
_0-0_LAYER001
  6
CONTINUOUS
 62
    4
 10
1702.9454000000001
 20
1006.2597000000001
 11
1705.9971
 21
1005.9783
  0
LINE
  8
_0-0_LAYER001
  6
CONTINUOUS
 62
    4
 10
1699.0165999999999
 20
1006.722
 11
1702.9454000000001
 21
1006.2597000000001
  0
LINE
  8
_0-0_LAYER001
  6
CONTINUOUS
 62
    4
 10
1692.5025999999998
 20
1007.7445
 11
1699.0165999999999
 21
1006.722
  0
LINE
  8
_0-0_LAYER001
  6
CONTINUOUS
 62
    4
 10
1685.9560000000001
 20
1009.0967000000001
 11
1692.5025999999998
 21
1007.7445
  0
LINE
  8
_0-0_LAYER001
  6
CONTINUOUS
 62
    4
 10
1679.4931000000001
 20
1010.7525000000001
 11
1685.9560000000001
 21
1009.0967000000001
  0
LINE
  8
_0-0_LAYER001
  6
CONTINUOUS
 62
    4
 10
1673.1271000000002
 20
1012.7032999999999
 11
1679.4931000000001
 21
1010.7525000000001
  0
LINE
  8
_0-0_LAYER001
  6
CONTINUOUS
 62
    4
 10
1666.9623999999999
 20
1014.9082000000001
 11
1673.1271000000002
 21
1012.7032999999999
  0
LINE
  8
_0-0_LAYER001
  6
CONTINUOUS
 62
    4
 10
1663.2757000000001
 20
1016.3800000000001
 11
1666.9623999999999
 21
1014.9082000000001
  0
LINE
  8
_0-0_LAYER001
  6
CONTINUOUS
 62
    4
 10
1658.9114
 20
1018.2725
 11
1663.2757000000001
 21
1016.3800000000001
  0
LINE
  8
_0-0_LAYER001
  6
CONTINUOUS
 62
    4
 10
1651.8424
 20
1021.6875
 11
1658.9114
 21
1018.2725
  0
LINE
  8
_0-0_LAYER001
  6
CONTINUOUS
 62
    4
 10
1644.9495000000002
 20
1025.4170999999999
 11
1651.8424
 21
1021.6875
  0
LINE
  8
_0-0_LAYER001
  6
CONTINUOUS
 62
    4
 10
1638.3125
 20
1029.3507999999999
 11
1644.9495000000002
 21
1025.4170999999999
  0
LINE
  8
_0-0_LAYER001
  6
CONTINUOUS
 62
    4
 10
1631.9032000000002
 20
1033.4331999999999
 11
1638.3125
 21
1029.3507999999999
  0
LINE
  8
_0-0_LAYER001
  6
CONTINUOUS
 62
    4
 10
1625.7188999999998
 20
1037.5953
 11
1631.9032000000002
 21
1033.4331999999999
  0
LINE
  8
_0-0_LAYER001
  6
CONTINUOUS
 62
    4
 10
1622.1765999999998
 20
1040.0590999999999
 11
1625.7188999999998
 21
1037.5953
  0
LINE
  8
_0-0_LAYER001
  6
CONTINUOUS
 62
    4
 10
1619.9445999999998
 20
1041.6324999999999
 11
1622.1765999999998
 21
1040.0590999999999
  0
LINE
  8
_0-0_LAYER001
  6
CONTINUOUS
 62
    4
 10
1616.3209999999999
 20
1044.1717000000001
 11
1619.9445999999998
 21
1041.6324999999999
  0
LINE
  8
_0-0_LAYER001
  6
CONTINUOUS
 62
    4
 10
1612.9513999999999
 20
1046.4372000000001
 11
1616.3209999999999
 21
1044.1717000000001
  0
LINE
  8
_0-0_LAYER001
  6
CONTINUOUS
 62
    4
 10
1609.8364000000001
 20
1048.3643
 11
1612.9513999999999
 21
1046.4372000000001
  0
LINE
  8
_0-0_LAYER001
  6
CONTINUOUS
 62
    4
 10
1606.9692
 20
1049.9200000000001
 11
1609.8364000000001
 21
1048.3643
  0
LINE
  8
_0-0_LAYER001
  6
CONTINUOUS
 62
    4
 10
1604.1381000000001
 20
1051.1885
 11
1606.9692
 21
1049.9200000000001
  0
LINE
  8
_0-0_LAYER001
  6
CONTINUOUS
 62
    4
 10
1602.6749
 20
1051.7206000000001
 11
1604.1381000000001
 21
1051.1885
  0
LINE
  8
_0-0_LAYER001
  6
CONTINUOUS
 62
    4
 10
1602.4938000000002
 20
1051.7786000000001
 11
1602.6749
 21
1051.7206000000001
  0
LINE
  8
_0-0_LAYER001
  6
CONTINUOUS
 62
    4
 10
1601.7055
 20
1052.0065
 11
1602.4938000000002
 21
1051.7786000000001
  0
LINE
  8
_0-0_LAYER001
  6
CONTINUOUS
 62
    4
 10
1601.0482999999999
 20
1052.1692
 11
1601.7055
 21
1052.0065
  0
LINE
  8
_0-0_LAYER001
  6
CONTINUOUS
 62
    4
 10
1600.4665
 20
1052.2872
 11
1601.0482999999999
 21
1052.1692
  0
LINE
  8
_0-0_LAYER001
  6
CONTINUOUS
 62
    4
 10
1600.4265
 20
1052.2934
 11
1600.4665
 21
1052.2872
  0
LINE
  8
_0-0_LAYER001
  6
CONTINUOUS
 62
    4
 10
1804.4002999999998
 20
997.13220000000001
 11
1806.0144
 21
997.40069999999992
  0
LINE
  8
_0-0_LAYER001
  6
CONTINUOUS
 62
    4
 10
1800.2116999999998
 20
996.43599999999992
 11
1804.4002999999998
 21
997.13220000000001
  0
LINE
  8
_0-0_LAYER001
  6
CONTINUOUS
 62
    4
 10
1796.0187999999998
 20
995.74060000000009
 11
1800.2116999999998
 21
996.43599999999992
  0
LINE
  8
_0-0_LAYER001
  6
CONTINUOUS
 62
    4
 10
1791.8213999999998
 20
995.04690000000005
 11
1796.0187999999998
 21
995.74060000000009
  0
LINE
  8
_0-0_LAYER001
  6
CONTINUOUS
 62
    4
 10
1787.6190999999999
 20
994.35570000000007
 11
1791.8213999999998
 21
995.04690000000005
  0
LINE
  8
_0-0_LAYER001
  6
CONTINUOUS
 62
    4
 10
1783.4141
 20
993.66830000000004
 11
1787.6190999999999
 21
994.35570000000007
  0
LINE
  8
_0-0_LAYER001
  6
CONTINUOUS
 62
    4
 10
1780.9641000000001
 20
993.27019999999993
 11
1783.4141
 21
993.66830000000004
  0
LINE
  8
_0-0_LAYER001
  6
CONTINUOUS
 62
    4
 10
1776.2370999999998
 20
992.50870000000009
 11
1780.9641000000001
 21
993.27019999999993
  0
LINE
  8
_0-0_LAYER001
  6
CONTINUOUS
 62
    4
 10
1768.0464999999999
 20
991.22689999999989
 11
1776.2370999999998
 21
992.50870000000009
  0
LINE
  8
_0-0_LAYER001
  6
CONTINUOUS
 62
    4
 10
1759.7620000000002
 20
990.01050000000009
 11
1768.0464999999999
 21
991.22689999999989
  0
LINE
  8
_0-0_LAYER001
  6
CONTINUOUS
 62
    4
 10
1751.3854000000001
 20
988.89830000000006
 11
1759.7620000000002
 21
990.01050000000009
  0
LINE
  8
_0-0_LAYER001
  6
CONTINUOUS
 62
    4
 10
1742.9132
 20
987.92959999999994
 11
1751.3854000000001
 21
988.89830000000006
  0
LINE
  8
_0-0_LAYER001
  6
CONTINUOUS
 62
    4
 10
1734.3971000000001
 20
987.14949999999999
 11
1742.9132
 21
987.92959999999994
  0
LINE
  8
_0-0_LAYER001
  6
CONTINUOUS
 62
    4
 10
1729.3692999999998
 20
986.79389999999989
 11
1734.3971000000001
 21
987.14949999999999
  0
LINE
  8
_0-0_LAYER001
  6
CONTINUOUS
 62
    4
 10
1726.5940999999998
 20
986.63390000000004
 11
1729.3692999999998
 21
986.79389999999989
  0
LINE
  8
_0-0_LAYER001
  6
CONTINUOUS
 62
    4
 10
1721.9088000000002
 20
986.43139999999994
 11
1726.5940999999998
 21
986.63390000000004
  0
LINE
  8
_0-0_LAYER001
  6
CONTINUOUS
 62
    4
 10
1717.1257999999998
 20
986.327
 11
1721.9088000000002
 21
986.43139999999994
  0
LINE
  8
_0-0_LAYER001
  6
CONTINUOUS
 62
    4
 10
1712.2777999999998
 20
986.34220000000005
 11
1717.1257999999998
 21
986.327
  0
LINE
  8
_0-0_LAYER001
  6
CONTINUOUS
 62
    4
 10
1707.3676
 20
986.49810000000002
 11
1712.2777999999998
 21
986.34220000000005
  0
LINE
  8
_0-0_LAYER001
  6
CONTINUOUS
 62
    4
 10
1702.4703
 20
986.8119999999999
 11
1707.3676
 21
986.49810000000002
  0
LINE
  8
_0-0_LAYER001
  6
CONTINUOUS
 62
    4
 10
1699.4715999999999
 20
987.08860000000004
 11
1702.4703
 21
986.8119999999999
  0
LINE
  8
_0-0_LAYER001
  6
CONTINUOUS
 62
    4
 10
1695.6060000000002
 20
987.54340000000002
 11
1699.4715999999999
 21
987.08860000000004
  0
LINE
  8
_0-0_LAYER001
  6
CONTINUOUS
 62
    4
 10
1689.1776
 20
988.55250000000001
 11
1695.6060000000002
 21
987.54340000000002
  0
LINE
  8
_0-0_LAYER001
  6
CONTINUOUS
 62
    4
 10
1682.7240999999999
 20
989.88539999999989
 11
1689.1776
 21
988.55250000000001
  0
LINE
  8
_0-0_LAYER001
  6
CONTINUOUS
 62
    4
 10
1676.3519000000001
 20
991.51800000000003
 11
1682.7240999999999
 21
989.88539999999989
  0
LINE
  8
_0-0_LAYER001
  6
CONTINUOUS
 62
    4
 10
1670.0745999999999
 20
993.44160000000011
 11
1676.3519000000001
 21
991.51800000000003
  0
LINE
  8
_0-0_LAYER001
  6
CONTINUOUS
 62
    4
 10
1663.9875000000002
 20
995.61869999999999
 11
1670.0745999999999
 21
993.44160000000011
  0
LINE
  8
_0-0_LAYER001
  6
CONTINUOUS
 62
    4
 10
1660.3618999999999
 20
997.06619999999998
 11
1663.9875000000002
 21
995.61869999999999
  0
LINE
  8
_0-0_LAYER001
  6
CONTINUOUS
 62
    4
 10
1656.0619999999999
 20
998.93069999999989
 11
1660.3618999999999
 21
997.06619999999998
  0
LINE
  8
_0-0_LAYER001
  6
CONTINUOUS
 62
    4
 10
1649.0711999999999
 20
1002.308
 11
1656.0619999999999
 21
998.93069999999989
  0
LINE
  8
_0-0_LAYER001
  6
CONTINUOUS
 62
    4
 10
1642.2530000000002
 20
1005.9971
 11
1649.0711999999999
 21
1002.308
  0
LINE
  8
_0-0_LAYER001
  6
CONTINUOUS
 62
    4
 10
1635.6772999999998
 20
1009.8945000000001
 11
1642.2530000000002
 21
1005.9971
  0
LINE
  8
_0-0_LAYER001
  6
CONTINUOUS
 62
    4
 10
1629.3163
 20
1013.9460999999999
 11
1635.6772999999998
 21
1009.8945000000001
  0
LINE
  8
_0-0_LAYER001
  6
CONTINUOUS
 62
    4
 10
1623.1658000000002
 20
1018.0856000000001
 11
1629.3163
 21
1013.9460999999999
  0
LINE
  8
_0-0_LAYER001
  6
CONTINUOUS
 62
    4
 10
1619.6412
 20
1020.537
 11
1623.1658000000002
 21
1018.0856000000001
  0
LINE
  8
_0-0_LAYER001
  6
CONTINUOUS
 62
    4
 10
1617.4121
 20
1022.1084000000001
 11
1619.6412
 21
1020.537
  0
LINE
  8
_0-0_LAYER001
  6
CONTINUOUS
 62
    4
 10
1613.7703999999999
 20
1024.6603
 11
1617.4121
 21
1022.1084000000001
  0
LINE
  8
_0-0_LAYER001
  6
CONTINUOUS
 62
    4
 10
1610.3533000000002
 20
1026.9576999999999
 11
1613.7703999999999
 21
1024.6603
  0
LINE
  8
_0-0_LAYER001
  6
CONTINUOUS
 62
    4
 10
1607.1576
 20
1028.9347
 11
1610.3533000000002
 21
1026.9576999999999
  0
LINE
  8
_0-0_LAYER001
  6
CONTINUOUS
 62
    4
 10
1604.1736999999998
 20
1030.5536999999999
 11
1607.1576
 21
1028.9347
  0
LINE
  8
_0-0_LAYER001
  6
CONTINUOUS
 62
    4
 10
1601.2071000000001
 20
1031.8829000000001
 11
1604.1736999999998
 21
1030.5536999999999
  0
LINE
  8
_0-0_LAYER001
  6
CONTINUOUS
 62
    4
 10
1600.4571999999998
 20
1032.1556
 11
1601.2071000000001
 21
1031.8829000000001
  0
LINE
  8
_0-0_LAYER001
  6
CONTINUOUS
 62
    4
 10
1600.7901999999999
 20
1052.1987999999999
 11
1600.6142
 21
1032.0253
  0
LINE
  8
_0-0_LAYER001
  6
CONTINUOUS
 62
    4
 10
1801.1158
 20
986.71100000000001
 11
1798.8703999999998
 21
995.28440000000001
  0
ARC
  8
_0-0_LAYER001
  6
CONTINUOUS
 62
    4
 10
1804.018
 20
987.471
 40
3
 50
194.67639000000003
 51
270.00000000000006
  0
LINE
  8
_0-0_LAYER001
  6
CONTINUOUS
 62
    4
 10
1807.4603999999999
 20
984.46669999999995
 11
1804.0426000000002
 21
984.46669999999995
  0
LINE
  8
_0-0_LAYER001
  6
CONTINUOUS
 62
    4
 10
1810.4196000000002
 20
986.97350000000006
 11
1812.3537000000001
 21
998.57770000000005
  0
ARC
  8
_0-0_LAYER001
  6
CONTINUOUS
 62
    4
 10
1807.4603999999999
 20
987.46669999999995
 40
3
 50
270
 51
350.53766999999999
  0
LINE
  8
_0-0_LAYER001
  6
CONTINUOUS
 62
    4
 10
1553.6941000000002
 20
1061.5889
 11
1554.5079999999998
 21
1061.8956000000001
  0
LINE
  8
_0-0_LAYER001
  6
CONTINUOUS
 62
    4
 10
1554.5079999999998
 20
1061.8956000000001
 11
1558.0572000000002
 21
1063.2352000000001
  0
LINE
  8
_0-0_LAYER001
  6
CONTINUOUS
 62
    4
 10
1558.0572000000002
 20
1063.2352000000001
 11
1561.6138999999998
 21
1064.5841
  0
LINE
  8
_0-0_LAYER001
  6
CONTINUOUS
 62
    4
 10
1561.6138999999998
 20
1064.5841
 11
1565.1824999999999
 21
1065.9481000000001
  0
LINE
  8
_0-0_LAYER001
  6
CONTINUOUS
 62
    4
 10
1565.1824999999999
 20
1065.9481000000001
 11
1568.7678999999998
 21
1067.3332
  0
LINE
  8
_0-0_LAYER001
  6
CONTINUOUS
 62
    4
 10
1568.7678999999998
 20
1067.3332
 11
1572.3746000000001
 21
1068.7451000000001
  0
LINE
  8
_0-0_LAYER001
  6
CONTINUOUS
 62
    4
 10
1572.3746000000001
 20
1068.7451000000001
 11
1574.4780999999998
 21
1069.5787
  0
LINE
  8
_0-0_LAYER001
  6
CONTINUOUS
 62
    4
 10
1574.4780999999998
 20
1069.5787
 11
1576.5574999999999
 21
1070.4076
  0
LINE
  8
_0-0_LAYER001
  6
CONTINUOUS
 62
    4
 10
1576.5574999999999
 20
1070.4076
 11
1580.1640000000002
 21
1071.8090999999999
  0
LINE
  8
_0-0_LAYER001
  6
CONTINUOUS
 62
    4
 10
1580.1640000000002
 20
1071.8090999999999
 11
1583.7966999999999
 21
1073.0917999999999
  0
LINE
  8
_0-0_LAYER001
  6
CONTINUOUS
 62
    4
 10
1583.7966999999999
 20
1073.0917999999999
 11
1587.4546999999998
 21
1074.1584
  0
LINE
  8
_0-0_LAYER001
  6
CONTINUOUS
 62
    4
 10
1587.4546999999998
 20
1074.1584
 11
1591.1368000000002
 21
1074.9117000000001
  0
LINE
  8
_0-0_LAYER001
  6
CONTINUOUS
 62
    4
 10
1591.1368000000002
 20
1074.9117000000001
 11
1594.8420999999998
 21
1075.2542000000001
  0
LINE
  8
_0-0_LAYER001
  6
CONTINUOUS
 62
    4
 10
1594.8420999999998
 20
1075.2542000000001
 11
1597.0012999999999
 21
1075.2263
  0
LINE
  8
_0-0_LAYER001
  6
CONTINUOUS
 62
    4
 10
1597.0012999999999
 20
1075.2263
 11
1597.8505
 21
1075.1649
  0
LINE
  8
_0-0_LAYER001
  6
CONTINUOUS
 62
    4
 10
1597.8505
 20
1075.1649
 11
1599.3148000000001
 21
1074.9943000000001
  0
LINE
  8
_0-0_LAYER001
  6
CONTINUOUS
 62
    4
 10
1599.3148000000001
 20
1074.9943000000001
 11
1600.7759000000001
 21
1074.7475999999999
  0
LINE
  8
_0-0_LAYER001
  6
CONTINUOUS
 62
    4
 10
1600.7759000000001
 20
1074.7475999999999
 11
1602.2296000000001
 21
1074.4315999999999
  0
LINE
  8
_0-0_LAYER001
  6
CONTINUOUS
 62
    4
 10
1602.2296000000001
 20
1074.4315999999999
 11
1603.6718000000001
 21
1074.0531000000001
  0
LINE
  8
_0-0_LAYER001
  6
CONTINUOUS
 62
    4
 10
1603.6718000000001
 20
1074.0531000000001
 11
1605.0981999999999
 21
1073.6188999999999
  0
LINE
  8
_0-0_LAYER001
  6
CONTINUOUS
 62
    4
 10
1605.0981999999999
 20
1073.6188999999999
 11
1605.9167000000002
 21
1073.3443
  0
LINE
  8
_0-0_LAYER001
  6
CONTINUOUS
 62
    4
 10
1605.9167000000002
 20
1073.3443
 11
1608.4149000000002
 21
1072.3960999999999
  0
LINE
  8
_0-0_LAYER001
  6
CONTINUOUS
 62
    4
 10
1608.4149000000002
 20
1072.3960999999999
 11
1612.5738000000001
 21
1070.4625000000001
  0
LINE
  8
_0-0_LAYER001
  6
CONTINUOUS
 62
    4
 10
1612.5738000000001
 20
1070.4625000000001
 11
1616.5776000000001
 21
1068.2171000000001
  0
LINE
  8
_0-0_LAYER001
  6
CONTINUOUS
 62
    4
 10
1616.5776000000001
 20
1068.2171000000001
 11
1620.4645
 21
1065.7369000000001
  0
LINE
  8
_0-0_LAYER001
  6
CONTINUOUS
 62
    4
 10
1620.4645
 20
1065.7369000000001
 11
1624.2725
 21
1063.0987
  0
LINE
  8
_0-0_LAYER001
  6
CONTINUOUS
 62
    4
 10
1624.2725
 20
1063.0987
 11
1628.0396999999998
 21
1060.3797
  0
LINE
  8
_0-0_LAYER001
  6
CONTINUOUS
 62
    4
 10
1628.0396999999998
 20
1060.3797
 11
1630.2211000000002
 21
1058.7958000000001
  0
LINE
  8
_0-0_LAYER001
  6
CONTINUOUS
 62
    4
 10
1630.2211000000002
 20
1058.7958000000001
 11
1633.5526
 21
1056.4090000000001
  0
LINE
  8
_0-0_LAYER001
  6
CONTINUOUS
 62
    4
 10
1633.5526
 20
1056.4090000000001
 11
1639.3449000000001
 21
1052.3921
  0
LINE
  8
_0-0_LAYER001
  6
CONTINUOUS
 62
    4
 10
1639.3449000000001
 20
1052.3921
 11
1645.2170999999998
 21
1048.5355
  0
LINE
  8
_0-0_LAYER001
  6
CONTINUOUS
 62
    4
 10
1645.2170999999998
 20
1048.5355
 11
1651.1912000000002
 21
1044.8810000000001
  0
LINE
  8
_0-0_LAYER001
  6
CONTINUOUS
 62
    4
 10
1651.1912000000002
 20
1044.8810000000001
 11
1657.2894000000001
 21
1041.4704999999999
  0
LINE
  8
_0-0_LAYER001
  6
CONTINUOUS
 62
    4
 10
1657.2894000000001
 20
1041.4704999999999
 11
1663.5337
 21
1038.3456000000001
  0
LINE
  8
_0-0_LAYER001
  6
CONTINUOUS
 62
    4
 10
1663.5337
 20
1038.3456000000001
 11
1667.2310000000002
 21
1036.6805999999999
  0
LINE
  8
_0-0_LAYER001
  6
CONTINUOUS
 62
    4
 10
1667.2310000000002
 20
1036.6805999999999
 11
1670.2901999999999
 21
1035.4095
  0
LINE
  8
_0-0_LAYER001
  6
CONTINUOUS
 62
    4
 10
1670.2901999999999
 20
1035.4095
 11
1675.6507000000001
 21
1033.4074000000001
  0
LINE
  8
_0-0_LAYER001
  6
CONTINUOUS
 62
    4
 10
1675.6507000000001
 20
1033.4074000000001
 11
1681.1064999999999
 21
1031.6519000000001
  0
LINE
  8
_0-0_LAYER001
  6
CONTINUOUS
 62
    4
 10
1681.1064999999999
 20
1031.6519000000001
 11
1686.6414
 21
1030.1511
  0
LINE
  8
_0-0_LAYER001
  6
CONTINUOUS
 62
    4
 10
1686.6414
 20
1030.1511
 11
1692.2397000000001
 21
1028.9131
  0
LINE
  8
_0-0_LAYER001
  6
CONTINUOUS
 62
    4
 10
1692.2397000000001
 20
1028.9131
 11
1697.8854000000001
 21
1027.9458999999999
  0
LINE
  8
_0-0_LAYER001
  6
CONTINUOUS
 62
    4
 10
1697.8854000000001
 20
1027.9458999999999
 11
1701.1754000000001
 21
1027.5121999999999
  0
LINE
  8
_0-0_LAYER001
  6
CONTINUOUS
 62
    4
 10
1701.1754000000001
 20
1027.5121999999999
 11
1703.6947
 21
1027.2443000000001
  0
LINE
  8
_0-0_LAYER001
  6
CONTINUOUS
 62
    4
 10
1703.6947
 20
1027.2443000000001
 11
1708.0468000000001
 21
1026.9042999999999
  0
LINE
  8
_0-0_LAYER001
  6
CONTINUOUS
 62
    4
 10
1708.0468000000001
 20
1026.9042999999999
 11
1712.4070000000002
 21
1026.7049
  0
LINE
  8
_0-0_LAYER001
  6
CONTINUOUS
 62
    4
 10
1712.4070000000002
 20
1026.7049
 11
1716.7721999999999
 21
1026.6302000000001
  0
LINE
  8
_0-0_LAYER001
  6
CONTINUOUS
 62
    4
 10
1716.7721999999999
 20
1026.6302000000001
 11
1721.1392999999998
 21
1026.6646000000001
  0
LINE
  8
_0-0_LAYER001
  6
CONTINUOUS
 62
    4
 10
1721.1392999999998
 20
1026.6646000000001
 11
1725.5052000000001
 21
1026.7922000000001
  0
LINE
  8
_0-0_LAYER001
  6
CONTINUOUS
 62
    4
 10
1725.5052000000001
 20
1026.7922000000001
 11
1728.0356999999999
 21
1026.9025999999999
  0
LINE
  8
_0-0_LAYER001
  6
CONTINUOUS
 62
    4
 10
1728.0356999999999
 20
1026.9025999999999
 11
1732.7647999999999
 21
1027.1708000000001
  0
LINE
  8
_0-0_LAYER001
  6
CONTINUOUS
 62
    4
 10
1732.7647999999999
 20
1027.1708000000001
 11
1740.9029
 21
1027.8018
  0
LINE
  8
_0-0_LAYER001
  6
CONTINUOUS
 62
    4
 10
1740.9029
 20
1027.8018
 11
1749.0237000000002
 21
1028.6157000000001
  0
LINE
  8
_0-0_LAYER001
  6
CONTINUOUS
 62
    4
 10
1749.0237000000002
 20
1028.6157000000001
 11
1757.1296000000002
 21
1029.577
  0
LINE
  8
_0-0_LAYER001
  6
CONTINUOUS
 62
    4
 10
1757.1296000000002
 20
1029.577
 11
1765.223
 21
1030.6501000000001
  0
LINE
  8
_0-0_LAYER001
  6
CONTINUOUS
 62
    4
 10
1765.223
 20
1030.6501000000001
 11
1773.3065999999999
 21
1031.7997
  0
LINE
  8
_0-0_LAYER001
  6
CONTINUOUS
 62
    4
 10
1773.3065999999999
 20
1031.7997
 11
1777.9915000000001
 21
1032.4875
  0
LINE
  8
_0-0_LAYER001
  6
CONTINUOUS
 62
    4
 10
1777.9915000000001
 20
1032.4875
 11
1780.4263999999998
 21
1032.8484000000001
  0
LINE
  8
_0-0_LAYER001
  6
CONTINUOUS
 62
    4
 10
1780.4263999999998
 20
1032.8484000000001
 11
1784.6233000000002
 21
1033.4744000000001
  0
LINE
  8
_0-0_LAYER001
  6
CONTINUOUS
 62
    4
 10
1784.6233000000002
 20
1033.4744000000001
 11
1788.8191000000002
 21
1034.1044999999999
  0
LINE
  8
_0-0_LAYER001
  6
CONTINUOUS
 62
    4
 10
1788.8191000000002
 20
1034.1044999999999
 11
1793.0138999999999
 21
1034.7376999999999
  0
LINE
  8
_0-0_LAYER001
  6
CONTINUOUS
 62
    4
 10
1793.0138999999999
 20
1034.7376999999999
 11
1797.2080999999998
 21
1035.3733
  0
LINE
  8
_0-0_LAYER001
  6
CONTINUOUS
 62
    4
 10
1797.2080999999998
 20
1035.3733
 11
1801.4018999999998
 21
1036.0102999999999
  0
LINE
  8
_0-0_LAYER001
  6
CONTINUOUS
 62
    4
 10
1801.4018999999998
 20
1036.0102999999999
 11
1803.8341
 21
1036.3801000000001
  0
LINE
  8
_0-0_LAYER001
  6
CONTINUOUS
 62
    4
 10
1558.7973000000002
 20
1044.2764999999999
 11
1560.8591999999999
 21
1045.0533
  0
LINE
  8
_0-0_LAYER001
  6
CONTINUOUS
 62
    4
 10
1560.8591999999999
 20
1045.0533
 11
1564.4268000000002
 21
1046.3997999999999
  0
LINE
  8
_0-0_LAYER001
  6
CONTINUOUS
 62
    4
 10
1564.4268000000002
 20
1046.3997999999999
 11
1568.0187000000001
 21
1047.7620999999999
  0
LINE
  8
_0-0_LAYER001
  6
CONTINUOUS
 62
    4
 10
1568.0187000000001
 20
1047.7620999999999
 11
1571.6390999999999
 21
1049.1459
  0
LINE
  8
_0-0_LAYER001
  6
CONTINUOUS
 62
    4
 10
1571.6390999999999
 20
1049.1459
 11
1575.2919999999999
 21
1050.5571
  0
LINE
  8
_0-0_LAYER001
  6
CONTINUOUS
 62
    4
 10
1575.2919999999999
 20
1050.5571
 11
1578.9712
 21
1051.9974
  0
LINE
  8
_0-0_LAYER001
  6
CONTINUOUS
 62
    4
 10
1578.9712
 20
1051.9974
 11
1581.1264000000001
 21
1052.8515
  0
LINE
  8
_0-0_LAYER001
  6
CONTINUOUS
 62
    4
 10
1581.1264000000001
 20
1052.8515
 11
1583.1500000000001
 21
1053.6582000000001
  0
LINE
  8
_0-0_LAYER001
  6
CONTINUOUS
 62
    4
 10
1583.1500000000001
 20
1053.6582000000001
 11
1586.4218999999998
 21
1054.9295999999999
  0
LINE
  8
_0-0_LAYER001
  6
CONTINUOUS
 62
    4
 10
1586.4218999999998
 20
1054.9295999999999
 11
1589.317
 21
1055.9518
  0
LINE
  8
_0-0_LAYER001
  6
CONTINUOUS
 62
    4
 10
1589.317
 20
1055.9518
 11
1591.7851000000001
 21
1056.6714999999999
  0
LINE
  8
_0-0_LAYER001
  6
CONTINUOUS
 62
    4
 10
1591.7851000000001
 20
1056.6714999999999
 11
1593.7768000000001
 21
1057.079
  0
LINE
  8
_0-0_LAYER001
  6
CONTINUOUS
 62
    4
 10
1593.7768000000001
 20
1057.079
 11
1595.5562
 21
1057.2434000000001
  0
LINE
  8
_0-0_LAYER001
  6
CONTINUOUS
 62
    4
 10
1595.5562
 20
1057.2434000000001
 11
1596.2357000000002
 21
1057.2347
  0
LINE
  8
_0-0_LAYER001
  6
CONTINUOUS
 62
    4
 10
1596.2357000000002
 20
1057.2347
 11
1596.1596
 21
1057.2402
  0
LINE
  8
_0-0_LAYER001
  6
CONTINUOUS
 62
    4
 10
1596.1596
 20
1057.2402
 11
1596.7732000000001
 21
1057.1686999999999
  0
LINE
  8
_0-0_LAYER001
  6
CONTINUOUS
 62
    4
 10
1596.7732000000001
 20
1057.1686999999999
 11
1597.3636000000001
 21
1057.069
  0
LINE
  8
_0-0_LAYER001
  6
CONTINUOUS
 62
    4
 10
1597.3636000000001
 20
1057.069
 11
1598.0311000000002
 21
1056.9239
  0
LINE
  8
_0-0_LAYER001
  6
CONTINUOUS
 62
    4
 10
1598.0311000000002
 20
1056.9239
 11
1598.7646
 21
1056.7312999999999
  0
LINE
  8
_0-0_LAYER001
  6
CONTINUOUS
 62
    4
 10
1598.7646
 20
1056.7312999999999
 11
1599.6138000000001
 21
1056.4729
  0
LINE
  8
_0-0_LAYER001
  6
CONTINUOUS
 62
    4
 10
1599.6138000000001
 20
1056.4729
 11
1599.8579
 21
1056.3910000000001
  0
LINE
  8
_0-0_LAYER001
  6
CONTINUOUS
 62
    4
 10
1599.8579
 20
1056.3910000000001
 11
1601.4178000000002
 21
1055.7989
  0
LINE
  8
_0-0_LAYER001
  6
CONTINUOUS
 62
    4
 10
1601.4178000000002
 20
1055.7989
 11
1604.3654999999999
 21
1054.4285
  0
LINE
  8
_0-0_LAYER001
  6
CONTINUOUS
 62
    4
 10
1604.3654999999999
 20
1054.4285
 11
1607.3265999999999
 21
1052.7679000000001
  0
LINE
  8
_0-0_LAYER001
  6
CONTINUOUS
 62
    4
 10
1607.3265999999999
 20
1052.7679000000001
 11
1610.4942999999998
 21
1050.7465
  0
LINE
  8
_0-0_LAYER001
  6
CONTINUOUS
 62
    4
 10
1610.4942999999998
 20
1050.7465
 11
1613.8789999999999
 21
1048.4015999999999
  0
LINE
  8
_0-0_LAYER001
  6
CONTINUOUS
 62
    4
 10
1613.8789999999999
 20
1048.4015999999999
 11
1617.4847
 21
1045.7991
  0
LINE
  8
_0-0_LAYER001
  6
CONTINUOUS
 62
    4
 10
1617.4847
 20
1045.7991
 11
1619.6916999999999
 21
1044.1967
  0
LINE
  8
_0-0_LAYER001
  6
CONTINUOUS
 62
    4
 10
1619.6916999999999
 20
1044.1967
 11
1623.1815999999999
 21
1041.6964
  0
LINE
  8
_0-0_LAYER001
  6
CONTINUOUS
 62
    4
 10
1623.1815999999999
 20
1041.6964
 11
1629.2737999999999
 21
1037.4713999999999
  0
LINE
  8
_0-0_LAYER001
  6
CONTINUOUS
 62
    4
 10
1629.2737999999999
 20
1037.4713999999999
 11
1635.5776000000001
 21
1033.3314
  0
LINE
  8
_0-0_LAYER001
  6
CONTINUOUS
 62
    4
 10
1635.5776000000001
 20
1033.3314
 11
1642.0983000000001
 21
1029.3425999999999
  0
LINE
  8
_0-0_LAYER001
  6
CONTINUOUS
 62
    4
 10
1642.0983000000001
 20
1029.3425999999999
 11
1648.8642
 21
1025.5586000000001
  0
LINE
  8
_0-0_LAYER001
  6
CONTINUOUS
 62
    4
 10
1648.8642
 20
1025.5586000000001
 11
1655.8072999999999
 21
1022.0841
  0
LINE
  8
_0-0_LAYER001
  6
CONTINUOUS
 62
    4
 10
1655.8072999999999
 20
1022.0841
 11
1660.0807
 21
1020.1596999999999
  0
LINE
  8
_0-0_LAYER001
  6
CONTINUOUS
 62
    4
 10
1660.0807
 20
1020.1596999999999
 11
1663.6858000000002
 21
1018.6618000000001
  0
LINE
  8
_0-0_LAYER001
  6
CONTINUOUS
 62
    4
 10
1663.6858000000002
 20
1018.6618000000001
 11
1669.7419
 21
1016.3997999999999
  0
LINE
  8
_0-0_LAYER001
  6
CONTINUOUS
 62
    4
 10
1669.7419
 20
1016.3997999999999
 11
1675.9917
 21
1014.3887999999999
  0
LINE
  8
_0-0_LAYER001
  6
CONTINUOUS
 62
    4
 10
1675.9917
 20
1014.3887999999999
 11
1682.3404999999998
 21
1012.6674
  0
LINE
  8
_0-0_LAYER001
  6
CONTINUOUS
 62
    4
 10
1682.3404999999998
 20
1012.6674
 11
1688.7746999999999
 21
1011.2445
  0
LINE
  8
_0-0_LAYER001
  6
CONTINUOUS
 62
    4
 10
1688.7746999999999
 20
1011.2445
 11
1695.1884
 21
1010.1457
  0
LINE
  8
_0-0_LAYER001
  6
CONTINUOUS
 62
    4
 10
1695.1884
 20
1010.1457
 11
1699.0472
 21
1009.6369999999999
  0
LINE
  8
_0-0_LAYER001
  6
CONTINUOUS
 62
    4
 10
1699.0472
 20
1009.6369999999999
 11
1702.0418
 21
1009.3186000000001
  0
LINE
  8
_0-0_LAYER001
  6
CONTINUOUS
 62
    4
 10
1702.0418
 20
1009.3186000000001
 11
1706.9342000000001
 21
1008.9364
  0
LINE
  8
_0-0_LAYER001
  6
CONTINUOUS
 62
    4
 10
1706.9342000000001
 20
1008.9364
 11
1711.8418000000001
 21
1008.7119
  0
LINE
  8
_0-0_LAYER001
  6
CONTINUOUS
 62
    4
 10
1711.8418000000001
 20
1008.7119
 11
1716.6891000000001
 21
1008.6289999999999
  0
LINE
  8
_0-0_LAYER001
  6
CONTINUOUS
 62
    4
 10
1716.6891000000001
 20
1008.6289999999999
 11
1721.4731000000002
 21
1008.6666
  0
LINE
  8
_0-0_LAYER001
  6
CONTINUOUS
 62
    4
 10
1721.4731000000002
 20
1008.6666
 11
1726.1606999999999
 21
1008.8036
  0
LINE
  8
_0-0_LAYER001
  6
CONTINUOUS
 62
    4
 10
1726.1606999999999
 20
1008.8036
 11
1728.9378999999999
 21
1008.9249
  0
LINE
  8
_0-0_LAYER001
  6
CONTINUOUS
 62
    4
 10
1728.9378999999999
 20
1008.9249
 11
1733.9702000000002
 21
1009.2103
  0
LINE
  8
_0-0_LAYER001
  6
CONTINUOUS
 62
    4
 10
1733.9702000000002
 20
1009.2103
 11
1742.4964
 21
1009.8713
  0
LINE
  8
_0-0_LAYER001
  6
CONTINUOUS
 62
    4
 10
1742.4964
 20
1009.8713
 11
1750.9812000000002
 21
1010.7217000000001
  0
LINE
  8
_0-0_LAYER001
  6
CONTINUOUS
 62
    4
 10
1750.9812000000002
 20
1010.7217000000001
 11
1759.3726000000001
 21
1011.7167999999999
  0
LINE
  8
_0-0_LAYER001
  6
CONTINUOUS
 62
    4
 10
1759.3726000000001
 20
1011.7167999999999
 11
1767.6732999999999
 21
1012.8175000000001
  0
LINE
  8
_0-0_LAYER001
  6
CONTINUOUS
 62
    4
 10
1767.6732999999999
 20
1012.8175000000001
 11
1775.8809999999999
 21
1013.9847
  0
LINE
  8
_0-0_LAYER001
  6
CONTINUOUS
 62
    4
 10
1775.8809999999999
 20
1013.9847
 11
1780.6181000000001
 21
1014.6802
  0
LINE
  8
_0-0_LAYER001
  6
CONTINUOUS
 62
    4
 10
1780.6181000000001
 20
1014.6802
 11
1783.0735
 21
1015.0441000000001
  0
LINE
  8
_0-0_LAYER001
  6
CONTINUOUS
 62
    4
 10
1783.0735
 20
1015.0441000000001
 11
1787.2876000000001
 21
1015.6726000000001
  0
LINE
  8
_0-0_LAYER001
  6
CONTINUOUS
 62
    4
 10
1787.2876000000001
 20
1015.6726000000001
 11
1791.4991
 21
1016.3051
  0
LINE
  8
_0-0_LAYER001
  6
CONTINUOUS
 62
    4
 10
1791.4991
 20
1016.3051
 11
1795.7058999999999
 21
1016.9402
  0
LINE
  8
_0-0_LAYER001
  6
CONTINUOUS
 62
    4
 10
1795.7058999999999
 20
1016.9402
 11
1799.9081000000001
 21
1017.577
  0
LINE
  8
_0-0_LAYER001
  6
CONTINUOUS
 62
    4
 10
1799.9081000000001
 20
1017.577
 11
1804.1060000000002
 21
1018.2146
  0
LINE
  8
_0-0_LAYER001
  6
CONTINUOUS
 62
    4
 10
1804.1060000000002
 20
1018.2146
 11
1805.7237
 21
1018.4604999999999
  0
LINE
  8
_0-0_LAYER001
  6
CONTINUOUS
 62
    4
 10
1553.2683999999999
 20
1061.4266
 11
1553.6943999999999
 21
1061.5897
  0
ARC
  8
_0-0_LAYER001
  6
CONTINUOUS
 62
    4
 10
1554.3409999999999
 20
1058.6249
 40
3
 50
110.94902000000002
 51
178.70000000000002
  0
LINE
  8
_0-0_LAYER001
  6
CONTINUOUS
 62
    4
 10
1551.2325000000001
 20
1042.8539000000001
 11
1551.2325000000001
 21
1058.5763999999999
  0
LINE
  8
_0-0_LAYER001
  6
CONTINUOUS
 62
    4
 10
1552.5864999999999
 20
1041.9186
 11
1558.7613000000001
 21
1044.2557999999999
  0
ARC
  8
_0-0_LAYER001
  6
CONTINUOUS
 62
    4
 10
1552.2325000000001
 20
1042.8539000000001
 40
1
 50
180
 51
290.73165999999998
  0
LINE
  8
_0-0_LAYER001
  6
CONTINUOUS
 62
    4
 10
1803.9591
 20
1036.4155000000001
 11
1848.4133000000002
 21
1046.0633
  0
LINE
  8
_0-0_LAYER001
  6
CONTINUOUS
 62
    4
 10
1810.7042999999999
 20
1016.5817
 11
1849.3761
 21
1025.6316999999999
  0
LINE
  8
_0-0_LAYER001
  6
CONTINUOUS
 62
    4
 10
1849.3761
 20
1026.5881999999999
 11
1849.3761
 21
1025.6316999999999
  0
ARC
  8
_0-0_LAYER001
  6
CONTINUOUS
 62
    4
 10
1850.3761
 20
1026.5881999999999
 40
1
 50
102.72435
 51
180
  0
LINE
  8
_0-0_LAYER001
  6
CONTINUOUS
 62
    4
 10
1855.1931
 20
1028.7011
 11
1850.1558
 21
1027.5636
  0
ARC
  8
_0-0_LAYER001
  6
CONTINUOUS
 62
    4
 10
1855.4133000000002
 20
1027.7256
 40
1
 50
0
 51
102.72435
  0
LINE
  8
_0-0_LAYER001
  6
CONTINUOUS
 62
    4
 10
1855.6253999999999
 20
1029.2094999999999
 11
1805.4915000000001
 21
1018.329
  0
ARC
  8
_0-0_LAYER001
  6
CONTINUOUS
 62
    4
 10
1855.4133000000002
 20
1030.1867999999999
 40
1
 50
282.24497000000002
 51
0
  0
LINE
  8
_0-0_LAYER001
  6
CONTINUOUS
 62
    4
 10
1855.6311999999998
 20
1008.4688000000001
 11
1806.0472
 21
997.40100000000007
  0
LINE
  8
_0-0_LAYER001
  6
CONTINUOUS
 62
    4
 10
1856.4133000000002
 20
1009.4448
 11
1856.4133000000002
 21
1027.7256
  0
ARC
  8
_0-0_LAYER001
  6
CONTINUOUS
 62
    4
 10
1855.4133000000002
 20
1009.4448
 40
1
 50
282.58296000000001
 51
0.0000000000000254
  0
LINE
  8
_0-0_LAYER001
  6
CONTINUOUS
 62
    4
 10
1848.4133000000002
 20
1047.5204000000001
 11
1848.4133000000002
 21
1046.0633
  0
ARC
  8
_0-0_LAYER001
  6
CONTINUOUS
 62
    4
 10
1849.4133000000002
 20
1047.5204000000001
 40
1
 50
101.73308
 51
180
  0
LINE
  8
_0-0_LAYER001
  6
CONTINUOUS
 62
    4
 10
1855.21
 20
1049.7456
 11
1849.21
 21
1048.4994999999999
  0
LINE
  8
_0-0_LAYER001
  6
CONTINUOUS
 62
    4
 10
1856.4133000000002
 20
1048.7665
 11
1856.4133000000002
 21
1030.1867999999999
  0
ARC
  8
_0-0_LAYER001
  6
CONTINUOUS
 62
    4
 10
1855.4133000000002
 20
1048.7665
 40
1
 50
0
 51
101.73308
  0
LINE
  8
_0-0_LAYER001
  6
CONTINUOUS
 62
    4
 10
1411.6827000000001
 20
977.87660000000005
 11
1403.1473000000001
 21
992.41000000000008
  0
LINE
  8
_0-0_LAYER001
  6
CONTINUOUS
 62
    4
 10
1419.8506
 20
977.22630000000004
 11
1428.1567999999997
 21
987.29179999999997
  0
ARC
  8
_0-0_LAYER001
  6
CONTINUOUS
 62
    4
 10
1415.9942000000001
 20
980.40869999999995
 40
5
 50
210.42578
 51
320.47001
  0
LINE
  8
_0-0_LAYER001
  6
CONTINUOUS
 62
    4
 10
1495.7962000000002
 20
976.75649999999996
 11
1488.4708999999998
 21
988.0625
  0
LINE
  8
_0-0_LAYER001
  6
CONTINUOUS
 62
    4
 10
1504.3058000000001
 20
976.94640000000004
 11
1513.2442000000001
 21
992.19209999999998
  0
ARC
  8
_0-0_LAYER001
  6
CONTINUOUS
 62
    4
 10
1499.9924000000001
 20
979.47530000000006
 40
5
 50
212.93986000000001
 51
329.61716000000001
  0
LINE
  8
_0-0_LAYER001
  6
CONTINUOUS
 62
    4
 10
1543.5877999999998
 20
1016.5039999999999
 11
1546.0158999999999
 21
1016.9078999999999
  0
LINE
  8
_0-0_LAYER001
  6
CONTINUOUS
 62
    4
 10
1539.3987999999999
 20
1015.8078
 11
1543.5877999999998
 21
1016.5039999999999
  0
LINE
  8
_0-0_LAYER001
  6
CONTINUOUS
 62
    4
 10
1535.2049999999999
 20
1015.1122
 11
1539.3987999999999
 21
1015.8078
  0
LINE
  8
_0-0_LAYER001
  6
CONTINUOUS
 62
    4
 10
1531.0061999999998
 20
1014.4182000000001
 11
1535.2049999999999
 21
1015.1122
  0
LINE
  8
_0-0_LAYER001
  6
CONTINUOUS
 62
    4
 10
1526.8020999999999
 20
1013.7267999999999
 11
1531.0061999999998
 21
1014.4182000000001
  0
LINE
  8
_0-0_LAYER001
  6
CONTINUOUS
 62
    4
 10
1522.5953
 20
1013.0391
 11
1526.8020999999999
 21
1013.7267999999999
  0
LINE
  8
_0-0_LAYER001
  6
CONTINUOUS
 62
    4
 10
1520.143
 20
1012.6405999999999
 11
1522.5953
 21
1013.0391
  0
LINE
  8
_0-0_LAYER001
  6
CONTINUOUS
 62
    4
 10
1515.4101999999998
 20
1011.8780999999999
 11
1520.143
 21
1012.6405999999999
  0
LINE
  8
_0-0_LAYER001
  6
CONTINUOUS
 62
    4
 10
1507.2058000000002
 20
1010.5943
 11
1515.4101999999998
 21
1011.8780999999999
  0
LINE
  8
_0-0_LAYER001
  6
CONTINUOUS
 62
    4
 10
1498.8982999999998
 20
1009.3743999999999
 11
1507.2058000000002
 21
1010.5943
  0
LINE
  8
_0-0_LAYER001
  6
CONTINUOUS
 62
    4
 10
1490.4901
 20
1008.2581
 11
1498.8982999999998
 21
1009.3743999999999
  0
LINE
  8
_0-0_LAYER001
  6
CONTINUOUS
 62
    4
 10
1481.9775
 20
1007.2846999999999
 11
1490.4901
 21
1008.2581
  0
LINE
  8
_0-0_LAYER001
  6
CONTINUOUS
 62
    4
 10
1473.4182999999998
 20
1006.5007000000001
 11
1481.9775
 21
1007.2846999999999
  0
LINE
  8
_0-0_LAYER001
  6
CONTINUOUS
 62
    4
 10
1468.3568
 20
1006.1427000000001
 11
1473.4182999999998
 21
1006.5007000000001
  0
LINE
  8
_0-0_LAYER001
  6
CONTINUOUS
 62
    4
 10
1465.5542
 20
1005.9811
 11
1468.3568
 21
1006.1427000000001
  0
LINE
  8
_0-0_LAYER001
  6
CONTINUOUS
 62
    4
 10
1460.8332
 20
1005.7771
 11
1465.5542
 21
1005.9811
  0
LINE
  8
_0-0_LAYER001
  6
CONTINUOUS
 62
    4
 10
1456.0039999999999
 20
1005.6717000000001
 11
1460.8332
 21
1005.7771
  0
LINE
  8
_0-0_LAYER001
  6
CONTINUOUS
 62
    4
 10
1451.1024000000002
 20
1005.6869999999999
 11
1456.0039999999999
 21
1005.6717000000001
  0
LINE
  8
_0-0_LAYER001
  6
CONTINUOUS
 62
    4
 10
1446.1313
 20
1005.8449000000001
 11
1451.1024000000002
 21
1005.6869999999999
  0
LINE
  8
_0-0_LAYER001
  6
CONTINUOUS
 62
    4
 10
1441.1738999999998
 20
1006.1627000000001
 11
1446.1313
 21
1005.8449000000001
  0
LINE
  8
_0-0_LAYER001
  6
CONTINUOUS
 62
    4
 10
1438.1223
 20
1006.4440999999999
 11
1441.1738999999998
 21
1006.1627000000001
  0
LINE
  8
_0-0_LAYER001
  6
CONTINUOUS
 62
    4
 10
1434.1934000000001
 20
1006.9063000000001
 11
1438.1223
 21
1006.4440999999999
  0
LINE
  8
_0-0_LAYER001
  6
CONTINUOUS
 62
    4
 10
1427.6794999999997
 20
1007.9289000000001
 11
1434.1934000000001
 21
1006.9063000000001
  0
LINE
  8
_0-0_LAYER001
  6
CONTINUOUS
 62
    4
 10
1421.1329000000001
 20
1009.2809999999999
 11
1427.6794999999997
 21
1007.9289000000001
  0
LINE
  8
_0-0_LAYER001
  6
CONTINUOUS
 62
    4
 10
1414.6699000000001
 20
1010.9368999999999
 11
1421.1329000000001
 21
1009.2809999999999
  0
LINE
  8
_0-0_LAYER001
  6
CONTINUOUS
 62
    4
 10
1408.3040000000001
 20
1012.8876
 11
1414.6699000000001
 21
1010.9368999999999
  0
LINE
  8
_0-0_LAYER001
  6
CONTINUOUS
 62
    4
 10
1402.1392000000001
 20
1015.0925999999999
 11
1408.3040000000001
 21
1012.8876
  0
LINE
  8
_0-0_LAYER001
  6
CONTINUOUS
 62
    4
 10
1398.4526000000001
 20
1016.5643
 11
1402.1392000000001
 21
1015.0925999999999
  0
LINE
  8
_0-0_LAYER001
  6
CONTINUOUS
 62
    4
 10
1394.0882999999999
 20
1018.4567999999999
 11
1398.4526000000001
 21
1016.5643
  0
LINE
  8
_0-0_LAYER001
  6
CONTINUOUS
 62
    4
 10
1387.0192
 20
1021.8717999999999
 11
1394.0882999999999
 21
1018.4567999999999
  0
LINE
  8
_0-0_LAYER001
  6
CONTINUOUS
 62
    4
 10
1380.1262999999999
 20
1025.6014
 11
1387.0192
 21
1021.8717999999999
  0
LINE
  8
_0-0_LAYER001
  6
CONTINUOUS
 62
    4
 10
1373.4893
 20
1029.5351000000001
 11
1380.1262999999999
 21
1025.6014
  0
LINE
  8
_0-0_LAYER001
  6
CONTINUOUS
 62
    4
 10
1367.0799999999999
 20
1033.6176
 11
1373.4893
 21
1029.5351000000001
  0
LINE
  8
_0-0_LAYER001
  6
CONTINUOUS
 62
    4
 10
1360.8958000000002
 20
1037.7797
 11
1367.0799999999999
 21
1033.6176
  0
LINE
  8
_0-0_LAYER001
  6
CONTINUOUS
 62
    4
 10
1357.3534999999997
 20
1040.2434000000001
 11
1360.8958000000002
 21
1037.7797
  0
LINE
  8
_0-0_LAYER001
  6
CONTINUOUS
 62
    4
 10
1355.1215
 20
1041.8169
 11
1357.3534999999997
 21
1040.2434000000001
  0
LINE
  8
_0-0_LAYER001
  6
CONTINUOUS
 62
    4
 10
1351.4978999999998
 20
1044.3561
 11
1355.1215
 21
1041.8169
  0
LINE
  8
_0-0_LAYER001
  6
CONTINUOUS
 62
    4
 10
1348.1283000000003
 20
1046.6215999999999
 11
1351.4978999999998
 21
1044.3561
  0
LINE
  8
_0-0_LAYER001
  6
CONTINUOUS
 62
    4
 10
1345.0132000000003
 20
1048.5486000000001
 11
1348.1283000000003
 21
1046.6215999999999
  0
LINE
  8
_0-0_LAYER001
  6
CONTINUOUS
 62
    4
 10
1342.146
 20
1050.1043999999999
 11
1345.0132000000003
 21
1048.5486000000001
  0
LINE
  8
_0-0_LAYER001
  6
CONTINUOUS
 62
    4
 10
1339.3148999999999
 20
1051.3728000000001
 11
1342.146
 21
1050.1043999999999
  0
LINE
  8
_0-0_LAYER001
  6
CONTINUOUS
 62
    4
 10
1337.8516999999999
 20
1051.9049
 11
1339.3148999999999
 21
1051.3728000000001
  0
LINE
  8
_0-0_LAYER001
  6
CONTINUOUS
 62
    4
 10
1337.6705999999999
 20
1051.9629
 11
1337.8516999999999
 21
1051.9049
  0
LINE
  8
_0-0_LAYER001
  6
CONTINUOUS
 62
    4
 10
1336.8823
 20
1052.1909000000001
 11
1337.6705999999999
 21
1051.9629
  0
LINE
  8
_0-0_LAYER001
  6
CONTINUOUS
 62
    4
 10
1336.2252000000001
 20
1052.3535999999999
 11
1336.8823
 21
1052.1909000000001
  0
LINE
  8
_0-0_LAYER001
  6
CONTINUOUS
 62
    4
 10
1335.6433999999999
 20
1052.4716000000001
 11
1336.2252000000001
 21
1052.3535999999999
  0
LINE
  8
_0-0_LAYER001
  6
CONTINUOUS
 62
    4
 10
1335.6033
 20
1052.4776999999999
 11
1335.6433999999999
 21
1052.4716000000001
  0
LINE
  8
_0-0_LAYER001
  6
CONTINUOUS
 62
    4
 10
1539.5772000000002
 20
997.31649999999991
 11
1541.1913
 21
997.58500000000004
  0
LINE
  8
_0-0_LAYER001
  6
CONTINUOUS
 62
    4
 10
1535.3886000000002
 20
996.62040000000002
 11
1539.5772000000002
 21
997.31649999999991
  0
LINE
  8
_0-0_LAYER001
  6
CONTINUOUS
 62
    4
 10
1531.1957000000002
 20
995.92499999999995
 11
1535.3886000000002
 21
996.62040000000002
  0
LINE
  8
_0-0_LAYER001
  6
CONTINUOUS
 62
    4
 10
1526.9982
 20
995.23119999999994
 11
1531.1957000000002
 21
995.92499999999995
  0
LINE
  8
_0-0_LAYER001
  6
CONTINUOUS
 62
    4
 10
1522.7959000000001
 20
994.53999999999996
 11
1526.9982
 21
995.23119999999994
  0
LINE
  8
_0-0_LAYER001
  6
CONTINUOUS
 62
    4
 10
1518.5909999999999
 20
993.85269999999991
 11
1522.7959000000001
 21
994.53999999999996
  0
LINE
  8
_0-0_LAYER001
  6
CONTINUOUS
 62
    4
 10
1516.1410000000001
 20
993.45450000000005
 11
1518.5909999999999
 21
993.85269999999991
  0
LINE
  8
_0-0_LAYER001
  6
CONTINUOUS
 62
    4
 10
1511.4140000000002
 20
992.69299999999998
 11
1516.1410000000001
 21
993.45450000000005
  0
LINE
  8
_0-0_LAYER001
  6
CONTINUOUS
 62
    4
 10
1503.2233999999999
 20
991.41129999999998
 11
1511.4140000000002
 21
992.69299999999998
  0
LINE
  8
_0-0_LAYER001
  6
CONTINUOUS
 62
    4
 10
1494.9387999999999
 20
990.19479999999999
 11
1503.2233999999999
 21
991.41129999999998
  0
LINE
  8
_0-0_LAYER001
  6
CONTINUOUS
 62
    4
 10
1486.5621999999998
 20
989.08259999999996
 11
1494.9387999999999
 21
990.19479999999999
  0
LINE
  8
_0-0_LAYER001
  6
CONTINUOUS
 62
    4
 10
1478.0900999999999
 20
988.11390000000006
 11
1486.5621999999998
 21
989.08259999999996
  0
LINE
  8
_0-0_LAYER001
  6
CONTINUOUS
 62
    4
 10
1469.5740000000001
 20
987.33380000000011
 11
1478.0900999999999
 21
988.11390000000006
  0
LINE
  8
_0-0_LAYER001
  6
CONTINUOUS
 62
    4
 10
1464.5461
 20
986.97820000000002
 11
1469.5740000000001
 21
987.33380000000011
  0
LINE
  8
_0-0_LAYER001
  6
CONTINUOUS
 62
    4
 10
1461.7709
 20
986.81819999999993
 11
1464.5461
 21
986.97820000000002
  0
LINE
  8
_0-0_LAYER001
  6
CONTINUOUS
 62
    4
 10
1457.0855999999999
 20
986.61580000000004
 11
1461.7709
 21
986.81819999999993
  0
LINE
  8
_0-0_LAYER001
  6
CONTINUOUS
 62
    4
 10
1452.3027000000002
 20
986.51140000000009
 11
1457.0855999999999
 21
986.61580000000004
  0
LINE
  8
_0-0_LAYER001
  6
CONTINUOUS
 62
    4
 10
1447.4546999999998
 20
986.52659999999992
 11
1452.3027000000002
 21
986.51140000000009
  0
LINE
  8
_0-0_LAYER001
  6
CONTINUOUS
 62
    4
 10
1442.5445
 20
986.68249999999989
 11
1447.4546999999998
 21
986.52659999999992
  0
LINE
  8
_0-0_LAYER001
  6
CONTINUOUS
 62
    4
 10
1437.6471999999999
 20
986.99639999999999
 11
1442.5445
 21
986.68249999999989
  0
LINE
  8
_0-0_LAYER001
  6
CONTINUOUS
 62
    4
 10
1434.6484
 20
987.27289999999994
 11
1437.6471999999999
 21
986.99639999999999
  0
LINE
  8
_0-0_LAYER001
  6
CONTINUOUS
 62
    4
 10
1430.7829000000002
 20
987.72769999999991
 11
1434.6484
 21
987.27289999999994
  0
LINE
  8
_0-0_LAYER001
  6
CONTINUOUS
 62
    4
 10
1424.3544999999999
 20
988.73690000000011
 11
1430.7829000000002
 21
987.72769999999991
  0
LINE
  8
_0-0_LAYER001
  6
CONTINUOUS
 62
    4
 10
1417.9009999999998
 20
990.06970000000001
 11
1424.3544999999999
 21
988.73690000000011
  0
LINE
  8
_0-0_LAYER001
  6
CONTINUOUS
 62
    4
 10
1411.5288
 20
991.7023999999999
 11
1417.9009999999998
 21
990.06970000000001
  0
LINE
  8
_0-0_LAYER001
  6
CONTINUOUS
 62
    4
 10
1405.2514999999999
 20
993.6259
 11
1411.5288
 21
991.7023999999999
  0
LINE
  8
_0-0_LAYER001
  6
CONTINUOUS
 62
    4
 10
1399.1643999999999
 20
995.80310000000009
 11
1405.2514999999999
 21
993.6259
  0
LINE
  8
_0-0_LAYER001
  6
CONTINUOUS
 62
    4
 10
1395.5387999999998
 20
997.2505000000001
 11
1399.1643999999999
 21
995.80310000000009
  0
LINE
  8
_0-0_LAYER001
  6
CONTINUOUS
 62
    4
 10
1391.2389000000003
 20
999.11509999999998
 11
1395.5387999999998
 21
997.2505000000001
  0
LINE
  8
_0-0_LAYER001
  6
CONTINUOUS
 62
    4
 10
1384.248
 20
1002.4922999999999
 11
1391.2389000000003
 21
999.11509999999998
  0
LINE
  8
_0-0_LAYER001
  6
CONTINUOUS
 62
    4
 10
1377.4299000000001
 20
1006.1814999999999
 11
1384.248
 21
1002.4922999999999
  0
LINE
  8
_0-0_LAYER001
  6
CONTINUOUS
 62
    4
 10
1370.8541
 20
1010.0788
 11
1377.4299000000001
 21
1006.1814999999999
  0
LINE
  8
_0-0_LAYER001
  6
CONTINUOUS
 62
    4
 10
1364.4931999999999
 20
1014.1305
 11
1370.8541
 21
1010.0788
  0
LINE
  8
_0-0_LAYER001
  6
CONTINUOUS
 62
    4
 10
1358.3425999999999
 20
1018.27
 11
1364.4931999999999
 21
1014.1305
  0
LINE
  8
_0-0_LAYER001
  6
CONTINUOUS
 62
    4
 10
1354.8181
 20
1020.7212999999999
 11
1358.3425999999999
 21
1018.27
  0
LINE
  8
_0-0_LAYER001
  6
CONTINUOUS
 62
    4
 10
1352.5889000000002
 20
1022.2927
 11
1354.8181
 21
1020.7212999999999
  0
LINE
  8
_0-0_LAYER001
  6
CONTINUOUS
 62
    4
 10
1348.9472000000001
 20
1024.8445999999999
 11
1352.5889000000002
 21
1022.2927
  0
LINE
  8
_0-0_LAYER001
  6
CONTINUOUS
 62
    4
 10
1345.5300999999999
 20
1027.1421
 11
1348.9472000000001
 21
1024.8445999999999
  0
LINE
  8
_0-0_LAYER001
  6
CONTINUOUS
 62
    4
 10
1342.3344999999999
 20
1029.1189999999999
 11
1345.5300999999999
 21
1027.1421
  0
LINE
  8
_0-0_LAYER001
  6
CONTINUOUS
 62
    4
 10
1339.3505
 20
1030.7381
 11
1342.3344999999999
 21
1029.1189999999999
  0
LINE
  8
_0-0_LAYER001
  6
CONTINUOUS
 62
    4
 10
1336.384
 20
1032.0672
 11
1339.3505
 21
1030.7381
  0
LINE
  8
_0-0_LAYER001
  6
CONTINUOUS
 62
    4
 10
1335.634
 20
1032.3399999999999
 11
1336.384
 21
1032.0672
  0
LINE
  8
_0-0_LAYER001
  6
CONTINUOUS
 62
    4
 10
1335.9671000000001
 20
1052.3831
 11
1335.7909999999997
 21
1032.2097000000001
  0
LINE
  8
_0-0_LAYER001
  6
CONTINUOUS
 62
    4
 10
1536.2927
 20
986.89529999999991
 11
1534.0473000000002
 21
995.4686999999999
  0
ARC
  8
_0-0_LAYER001
  6
CONTINUOUS
 62
    4
 10
1539.1948000000002
 20
987.6554000000001
 40
3
 50
194.67639000000003
 51
270.00000000000006
  0
LINE
  8
_0-0_LAYER001
  6
CONTINUOUS
 62
    4
 10
1542.6372999999999
 20
984.65110000000004
 11
1539.2195000000002
 21
984.65110000000004
  0
LINE
  8
_0-0_LAYER001
  6
CONTINUOUS
 62
    4
 10
1545.5965000000001
 20
987.15789999999993
 11
1547.5304999999998
 21
998.76199999999994
  0
ARC
  8
_0-0_LAYER001
  6
CONTINUOUS
 62
    4
 10
1542.6372999999999
 20
987.65110000000004
 40
3
 50
270
 51
350.53766999999999
  0
LINE
  8
_0-0_LAYER001
  6
CONTINUOUS
 62
    4
 10
1288.8708999999999
 20
1061.7733000000001
 11
1289.6848
 21
1062.0799
  0
LINE
  8
_0-0_LAYER001
  6
CONTINUOUS
 62
    4
 10
1289.6848
 20
1062.0799
 11
1293.2340999999999
 21
1063.4195
  0
LINE
  8
_0-0_LAYER001
  6
CONTINUOUS
 62
    4
 10
1293.2340999999999
 20
1063.4195
 11
1296.7907
 21
1064.7683999999999
  0
LINE
  8
_0-0_LAYER001
  6
CONTINUOUS
 62
    4
 10
1296.7907
 20
1064.7683999999999
 11
1300.3594000000001
 21
1066.1324
  0
LINE
  8
_0-0_LAYER001
  6
CONTINUOUS
 62
    4
 10
1300.3594000000001
 20
1066.1324
 11
1303.9447
 21
1067.5174999999999
  0
LINE
  8
_0-0_LAYER001
  6
CONTINUOUS
 62
    4
 10
1303.9447
 20
1067.5174999999999
 11
1307.5514000000001
 21
1068.9295
  0
LINE
  8
_0-0_LAYER001
  6
CONTINUOUS
 62
    4
 10
1307.5514000000001
 20
1068.9295
 11
1309.655
 21
1069.7630999999999
  0
LINE
  8
_0-0_LAYER001
  6
CONTINUOUS
 62
    4
 10
1309.655
 20
1069.7630999999999
 11
1311.7343000000001
 21
1070.5920000000001
  0
LINE
  8
_0-0_LAYER001
  6
CONTINUOUS
 62
    4
 10
1311.7343000000001
 20
1070.5920000000001
 11
1315.3407999999999
 21
1071.9934000000001
  0
LINE
  8
_0-0_LAYER001
  6
CONTINUOUS
 62
    4
 10
1315.3407999999999
 20
1071.9934000000001
 11
1318.9735999999998
 21
1073.2761
  0
LINE
  8
_0-0_LAYER001
  6
CONTINUOUS
 62
    4
 10
1318.9735999999998
 20
1073.2761
 11
1322.6315
 21
1074.3427999999999
  0
LINE
  8
_0-0_LAYER001
  6
CONTINUOUS
 62
    4
 10
1322.6315
 20
1074.3427999999999
 11
1326.3136
 21
1075.096
  0
LINE
  8
_0-0_LAYER001
  6
CONTINUOUS
 62
    4
 10
1326.3136
 20
1075.096
 11
1330.0189
 21
1075.4385
  0
LINE
  8
_0-0_LAYER001
  6
CONTINUOUS
 62
    4
 10
1330.0189
 20
1075.4385
 11
1332.1782000000003
 21
1075.4105999999999
  0
LINE
  8
_0-0_LAYER001
  6
CONTINUOUS
 62
    4
 10
1332.1782000000003
 20
1075.4105999999999
 11
1333.0273999999999
 21
1075.3492000000001
  0
LINE
  8
_0-0_LAYER001
  6
CONTINUOUS
 62
    4
 10
1333.0273999999999
 20
1075.3492000000001
 11
1334.4917
 21
1075.1786999999999
  0
LINE
  8
_0-0_LAYER001
  6
CONTINUOUS
 62
    4
 10
1334.4917
 20
1075.1786999999999
 11
1335.9528
 21
1074.9319
  0
LINE
  8
_0-0_LAYER001
  6
CONTINUOUS
 62
    4
 10
1335.9528
 20
1074.9319
 11
1337.4065000000001
 21
1074.6159
  0
LINE
  8
_0-0_LAYER001
  6
CONTINUOUS
 62
    4
 10
1337.4065000000001
 20
1074.6159
 11
1338.8486
 21
1074.2374
  0
LINE
  8
_0-0_LAYER001
  6
CONTINUOUS
 62
    4
 10
1338.8486
 20
1074.2374
 11
1340.2750000000001
 21
1073.8033
  0
LINE
  8
_0-0_LAYER001
  6
CONTINUOUS
 62
    4
 10
1340.2750000000001
 20
1073.8033
 11
1341.0934999999999
 21
1073.5287000000001
  0
LINE
  8
_0-0_LAYER001
  6
CONTINUOUS
 62
    4
 10
1341.0934999999999
 20
1073.5287000000001
 11
1343.5917999999997
 21
1072.5804000000001
  0
LINE
  8
_0-0_LAYER001
  6
CONTINUOUS
 62
    4
 10
1343.5917999999997
 20
1072.5804000000001
 11
1347.7507000000001
 21
1070.6469
  0
LINE
  8
_0-0_LAYER001
  6
CONTINUOUS
 62
    4
 10
1347.7507000000001
 20
1070.6469
 11
1351.7545
 21
1068.4014999999999
  0
LINE
  8
_0-0_LAYER001
  6
CONTINUOUS
 62
    4
 10
1351.7545
 20
1068.4014999999999
 11
1355.6414
 21
1065.9212
  0
LINE
  8
_0-0_LAYER001
  6
CONTINUOUS
 62
    4
 10
1355.6414
 20
1065.9212
 11
1359.4494
 21
1063.2831000000001
  0
LINE
  8
_0-0_LAYER001
  6
CONTINUOUS
 62
    4
 10
1359.4494
 20
1063.2831000000001
 11
1363.2166000000002
 21
1060.5640000000001
  0
LINE
  8
_0-0_LAYER001
  6
CONTINUOUS
 62
    4
 10
1363.2166000000002
 20
1060.5640000000001
 11
1365.3979999999999
 21
1058.9802
  0
LINE
  8
_0-0_LAYER001
  6
CONTINUOUS
 62
    4
 10
1365.3979999999999
 20
1058.9802
 11
1368.7294999999999
 21
1056.5934
  0
LINE
  8
_0-0_LAYER001
  6
CONTINUOUS
 62
    4
 10
1368.7294999999999
 20
1056.5934
 11
1374.5217
 21
1052.5763999999999
  0
LINE
  8
_0-0_LAYER001
  6
CONTINUOUS
 62
    4
 10
1374.5217
 20
1052.5763999999999
 11
1380.3939
 21
1048.7198000000001
  0
LINE
  8
_0-0_LAYER001
  6
CONTINUOUS
 62
    4
 10
1380.3939
 20
1048.7198000000001
 11
1386.3680999999999
 21
1045.0653
  0
LINE
  8
_0-0_LAYER001
  6
CONTINUOUS
 62
    4
 10
1386.3680999999999
 20
1045.0653
 11
1392.4663
 21
1041.6548
  0
LINE
  8
_0-0_LAYER001
  6
CONTINUOUS
 62
    4
 10
1392.4663
 20
1041.6548
 11
1398.7104999999999
 21
1038.53
  0
LINE
  8
_0-0_LAYER001
  6
CONTINUOUS
 62
    4
 10
1398.7104999999999
 20
1038.53
 11
1402.4078
 21
1036.865
  0
LINE
  8
_0-0_LAYER001
  6
CONTINUOUS
 62
    4
 10
1402.4078
 20
1036.865
 11
1405.4671000000003
 21
1035.5939000000001
  0
LINE
  8
_0-0_LAYER001
  6
CONTINUOUS
 62
    4
 10
1405.4671000000003
 20
1035.5939000000001
 11
1410.8276000000001
 21
1033.5916999999999
  0
LINE
  8
_0-0_LAYER001
  6
CONTINUOUS
 62
    4
 10
1410.8276000000001
 20
1033.5916999999999
 11
1416.2833000000001
 21
1031.8362999999999
  0
LINE
  8
_0-0_LAYER001
  6
CONTINUOUS
 62
    4
 10
1416.2833000000001
 20
1031.8362999999999
 11
1421.8182999999999
 21
1030.3354999999999
  0
LINE
  8
_0-0_LAYER001
  6
CONTINUOUS
 62
    4
 10
1421.8182999999999
 20
1030.3354999999999
 11
1427.4166
 21
1029.0975000000001
  0
LINE
  8
_0-0_LAYER001
  6
CONTINUOUS
 62
    4
 10
1427.4166
 20
1029.0975000000001
 11
1433.0623000000001
 21
1028.1303
  0
LINE
  8
_0-0_LAYER001
  6
CONTINUOUS
 62
    4
 10
1433.0623000000001
 20
1028.1303
 11
1436.3523
 21
1027.6965
  0
LINE
  8
_0-0_LAYER001
  6
CONTINUOUS
 62
    4
 10
1436.3523
 20
1027.6965
 11
1438.8715999999999
 21
1027.4286999999999
  0
LINE
  8
_0-0_LAYER001
  6
CONTINUOUS
 62
    4
 10
1438.8715999999999
 20
1027.4286999999999
 11
1443.2237
 21
1027.0886
  0
LINE
  8
_0-0_LAYER001
  6
CONTINUOUS
 62
    4
 10
1443.2237
 20
1027.0886
 11
1447.5839000000001
 21
1026.8892000000001
  0
LINE
  8
_0-0_LAYER001
  6
CONTINUOUS
 62
    4
 10
1447.5839000000001
 20
1026.8892000000001
 11
1451.9490999999998
 21
1026.8145999999999
  0
LINE
  8
_0-0_LAYER001
  6
CONTINUOUS
 62
    4
 10
1451.9490999999998
 20
1026.8145999999999
 11
1456.3162000000002
 21
1026.8489
  0
LINE
  8
_0-0_LAYER001
  6
CONTINUOUS
 62
    4
 10
1456.3162000000002
 20
1026.8489
 11
1460.6821
 21
1026.9765
  0
LINE
  8
_0-0_LAYER001
  6
CONTINUOUS
 62
    4
 10
1460.6821
 20
1026.9765
 11
1463.2125000000001
 21
1027.087
  0
LINE
  8
_0-0_LAYER001
  6
CONTINUOUS
 62
    4
 10
1463.2125000000001
 20
1027.087
 11
1467.9416000000001
 21
1027.3552
  0
LINE
  8
_0-0_LAYER001
  6
CONTINUOUS
 62
    4
 10
1467.9416000000001
 20
1027.3552
 11
1476.0798
 21
1027.9862000000001
  0
LINE
  8
_0-0_LAYER001
  6
CONTINUOUS
 62
    4
 10
1476.0798
 20
1027.9862000000001
 11
1484.2006000000001
 21
1028.8
  0
LINE
  8
_0-0_LAYER001
  6
CONTINUOUS
 62
    4
 10
1484.2006000000001
 20
1028.8
 11
1492.3063999999999
 21
1029.7612999999999
  0
LINE
  8
_0-0_LAYER001
  6
CONTINUOUS
 62
    4
 10
1492.3063999999999
 20
1029.7612999999999
 11
1500.3998999999999
 21
1030.8344999999999
  0
LINE
  8
_0-0_LAYER001
  6
CONTINUOUS
 62
    4
 10
1500.3998999999999
 20
1030.8344999999999
 11
1508.4834000000001
 21
1031.9840999999999
  0
LINE
  8
_0-0_LAYER001
  6
CONTINUOUS
 62
    4
 10
1508.4834000000001
 20
1031.9840999999999
 11
1513.1682999999998
 21
1032.6719000000001
  0
LINE
  8
_0-0_LAYER001
  6
CONTINUOUS
 62
    4
 10
1513.1682999999998
 20
1032.6719000000001
 11
1515.6032
 21
1033.0327
  0
LINE
  8
_0-0_LAYER001
  6
CONTINUOUS
 62
    4
 10
1515.6032
 20
1033.0327
 11
1519.8002000000001
 21
1033.6587
  0
LINE
  8
_0-0_LAYER001
  6
CONTINUOUS
 62
    4
 10
1519.8002000000001
 20
1033.6587
 11
1523.9960000000001
 21
1034.2888
  0
LINE
  8
_0-0_LAYER001
  6
CONTINUOUS
 62
    4
 10
1523.9960000000001
 20
1034.2888
 11
1528.1907999999999
 21
1034.9221
  0
LINE
  8
_0-0_LAYER001
  6
CONTINUOUS
 62
    4
 10
1528.1907999999999
 20
1034.9221
 11
1532.3850000000002
 21
1035.5577000000001
  0
LINE
  8
_0-0_LAYER001
  6
CONTINUOUS
 62
    4
 10
1532.3850000000002
 20
1035.5577000000001
 11
1536.5787
 21
1036.1947
  0
LINE
  8
_0-0_LAYER001
  6
CONTINUOUS
 62
    4
 10
1536.5787
 20
1036.1947
 11
1539.011
 21
1036.5644
  0
LINE
  8
_0-0_LAYER001
  6
CONTINUOUS
 62
    4
 10
1293.9742000000001
 20
1044.4608000000001
 11
1296.0361
 21
1045.2376999999999
  0
LINE
  8
_0-0_LAYER001
  6
CONTINUOUS
 62
    4
 10
1296.0361
 20
1045.2376999999999
 11
1299.6035999999999
 21
1046.5842
  0
LINE
  8
_0-0_LAYER001
  6
CONTINUOUS
 62
    4
 10
1299.6035999999999
 20
1046.5842
 11
1303.1954999999998
 21
1047.9464
  0
LINE
  8
_0-0_LAYER001
  6
CONTINUOUS
 62
    4
 10
1303.1954999999998
 20
1047.9464
 11
1306.8159000000001
 21
1049.3302000000001
  0
LINE
  8
_0-0_LAYER001
  6
CONTINUOUS
 62
    4
 10
1306.8159000000001
 20
1049.3302000000001
 11
1310.4689000000003
 21
1050.7414000000001
  0
LINE
  8
_0-0_LAYER001
  6
CONTINUOUS
 62
    4
 10
1310.4689000000003
 20
1050.7414000000001
 11
1314.1481000000001
 21
1052.1818000000001
  0
LINE
  8
_0-0_LAYER001
  6
CONTINUOUS
 62
    4
 10
1314.1481000000001
 20
1052.1818000000001
 11
1316.3033
 21
1053.0358000000001
  0
LINE
  8
_0-0_LAYER001
  6
CONTINUOUS
 62
    4
 10
1316.3033
 20
1053.0358000000001
 11
1318.3269
 21
1053.8425
  0
LINE
  8
_0-0_LAYER001
  6
CONTINUOUS
 62
    4
 10
1318.3269
 20
1053.8425
 11
1321.5987
 21
1055.1139000000001
  0
LINE
  8
_0-0_LAYER001
  6
CONTINUOUS
 62
    4
 10
1321.5987
 20
1055.1139000000001
 11
1324.4938999999999
 21
1056.1361999999999
  0
LINE
  8
_0-0_LAYER001
  6
CONTINUOUS
 62
    4
 10
1324.4938999999999
 20
1056.1361999999999
 11
1326.962
 21
1056.8559
  0
LINE
  8
_0-0_LAYER001
  6
CONTINUOUS
 62
    4
 10
1326.962
 20
1056.8559
 11
1328.9537
 21
1057.2633000000001
  0
LINE
  8
_0-0_LAYER001
  6
CONTINUOUS
 62
    4
 10
1328.9537
 20
1057.2633000000001
 11
1330.7329999999999
 21
1057.4277999999999
  0
LINE
  8
_0-0_LAYER001
  6
CONTINUOUS
 62
    4
 10
1330.7329999999999
 20
1057.4277999999999
 11
1331.4126000000001
 21
1057.4190000000001
  0
LINE
  8
_0-0_LAYER001
  6
CONTINUOUS
 62
    4
 10
1331.4126000000001
 20
1057.4190000000001
 11
1331.3364999999999
 21
1057.4245000000001
  0
LINE
  8
_0-0_LAYER001
  6
CONTINUOUS
 62
    4
 10
1331.3364999999999
 20
1057.4245000000001
 11
1331.9501
 21
1057.3530000000001
  0
LINE
  8
_0-0_LAYER001
  6
CONTINUOUS
 62
    4
 10
1331.9501
 20
1057.3530000000001
 11
1332.5405000000001
 21
1057.2533000000001
  0
LINE
  8
_0-0_LAYER001
  6
CONTINUOUS
 62
    4
 10
1332.5405000000001
 20
1057.2533000000001
 11
1333.2079000000001
 21
1057.1081999999999
  0
LINE
  8
_0-0_LAYER001
  6
CONTINUOUS
 62
    4
 10
1333.2079000000001
 20
1057.1081999999999
 11
1333.9414999999999
 21
1056.9157
  0
LINE
  8
_0-0_LAYER001
  6
CONTINUOUS
 62
    4
 10
1333.9414999999999
 20
1056.9157
 11
1334.7907
 21
1056.6572000000001
  0
LINE
  8
_0-0_LAYER001
  6
CONTINUOUS
 62
    4
 10
1334.7907
 20
1056.6572000000001
 11
1335.0346999999999
 21
1056.5753
  0
LINE
  8
_0-0_LAYER001
  6
CONTINUOUS
 62
    4
 10
1335.0346999999999
 20
1056.5753
 11
1336.5945999999999
 21
1055.9833000000001
  0
LINE
  8
_0-0_LAYER001
  6
CONTINUOUS
 62
    4
 10
1336.5945999999999
 20
1055.9833000000001
 11
1339.5423000000001
 21
1054.6128000000001
  0
LINE
  8
_0-0_LAYER001
  6
CONTINUOUS
 62
    4
 10
1339.5423000000001
 20
1054.6128000000001
 11
1342.5034000000001
 21
1052.9521999999999
  0
LINE
  8
_0-0_LAYER001
  6
CONTINUOUS
 62
    4
 10
1342.5034000000001
 20
1052.9521999999999
 11
1345.6711
 21
1050.9309000000001
  0
LINE
  8
_0-0_LAYER001
  6
CONTINUOUS
 62
    4
 10
1345.6711
 20
1050.9309000000001
 11
1349.0558000000001
 21
1048.586
  0
LINE
  8
_0-0_LAYER001
  6
CONTINUOUS
 62
    4
 10
1349.0558000000001
 20
1048.586
 11
1352.6614999999997
 21
1045.9835
  0
LINE
  8
_0-0_LAYER001
  6
CONTINUOUS
 62
    4
 10
1352.6614999999997
 20
1045.9835
 11
1354.8685
 21
1044.3811000000001
  0
LINE
  8
_0-0_LAYER001
  6
CONTINUOUS
 62
    4
 10
1354.8685
 20
1044.3811000000001
 11
1358.3584999999998
 21
1041.8806999999999
  0
LINE
  8
_0-0_LAYER001
  6
CONTINUOUS
 62
    4
 10
1358.3584999999998
 20
1041.8806999999999
 11
1364.4507000000001
 21
1037.6558
  0
LINE
  8
_0-0_LAYER001
  6
CONTINUOUS
 62
    4
 10
1364.4507000000001
 20
1037.6558
 11
1370.7544000000003
 21
1033.5156999999999
  0
LINE
  8
_0-0_LAYER001
  6
CONTINUOUS
 62
    4
 10
1370.7544000000003
 20
1033.5156999999999
 11
1377.2750999999998
 21
1029.5269000000001
  0
LINE
  8
_0-0_LAYER001
  6
CONTINUOUS
 62
    4
 10
1377.2750999999998
 20
1029.5269000000001
 11
1384.0410999999999
 21
1025.7429
  0
LINE
  8
_0-0_LAYER001
  6
CONTINUOUS
 62
    4
 10
1384.0410999999999
 20
1025.7429
 11
1390.9841000000001
 21
1022.2683999999999
  0
LINE
  8
_0-0_LAYER001
  6
CONTINUOUS
 62
    4
 10
1390.9841000000001
 20
1022.2683999999999
 11
1395.2574999999999
 21
1020.3440000000001
  0
LINE
  8
_0-0_LAYER001
  6
CONTINUOUS
 62
    4
 10
1395.2574999999999
 20
1020.3440000000001
 11
1398.8625999999999
 21
1018.8461
  0
LINE
  8
_0-0_LAYER001
  6
CONTINUOUS
 62
    4
 10
1398.8625999999999
 20
1018.8461
 11
1404.9187000000002
 21
1016.5842
  0
LINE
  8
_0-0_LAYER001
  6
CONTINUOUS
 62
    4
 10
1404.9187000000002
 20
1016.5842
 11
1411.1686
 21
1014.5732
  0
LINE
  8
_0-0_LAYER001
  6
CONTINUOUS
 62
    4
 10
1411.1686
 20
1014.5732
 11
1417.5173
 21
1012.8516999999999
  0
LINE
  8
_0-0_LAYER001
  6
CONTINUOUS
 62
    4
 10
1417.5173
 20
1012.8516999999999
 11
1423.9516000000001
 21
1011.4289000000001
  0
LINE
  8
_0-0_LAYER001
  6
CONTINUOUS
 62
    4
 10
1423.9516000000001
 20
1011.4289000000001
 11
1430.3652999999999
 21
1010.3300999999999
  0
LINE
  8
_0-0_LAYER001
  6
CONTINUOUS
 62
    4
 10
1430.3652999999999
 20
1010.3300999999999
 11
1434.2240999999999
 21
1009.8214
  0
LINE
  8
_0-0_LAYER001
  6
CONTINUOUS
 62
    4
 10
1434.2240999999999
 20
1009.8214
 11
1437.2186999999999
 21
1009.5029999999999
  0
LINE
  8
_0-0_LAYER001
  6
CONTINUOUS
 62
    4
 10
1437.2186999999999
 20
1009.5029999999999
 11
1442.1111000000001
 21
1009.1206999999999
  0
LINE
  8
_0-0_LAYER001
  6
CONTINUOUS
 62
    4
 10
1442.1111000000001
 20
1009.1206999999999
 11
1447.0185999999999
 21
1008.8961999999999
  0
LINE
  8
_0-0_LAYER001
  6
CONTINUOUS
 62
    4
 10
1447.0185999999999
 20
1008.8961999999999
 11
1451.866
 21
1008.8134
  0
LINE
  8
_0-0_LAYER001
  6
CONTINUOUS
 62
    4
 10
1451.866
 20
1008.8134
 11
1456.6498999999999
 21
1008.8510000000001
  0
LINE
  8
_0-0_LAYER001
  6
CONTINUOUS
 62
    4
 10
1456.6498999999999
 20
1008.8510000000001
 11
1461.3375999999998
 21
1008.9880000000001
  0
LINE
  8
_0-0_LAYER001
  6
CONTINUOUS
 62
    4
 10
1461.3375999999998
 20
1008.9880000000001
 11
1464.1147000000001
 21
1009.1092000000001
  0
LINE
  8
_0-0_LAYER001
  6
CONTINUOUS
 62
    4
 10
1464.1147000000001
 20
1009.1092000000001
 11
1469.1471000000001
 21
1009.3946000000001
  0
LINE
  8
_0-0_LAYER001
  6
CONTINUOUS
 62
    4
 10
1469.1471000000001
 20
1009.3946000000001
 11
1477.6732000000002
 21
1010.0556999999999
  0
LINE
  8
_0-0_LAYER001
  6
CONTINUOUS
 62
    4
 10
1477.6732000000002
 20
1010.0556999999999
 11
1486.1581000000001
 21
1010.9060999999999
  0
LINE
  8
_0-0_LAYER001
  6
CONTINUOUS
 62
    4
 10
1486.1581000000001
 20
1010.9060999999999
 11
1494.5493999999999
 21
1011.9012
  0
LINE
  8
_0-0_LAYER001
  6
CONTINUOUS
 62
    4
 10
1494.5493999999999
 20
1011.9012
 11
1502.8501000000001
 21
1013.0018
  0
LINE
  8
_0-0_LAYER001
  6
CONTINUOUS
 62
    4
 10
1502.8501000000001
 20
1013.0018
 11
1511.0578999999998
 21
1014.1691000000001
  0
LINE
  8
_0-0_LAYER001
  6
CONTINUOUS
 62
    4
 10
1511.0578999999998
 20
1014.1691000000001
 11
1515.7950000000001
 21
1014.8644999999999
  0
LINE
  8
_0-0_LAYER001
  6
CONTINUOUS
 62
    4
 10
1515.7950000000001
 20
1014.8644999999999
 11
1518.2503000000002
 21
1015.2284
  0
LINE
  8
_0-0_LAYER001
  6
CONTINUOUS
 62
    4
 10
1518.2503000000002
 20
1015.2284
 11
1522.4645
 21
1015.857
  0
LINE
  8
_0-0_LAYER001
  6
CONTINUOUS
 62
    4
 10
1522.4645
 20
1015.857
 11
1526.6759999999999
 21
1016.4893999999999
  0
LINE
  8
_0-0_LAYER001
  6
CONTINUOUS
 62
    4
 10
1526.6759999999999
 20
1016.4893999999999
 11
1530.8827000000001
 21
1017.1244999999999
  0
LINE
  8
_0-0_LAYER001
  6
CONTINUOUS
 62
    4
 10
1530.8827000000001
 20
1017.1244999999999
 11
1535.085
 21
1017.7612999999999
  0
LINE
  8
_0-0_LAYER001
  6
CONTINUOUS
 62
    4
 10
1535.085
 20
1017.7612999999999
 11
1539.2829000000002
 21
1018.3988999999999
  0
LINE
  8
_0-0_LAYER001
  6
CONTINUOUS
 62
    4
 10
1539.2829000000002
 20
1018.3988999999999
 11
1540.9005999999999
 21
1018.6449
  0
LINE
  8
_0-0_LAYER001
  6
CONTINUOUS
 62
    4
 10
1288.4453000000003
 20
1061.6108999999999
 11
1288.8713000000002
 21
1061.7739999999999
  0
ARC
  8
_0-0_LAYER001
  6
CONTINUOUS
 62
    4
 10
1289.5179000000003
 20
1058.8091999999999
 40
3
 50
110.94902000000002
 51
178.70000000000002
  0
LINE
  8
_0-0_LAYER001
  6
CONTINUOUS
 62
    4
 10
1286.4094
 20
1043.0382
 11
1286.4094
 21
1058.7607
  0
LINE
  8
_0-0_LAYER001
  6
CONTINUOUS
 62
    4
 10
1287.7633000000001
 20
1042.1030000000001
 11
1293.9382000000001
 21
1044.4401
  0
ARC
  8
_0-0_LAYER001
  6
CONTINUOUS
 62
    4
 10
1287.4094
 20
1043.0382
 40
1
 50
180
 51
290.73165999999998
  0
LINE
  8
_0-0_LAYER001
  6
CONTINUOUS
 62
    4
 10
1551.4094
 20
1021.7159999999999
 11
1551.4094
 21
1038.9133999999999
  0
LINE
  8
_0-0_LAYER001
  6
CONTINUOUS
 62
    4
 10
1539.1359000000002
 20
1036.5998
 11
1583.5902000000001
 21
1046.2476999999999
  0
LINE
  8
_0-0_LAYER001
  6
CONTINUOUS
 62
    4
 10
1545.8811000000001
 20
1016.7661000000001
 11
1584.5529000000001
 21
1025.816
  0
LINE
  8
_0-0_LAYER001
  6
CONTINUOUS
 62
    4
 10
1584.5529000000001
 20
1026.7725
 11
1584.5529000000001
 21
1025.816
  0
ARC
  8
_0-0_LAYER001
  6
CONTINUOUS
 62
    4
 10
1585.5529000000001
 20
1026.7725
 40
1
 50
102.72435
 51
180
  0
LINE
  8
_0-0_LAYER001
  6
CONTINUOUS
 62
    4
 10
1590.3699000000001
 20
1028.8853999999999
 11
1585.3326999999999
 21
1027.748
  0
ARC
  8
_0-0_LAYER001
  6
CONTINUOUS
 62
    4
 10
1590.5902000000001
 20
1027.9100000000001
 40
1
 50
0
 51
102.72435
  0
LINE
  8
_0-0_LAYER001
  6
CONTINUOUS
 62
    4
 10
1590.8022999999998
 20
1029.3939
 11
1540.6682999999998
 21
1018.5133000000001
  0
ARC
  8
_0-0_LAYER001
  6
CONTINUOUS
 62
    4
 10
1590.5902000000001
 20
1030.3711000000001
 40
1
 50
282.24497000000002
 51
0
  0
LINE
  8
_0-0_LAYER001
  6
CONTINUOUS
 62
    4
 10
1590.8081000000002
 20
1008.6532
 11
1541.2240999999999
 21
997.58529999999996
  0
LINE
  8
_0-0_LAYER001
  6
CONTINUOUS
 62
    4
 10
1591.5902000000001
 20
1009.6291000000001
 11
1591.5902000000001
 21
1027.9100000000001
  0
ARC
  8
_0-0_LAYER001
  6
CONTINUOUS
 62
    4
 10
1590.5902000000001
 20
1009.6291000000001
 40
1
 50
282.58296000000001
 51
0.0000000000000254
  0
LINE
  8
_0-0_LAYER001
  6
CONTINUOUS
 62
    4
 10
1583.5902000000001
 20
1047.7047
 11
1583.5902000000001
 21
1046.2476999999999
  0
ARC
  8
_0-0_LAYER001
  6
CONTINUOUS
 62
    4
 10
1584.5902000000001
 20
1047.7047
 40
1
 50
101.73308
 51
180
  0
LINE
  8
_0-0_LAYER001
  6
CONTINUOUS
 62
    4
 10
1590.3869
 20
1049.9300000000001
 11
1584.3869
 21
1048.6838
  0
LINE
  8
_0-0_LAYER001
  6
CONTINUOUS
 62
    4
 10
1591.5902000000001
 20
1048.9509
 11
1591.5902000000001
 21
1030.3711000000001
  0
ARC
  8
_0-0_LAYER001
  6
CONTINUOUS
 62
    4
 10
1590.5902000000001
 20
1048.9509
 40
1
 50
0
 51
101.73308
  0
LINE
  8
_0-0_LAYER001
  6
DASHED1
 62
    2
 10
1390.8010999999999
 20
1021.4691
 11
1406.8010999999999
 21
1021.4691
  0
LINE
  8
_0-0_LAYER001
  6
DASHED1
 62
    2
 10
1406.8010999999999
 20
1021.4691
 11
1406.8010999999999
 21
1018.4691
  0
LINE
  8
_0-0_LAYER001
  6
DASHED1
 62
    2
 10
1390.8010999999999
 20
1021.4691
 11
1390.8010999999999
 21
1018.4691
  0
LINE
  8
_0-0_LAYER001
  6
DASHED1
 62
    2
 10
1390.8010999999999
 20
1018.4691
 11
1406.8010999999999
 21
1018.4691
  0
LINE
  8
_0-0_LAYER001
  6
DASHED1
 62
    2
 10
1401.8010999999999
 20
963.57300000000009
 11
1398.7509
 21
949.06410000000005
  0
LINE
  8
_0-0_LAYER001
  6
DASHED1
 62
    2
 10
1401.8010999999999
 20
1018.4691
 11
1401.8010999999999
 21
963.57300000000009
  0
LINE
  8
_0-0_LAYER001
  6
DASHED1
 62
    2
 10
1398.7509
 20
949.06410000000005
 11
1395.8010999999999
 21
963.32159999999999
  0
LINE
  8
_0-0_LAYER001
  6
DASHED1
 62
    2
 10
1395.8010999999999
 20
1018.4691
 11
1395.8010999999999
 21
963.32159999999999
  0
LINE
  8
_0-0_LAYER001
  6
DASHED1
 62
    2
 10
1655.8072999999999
 20
1018.7378000000001
 11
1671.8072999999999
 21
1018.7378000000001
  0
LINE
  8
_0-0_LAYER001
  6
DASHED1
 62
    2
 10
1671.8072999999999
 20
1018.7378000000001
 11
1671.8072999999999
 21
1015.7378000000001
  0
LINE
  8
_0-0_LAYER001
  6
DASHED1
 62
    2
 10
1655.8072999999999
 20
1018.7378000000001
 11
1655.8072999999999
 21
1015.7378000000001
  0
LINE
  8
_0-0_LAYER001
  6
DASHED1
 62
    2
 10
1655.8072999999999
 20
1015.7378000000001
 11
1671.8072999999999
 21
1015.7378000000001
  0
LINE
  8
_0-0_LAYER001
  6
DASHED1
 62
    2
 10
1666.8072999999999
 20
960.84179999999992
 11
1663.7570999999998
 21
946.33279999999991
  0
LINE
  8
_0-0_LAYER001
  6
DASHED1
 62
    2
 10
1666.8072999999999
 20
1015.7378000000001
 11
1666.8072999999999
 21
960.84179999999992
  0
LINE
  8
_0-0_LAYER001
  6
DASHED1
 62
    2
 10
1663.7570999999998
 20
946.33279999999991
 11
1660.8072999999999
 21
960.59030000000007
  0
LINE
  8
_0-0_LAYER001
  6
DASHED1
 62
    2
 10
1660.8072999999999
 20
1015.7378000000001
 11
1660.8072999999999
 21
960.59030000000007
  0
LINE
  8
_0-0_LAYER001
  6
CONTINUOUS
 62
    4
 10
1286.2325000000001
 20
1018.8489
 11
1286.2325000000001
 21
1036.0463
  0
LINE
  8
_0-0_LAYER001
  6
CONTINUOUS
 62
    4
 10
1146.5059000000001
 20
975.00949999999989
 11
1137.9703999999999
 21
989.54289999999992
  0
LINE
  8
_0-0_LAYER001
  6
CONTINUOUS
 62
    4
 10
1154.6738
 20
974.3592000000001
 11
1162.98
 21
984.42470000000003
  0
ARC
  8
_0-0_LAYER001
  6
CONTINUOUS
 62
    4
 10
1150.8172999999999
 20
977.54160000000002
 40
5
 50
210.42578
 51
320.47001
  0
LINE
  8
_0-0_LAYER001
  6
CONTINUOUS
 62
    4
 10
1230.6194
 20
973.88940000000002
 11
1223.2940000000001
 21
985.19540000000006
  0
LINE
  8
_0-0_LAYER001
  6
CONTINUOUS
 62
    4
 10
1239.1288999999999
 20
974.0793000000001
 11
1248.0672999999999
 21
989.32500000000005
  0
ARC
  8
_0-0_LAYER001
  6
CONTINUOUS
 62
    4
 10
1234.8155999999999
 20
976.6081999999999
 40
5
 50
212.93986000000001
 51
329.61716000000001
  0
LINE
  8
_0-0_LAYER001
  6
CONTINUOUS
 62
    4
 10
1278.4110000000001
 20
1013.6369
 11
1280.8391000000001
 21
1014.0408
  0
LINE
  8
_0-0_LAYER001
  6
CONTINUOUS
 62
    4
 10
1274.2219
 20
1012.9407000000001
 11
1278.4110000000001
 21
1013.6369
  0
LINE
  8
_0-0_LAYER001
  6
CONTINUOUS
 62
    4
 10
1270.0281
 20
1012.2451000000001
 11
1274.2219
 21
1012.9407000000001
  0
LINE
  8
_0-0_LAYER001
  6
CONTINUOUS
 62
    4
 10
1265.8293000000001
 20
1011.5512000000001
 11
1270.0281
 21
1012.2451000000001
  0
LINE
  8
_0-0_LAYER001
  6
CONTINUOUS
 62
    4
 10
1261.6252999999999
 20
1010.8597
 11
1265.8293000000001
 21
1011.5512000000001
  0
LINE
  8
_0-0_LAYER001
  6
CONTINUOUS
 62
    4
 10
1257.4184
 20
1010.172
 11
1261.6252999999999
 21
1010.8597
  0
LINE
  8
_0-0_LAYER001
  6
CONTINUOUS
 62
    4
 10
1254.9662000000001
 20
1009.7735
 11
1257.4184
 21
1010.172
  0
LINE
  8
_0-0_LAYER001
  6
CONTINUOUS
 62
    4
 10
1250.2334000000001
 20
1009.0110999999999
 11
1254.9662000000001
 21
1009.7735
  0
LINE
  8
_0-0_LAYER001
  6
CONTINUOUS
 62
    4
 10
1242.029
 20
1007.7272
 11
1250.2334000000001
 21
1009.0110999999999
  0
LINE
  8
_0-0_LAYER001
  6
CONTINUOUS
 62
    4
 10
1233.7215000000001
 20
1006.5074
 11
1242.029
 21
1007.7272
  0
LINE
  8
_0-0_LAYER001
  6
CONTINUOUS
 62
    4
 10
1225.3132000000001
 20
1005.3910000000001
 11
1233.7215000000001
 21
1006.5074
  0
LINE
  8
_0-0_LAYER001
  6
CONTINUOUS
 62
    4
 10
1216.8006
 20
1004.4176
 11
1225.3132000000001
 21
1005.3910000000001
  0
LINE
  8
_0-0_LAYER001
  6
CONTINUOUS
 62
    4
 10
1208.2415000000001
 20
1003.6335999999999
 11
1216.8006
 21
1004.4176
  0
LINE
  8
_0-0_LAYER001
  6
CONTINUOUS
 62
    4
 10
1203.1800000000001
 20
1003.2755999999999
 11
1208.2415000000001
 21
1003.6335999999999
  0
LINE
  8
_0-0_LAYER001
  6
CONTINUOUS
 62
    4
 10
1200.3774000000001
 20
1003.114
 11
1203.1800000000001
 21
1003.2755999999999
  0
LINE
  8
_0-0_LAYER001
  6
CONTINUOUS
 62
    4
 10
1195.6563000000001
 20
1002.9100000000001
 11
1200.3774000000001
 21
1003.114
  0
LINE
  8
_0-0_LAYER001
  6
CONTINUOUS
 62
    4
 10
1190.8271
 20
1002.8045999999999
 11
1195.6563000000001
 21
1002.9100000000001
  0
LINE
  8
_0-0_LAYER001
  6
CONTINUOUS
 62
    4
 10
1185.9255000000001
 20
1002.8199999999999
 11
1190.8271
 21
1002.8045999999999
  0
LINE
  8
_0-0_LAYER001
  6
CONTINUOUS
 62
    4
 10
1180.9545000000001
 20
1002.9777999999999
 11
1185.9255000000001
 21
1002.8199999999999
  0
LINE
  8
_0-0_LAYER001
  6
CONTINUOUS
 62
    4
 10
1175.9971
 20
1003.2955999999999
 11
1180.9545000000001
 21
1002.9777999999999
  0
LINE
  8
_0-0_LAYER001
  6
CONTINUOUS
 62
    4
 10
1172.9454000000001
 20
1003.577
 11
1175.9971
 21
1003.2955999999999
  0
LINE
  8
_0-0_LAYER001
  6
CONTINUOUS
 62
    4
 10
1169.0165999999999
 20
1004.0392999999999
 11
1172.9454000000001
 21
1003.577
  0
LINE
  8
_0-0_LAYER001
  6
CONTINUOUS
 62
    4
 10
1162.5026
 20
1005.0617999999999
 11
1169.0165999999999
 21
1004.0392999999999
  0
LINE
  8
_0-0_LAYER001
  6
CONTINUOUS
 62
    4
 10
1155.9559999999999
 20
1006.4139
 11
1162.5026
 21
1005.0617999999999
  0
LINE
  8
_0-0_LAYER001
  6
CONTINUOUS
 62
    4
 10
1149.4930999999999
 20
1008.0698
 11
1155.9559999999999
 21
1006.4139
  0
LINE
  8
_0-0_LAYER001
  6
CONTINUOUS
 62
    4
 10
1143.1270999999999
 20
1010.0205000000001
 11
1149.4930999999999
 21
1008.0698
  0
LINE
  8
_0-0_LAYER001
  6
CONTINUOUS
 62
    4
 10
1136.9623999999999
 20
1012.2255
 11
1143.1270999999999
 21
1010.0205000000001
  0
LINE
  8
_0-0_LAYER001
  6
CONTINUOUS
 62
    4
 10
1133.2756999999999
 20
1013.6972000000001
 11
1136.9623999999999
 21
1012.2255
  0
LINE
  8
_0-0_LAYER001
  6
CONTINUOUS
 62
    4
 10
1128.9114
 20
1015.5898
 11
1133.2756999999999
 21
1013.6972000000001
  0
LINE
  8
_0-0_LAYER001
  6
CONTINUOUS
 62
    4
 10
1121.8424
 20
1019.0047
 11
1128.9114
 21
1015.5898
  0
LINE
  8
_0-0_LAYER001
  6
CONTINUOUS
 62
    4
 10
1114.9494999999999
 20
1022.7344000000001
 11
1121.8424
 21
1019.0047
  0
LINE
  8
_0-0_LAYER001
  6
CONTINUOUS
 62
    4
 10
1108.3125
 20
1026.6679999999999
 11
1114.9494999999999
 21
1022.7344000000001
  0
LINE
  8
_0-0_LAYER001
  6
CONTINUOUS
 62
    4
 10
1101.9032
 20
1030.7505000000001
 11
1108.3125
 21
1026.6679999999999
  0
LINE
  8
_0-0_LAYER001
  6
CONTINUOUS
 62
    4
 10
1095.7189000000001
 20
1034.9126000000001
 11
1101.9032
 21
1030.7505000000001
  0
LINE
  8
_0-0_LAYER001
  6
CONTINUOUS
 62
    4
 10
1092.1766
 20
1037.3762999999999
 11
1095.7189000000001
 21
1034.9126000000001
  0
LINE
  8
_0-0_LAYER001
  6
CONTINUOUS
 62
    4
 10
1089.9446
 20
1038.9498000000001
 11
1092.1766
 21
1037.3762999999999
  0
LINE
  8
_0-0_LAYER001
  6
CONTINUOUS
 62
    4
 10
1086.3209999999999
 20
1041.489
 11
1089.9446
 21
1038.9498000000001
  0
LINE
  8
_0-0_LAYER001
  6
CONTINUOUS
 62
    4
 10
1082.9513999999999
 20
1043.7545
 11
1086.3209999999999
 21
1041.489
  0
LINE
  8
_0-0_LAYER001
  6
CONTINUOUS
 62
    4
 10
1079.8363999999999
 20
1045.6814999999999
 11
1082.9513999999999
 21
1043.7545
  0
LINE
  8
_0-0_LAYER001
  6
CONTINUOUS
 62
    4
 10
1076.9692
 20
1047.2373
 11
1079.8363999999999
 21
1045.6814999999999
  0
LINE
  8
_0-0_LAYER001
  6
CONTINUOUS
 62
    4
 10
1074.1380999999999
 20
1048.5056999999999
 11
1076.9692
 21
1047.2373
  0
LINE
  8
_0-0_LAYER001
  6
CONTINUOUS
 62
    4
 10
1072.6749
 20
1049.0379
 11
1074.1380999999999
 21
1048.5056999999999
  0
LINE
  8
_0-0_LAYER001
  6
CONTINUOUS
 62
    4
 10
1072.4938
 20
1049.0958000000001
 11
1072.6749
 21
1049.0379
  0
LINE
  8
_0-0_LAYER001
  6
CONTINUOUS
 62
    4
 10
1071.7055
 20
1049.3237999999999
 11
1072.4938
 21
1049.0958000000001
  0
LINE
  8
_0-0_LAYER001
  6
CONTINUOUS
 62
    4
 10
1071.0482999999999
 20
1049.4865
 11
1071.7055
 21
1049.3237999999999
  0
LINE
  8
_0-0_LAYER001
  6
CONTINUOUS
 62
    4
 10
1070.4665
 20
1049.6044999999999
 11
1071.0482999999999
 21
1049.4865
  0
LINE
  8
_0-0_LAYER001
  6
CONTINUOUS
 62
    4
 10
1070.4265
 20
1049.6107
 11
1070.4665
 21
1049.6044999999999
  0
LINE
  8
_0-0_LAYER001
  6
CONTINUOUS
 62
    4
 10
1274.4003
 20
994.44949999999994
 11
1276.0144
 21
994.7179000000001
  0
LINE
  8
_0-0_LAYER001
  6
CONTINUOUS
 62
    4
 10
1270.2117000000001
 20
993.75330000000008
 11
1274.4003
 21
994.44949999999994
  0
LINE
  8
_0-0_LAYER001
  6
CONTINUOUS
 62
    4
 10
1266.0188000000001
 20
993.05790000000002
 11
1270.2117000000001
 21
993.75330000000008
  0
LINE
  8
_0-0_LAYER001
  6
CONTINUOUS
 62
    4
 10
1261.8214
 20
992.36410000000001
 11
1266.0188000000001
 21
993.05790000000002
  0
LINE
  8
_0-0_LAYER001
  6
CONTINUOUS
 62
    4
 10
1257.6190999999999
 20
991.67290000000003
 11
1261.8214
 21
992.36410000000001
  0
LINE
  8
_0-0_LAYER001
  6
CONTINUOUS
 62
    4
 10
1253.4141
 20
990.98559999999998
 11
1257.6190999999999
 21
991.67290000000003
  0
LINE
  8
_0-0_LAYER001
  6
CONTINUOUS
 62
    4
 10
1250.9640999999999
 20
990.58739999999989
 11
1253.4141
 21
990.98559999999998
  0
LINE
  8
_0-0_LAYER001
  6
CONTINUOUS
 62
    4
 10
1246.2371000000001
 20
989.82590000000005
 11
1250.9640999999999
 21
990.58739999999989
  0
LINE
  8
_0-0_LAYER001
  6
CONTINUOUS
 62
    4
 10
1238.0464999999999
 20
988.54420000000005
 11
1246.2371000000001
 21
989.82590000000005
  0
LINE
  8
_0-0_LAYER001
  6
CONTINUOUS
 62
    4
 10
1229.7619999999999
 20
987.32780000000002
 11
1238.0464999999999
 21
988.54420000000005
  0
LINE
  8
_0-0_LAYER001
  6
CONTINUOUS
 62
    4
 10
1221.3853999999999
 20
986.21559999999999
 11
1229.7619999999999
 21
987.32780000000002
  0
LINE
  8
_0-0_LAYER001
  6
CONTINUOUS
 62
    4
 10
1212.9132
 20
985.24679999999989
 11
1221.3853999999999
 21
986.21559999999999
  0
LINE
  8
_0-0_LAYER001
  6
CONTINUOUS
 62
    4
 10
1204.3970999999999
 20
984.46679999999992
 11
1212.9132
 21
985.24679999999989
  0
LINE
  8
_0-0_LAYER001
  6
CONTINUOUS
 62
    4
 10
1199.3693000000001
 20
984.11110000000008
 11
1204.3970999999999
 21
984.46679999999992
  0
LINE
  8
_0-0_LAYER001
  6
CONTINUOUS
 62
    4
 10
1196.5941
 20
983.9511
 11
1199.3693000000001
 21
984.11110000000008
  0
LINE
  8
_0-0_LAYER001
  6
CONTINUOUS
 62
    4
 10
1191.9087999999999
 20
983.7487000000001
 11
1196.5941
 21
983.9511
  0
LINE
  8
_0-0_LAYER001
  6
CONTINUOUS
 62
    4
 10
1187.1258
 20
983.64429999999993
 11
1191.9087999999999
 21
983.7487000000001
  0
LINE
  8
_0-0_LAYER001
  6
CONTINUOUS
 62
    4
 10
1182.2778000000001
 20
983.65949999999998
 11
1187.1258
 21
983.64429999999993
  0
LINE
  8
_0-0_LAYER001
  6
CONTINUOUS
 62
    4
 10
1177.3676
 20
983.81539999999995
 11
1182.2778000000001
 21
983.65949999999998
  0
LINE
  8
_0-0_LAYER001
  6
CONTINUOUS
 62
    4
 10
1172.4703
 20
984.12930000000006
 11
1177.3676
 21
983.81539999999995
  0
LINE
  8
_0-0_LAYER001
  6
CONTINUOUS
 62
    4
 10
1169.4716000000001
 20
984.40589999999997
 11
1172.4703
 21
984.12930000000006
  0
LINE
  8
_0-0_LAYER001
  6
CONTINUOUS
 62
    4
 10
1165.606
 20
984.86059999999998
 11
1169.4716000000001
 21
984.40589999999997
  0
LINE
  8
_0-0_LAYER001
  6
CONTINUOUS
 62
    4
 10
1159.1776
 20
985.86979999999994
 11
1165.606
 21
984.86059999999998
  0
LINE
  8
_0-0_LAYER001
  6
CONTINUOUS
 62
    4
 10
1152.7240999999999
 20
987.20270000000005
 11
1159.1776
 21
985.86979999999994
  0
LINE
  8
_0-0_LAYER001
  6
CONTINUOUS
 62
    4
 10
1146.3518999999999
 20
988.83529999999996
 11
1152.7240999999999
 21
987.20270000000005
  0
LINE
  8
_0-0_LAYER001
  6
CONTINUOUS
 62
    4
 10
1140.0745999999999
 20
990.75880000000006
 11
1146.3518999999999
 21
988.83529999999996
  0
LINE
  8
_0-0_LAYER001
  6
CONTINUOUS
 62
    4
 10
1133.9875
 20
992.93599999999992
 11
1140.0745999999999
 21
990.75880000000006
  0
LINE
  8
_0-0_LAYER001
  6
CONTINUOUS
 62
    4
 10
1130.3619000000001
 20
994.38339999999994
 11
1133.9875
 21
992.93599999999992
  0
LINE
  8
_0-0_LAYER001
  6
CONTINUOUS
 62
    4
 10
1126.0619999999999
 20
996.24800000000005
 11
1130.3619000000001
 21
994.38339999999994
  0
LINE
  8
_0-0_LAYER001
  6
CONTINUOUS
 62
    4
 10
1119.0712000000001
 20
999.62519999999995
 11
1126.0619999999999
 21
996.24800000000005
  0
LINE
  8
_0-0_LAYER001
  6
CONTINUOUS
 62
    4
 10
1112.2529999999999
 20
1003.3144
 11
1119.0712000000001
 21
999.62519999999995
  0
LINE
  8
_0-0_LAYER001
  6
CONTINUOUS
 62
    4
 10
1105.6773000000001
 20
1007.2118
 11
1112.2529999999999
 21
1003.3144
  0
LINE
  8
_0-0_LAYER001
  6
CONTINUOUS
 62
    4
 10
1099.3163
 20
1011.2634
 11
1105.6773000000001
 21
1007.2118
  0
LINE
  8
_0-0_LAYER001
  6
CONTINUOUS
 62
    4
 10
1093.1658
 20
1015.4029
 11
1099.3163
 21
1011.2634
  0
LINE
  8
_0-0_LAYER001
  6
CONTINUOUS
 62
    4
 10
1089.6412
 20
1017.8542
 11
1093.1658
 21
1015.4029
  0
LINE
  8
_0-0_LAYER001
  6
CONTINUOUS
 62
    4
 10
1087.4121
 20
1019.4257
 11
1089.6412
 21
1017.8542
  0
LINE
  8
_0-0_LAYER001
  6
CONTINUOUS
 62
    4
 10
1083.7704000000001
 20
1021.9775999999999
 11
1087.4121
 21
1019.4257
  0
LINE
  8
_0-0_LAYER001
  6
CONTINUOUS
 62
    4
 10
1080.3533
 20
1024.2750000000001
 11
1083.7704000000001
 21
1021.9775999999999
  0
LINE
  8
_0-0_LAYER001
  6
CONTINUOUS
 62
    4
 10
1077.1576
 20
1026.2519
 11
1080.3533
 21
1024.2750000000001
  0
LINE
  8
_0-0_LAYER001
  6
CONTINUOUS
 62
    4
 10
1074.1737000000001
 20
1027.8710000000001
 11
1077.1576
 21
1026.2519
  0
LINE
  8
_0-0_LAYER001
  6
CONTINUOUS
 62
    4
 10
1071.2071000000001
 20
1029.2001
 11
1074.1737000000001
 21
1027.8710000000001
  0
LINE
  8
_0-0_LAYER001
  6
CONTINUOUS
 62
    4
 10
1070.4572000000001
 20
1029.4729
 11
1071.2071000000001
 21
1029.2001
  0
LINE
  8
_0-0_LAYER001
  6
CONTINUOUS
 62
    4
 10
1070.7901999999999
 20
1049.5160000000001
 11
1070.6142
 21
1029.3425999999999
  0
LINE
  8
_0-0_LAYER001
  6
CONTINUOUS
 62
    4
 10
1271.1158
 20
984.02819999999997
 11
1268.8704
 21
992.60169999999994
  0
ARC
  8
_0-0_LAYER001
  6
CONTINUOUS
 62
    4
 10
1274.018
 20
984.78829999999994
 40
3
 50
194.67639000000003
 51
270.00000000000006
  0
LINE
  8
_0-0_LAYER001
  6
CONTINUOUS
 62
    4
 10
1277.4603999999999
 20
981.78400000000011
 11
1274.0426
 21
981.78400000000011
  0
LINE
  8
_0-0_LAYER001
  6
CONTINUOUS
 62
    4
 10
1280.4195999999999
 20
984.29079999999999
 11
1282.3536999999999
 21
995.89499999999998
  0
ARC
  8
_0-0_LAYER001
  6
CONTINUOUS
 62
    4
 10
1277.4603999999999
 20
984.78400000000011
 40
3
 50
270
 51
350.53766999999999
  0
LINE
  8
_0-0_LAYER001
  6
CONTINUOUS
 62
    4
 10
1023.6940999999999
 20
1058.9061999999999
 11
1024.508
 21
1059.2129
  0
LINE
  8
_0-0_LAYER001
  6
CONTINUOUS
 62
    4
 10
1024.508
 20
1059.2129
 11
1028.0572
 21
1060.5524
  0
LINE
  8
_0-0_LAYER001
  6
CONTINUOUS
 62
    4
 10
1028.0572
 20
1060.5524
 11
1031.6139000000001
 21
1061.9013
  0
LINE
  8
_0-0_LAYER001
  6
CONTINUOUS
 62
    4
 10
1031.6139000000001
 20
1061.9013
 11
1035.1824999999999
 21
1063.2654
  0
LINE
  8
_0-0_LAYER001
  6
CONTINUOUS
 62
    4
 10
1035.1824999999999
 20
1063.2654
 11
1038.7679000000001
 21
1064.6504
  0
LINE
  8
_0-0_LAYER001
  6
CONTINUOUS
 62
    4
 10
1038.7679000000001
 20
1064.6504
 11
1042.3746000000001
 21
1066.0624
  0
LINE
  8
_0-0_LAYER001
  6
CONTINUOUS
 62
    4
 10
1042.3746000000001
 20
1066.0624
 11
1044.4781
 21
1066.896
  0
LINE
  8
_0-0_LAYER001
  6
CONTINUOUS
 62
    4
 10
1044.4781
 20
1066.896
 11
1046.5574999999999
 21
1067.7248999999999
  0
LINE
  8
_0-0_LAYER001
  6
CONTINUOUS
 62
    4
 10
1046.5574999999999
 20
1067.7248999999999
 11
1050.164
 21
1069.1262999999999
  0
LINE
  8
_0-0_LAYER001
  6
CONTINUOUS
 62
    4
 10
1050.164
 20
1069.1262999999999
 11
1053.7967000000001
 21
1070.4090000000001
  0
LINE
  8
_0-0_LAYER001
  6
CONTINUOUS
 62
    4
 10
1053.7967000000001
 20
1070.4090000000001
 11
1057.4547
 21
1071.4757
  0
LINE
  8
_0-0_LAYER001
  6
CONTINUOUS
 62
    4
 10
1057.4547
 20
1071.4757
 11
1061.1368
 21
1072.2289000000001
  0
LINE
  8
_0-0_LAYER001
  6
CONTINUOUS
 62
    4
 10
1061.1368
 20
1072.2289000000001
 11
1064.8421000000001
 21
1072.5714
  0
LINE
  8
_0-0_LAYER001
  6
CONTINUOUS
 62
    4
 10
1064.8421000000001
 20
1072.5714
 11
1067.0012999999999
 21
1072.5435
  0
LINE
  8
_0-0_LAYER001
  6
CONTINUOUS
 62
    4
 10
1067.0012999999999
 20
1072.5435
 11
1067.8505
 21
1072.4821999999999
  0
LINE
  8
_0-0_LAYER001
  6
CONTINUOUS
 62
    4
 10
1067.8505
 20
1072.4821999999999
 11
1069.3148000000001
 21
1072.3116
  0
LINE
  8
_0-0_LAYER001
  6
CONTINUOUS
 62
    4
 10
1069.3148000000001
 20
1072.3116
 11
1070.7759000000001
 21
1072.0648000000001
  0
LINE
  8
_0-0_LAYER001
  6
CONTINUOUS
 62
    4
 10
1070.7759000000001
 20
1072.0648000000001
 11
1072.2295999999999
 21
1071.7488000000001
  0
LINE
  8
_0-0_LAYER001
  6
CONTINUOUS
 62
    4
 10
1072.2295999999999
 20
1071.7488000000001
 11
1073.6718000000001
 21
1071.3703
  0
LINE
  8
_0-0_LAYER001
  6
CONTINUOUS
 62
    4
 10
1073.6718000000001
 20
1071.3703
 11
1075.0981999999999
 21
1070.9362000000001
  0
LINE
  8
_0-0_LAYER001
  6
CONTINUOUS
 62
    4
 10
1075.0981999999999
 20
1070.9362000000001
 11
1075.9167
 21
1070.6615999999999
  0
LINE
  8
_0-0_LAYER001
  6
CONTINUOUS
 62
    4
 10
1075.9167
 20
1070.6615999999999
 11
1078.4149
 21
1069.7132999999999
  0
LINE
  8
_0-0_LAYER001
  6
CONTINUOUS
 62
    4
 10
1078.4149
 20
1069.7132999999999
 11
1082.5737999999999
 21
1067.7798
  0
LINE
  8
_0-0_LAYER001
  6
CONTINUOUS
 62
    4
 10
1082.5737999999999
 20
1067.7798
 11
1086.5776000000001
 21
1065.5344
  0
LINE
  8
_0-0_LAYER001
  6
CONTINUOUS
 62
    4
 10
1086.5776000000001
 20
1065.5344
 11
1090.4645
 21
1063.0541000000001
  0
LINE
  8
_0-0_LAYER001
  6
CONTINUOUS
 62
    4
 10
1090.4645
 20
1063.0541000000001
 11
1094.2725
 21
1060.4159999999999
  0
LINE
  8
_0-0_LAYER001
  6
CONTINUOUS
 62
    4
 10
1094.2725
 20
1060.4159999999999
 11
1098.0397
 21
1057.6968999999999
  0
LINE
  8
_0-0_LAYER001
  6
CONTINUOUS
 62
    4
 10
1098.0397
 20
1057.6968999999999
 11
1100.2211
 21
1056.1131
  0
LINE
  8
_0-0_LAYER001
  6
CONTINUOUS
 62
    4
 10
1100.2211
 20
1056.1131
 11
1103.5526
 21
1053.7263
  0
LINE
  8
_0-0_LAYER001
  6
CONTINUOUS
 62
    4
 10
1103.5526
 20
1053.7263
 11
1109.3449000000001
 21
1049.7093
  0
LINE
  8
_0-0_LAYER001
  6
CONTINUOUS
 62
    4
 10
1109.3449000000001
 20
1049.7093
 11
1115.2171000000001
 21
1045.8526999999999
  0
LINE
  8
_0-0_LAYER001
  6
CONTINUOUS
 62
    4
 10
1115.2171000000001
 20
1045.8526999999999
 11
1121.1912
 21
1042.1983
  0
LINE
  8
_0-0_LAYER001
  6
CONTINUOUS
 62
    4
 10
1121.1912
 20
1042.1983
 11
1127.2893999999999
 21
1038.7877000000001
  0
LINE
  8
_0-0_LAYER001
  6
CONTINUOUS
 62
    4
 10
1127.2893999999999
 20
1038.7877000000001
 11
1133.5337
 21
1035.6629
  0
LINE
  8
_0-0_LAYER001
  6
CONTINUOUS
 62
    4
 10
1133.5337
 20
1035.6629
 11
1137.231
 21
1033.9979000000001
  0
LINE
  8
_0-0_LAYER001
  6
CONTINUOUS
 62
    4
 10
1137.231
 20
1033.9979000000001
 11
1140.2901999999999
 21
1032.7267999999999
  0
LINE
  8
_0-0_LAYER001
  6
CONTINUOUS
 62
    4
 10
1140.2901999999999
 20
1032.7267999999999
 11
1145.6506999999999
 21
1030.7247
  0
LINE
  8
_0-0_LAYER001
  6
CONTINUOUS
 62
    4
 10
1145.6506999999999
 20
1030.7247
 11
1151.1065000000001
 21
1028.9692
  0
LINE
  8
_0-0_LAYER001
  6
CONTINUOUS
 62
    4
 10
1151.1065000000001
 20
1028.9692
 11
1156.6414
 21
1027.4684
  0
LINE
  8
_0-0_LAYER001
  6
CONTINUOUS
 62
    4
 10
1156.6414
 20
1027.4684
 11
1162.2397000000001
 21
1026.2303999999999
  0
LINE
  8
_0-0_LAYER001
  6
CONTINUOUS
 62
    4
 10
1162.2397000000001
 20
1026.2303999999999
 11
1167.8853999999999
 21
1025.2632000000001
  0
LINE
  8
_0-0_LAYER001
  6
CONTINUOUS
 62
    4
 10
1167.8853999999999
 20
1025.2632000000001
 11
1171.1754000000001
 21
1024.8294000000001
  0
LINE
  8
_0-0_LAYER001
  6
CONTINUOUS
 62
    4
 10
1171.1754000000001
 20
1024.8294000000001
 11
1173.6947
 21
1024.5616
  0
LINE
  8
_0-0_LAYER001
  6
CONTINUOUS
 62
    4
 10
1173.6947
 20
1024.5616
 11
1178.0468000000001
 21
1024.2216000000001
  0
LINE
  8
_0-0_LAYER001
  6
CONTINUOUS
 62
    4
 10
1178.0468000000001
 20
1024.2216000000001
 11
1182.4069999999999
 21
1024.0220999999999
  0
LINE
  8
_0-0_LAYER001
  6
CONTINUOUS
 62
    4
 10
1182.4069999999999
 20
1024.0220999999999
 11
1186.7722000000001
 21
1023.9475
  0
LINE
  8
_0-0_LAYER001
  6
CONTINUOUS
 62
    4
 10
1186.7722000000001
 20
1023.9475
 11
1191.1393
 21
1023.9818
  0
LINE
  8
_0-0_LAYER001
  6
CONTINUOUS
 62
    4
 10
1191.1393
 20
1023.9818
 11
1195.5052000000001
 21
1024.1094000000001
  0
LINE
  8
_0-0_LAYER001
  6
CONTINUOUS
 62
    4
 10
1195.5052000000001
 20
1024.1094000000001
 11
1198.0356999999999
 21
1024.2199000000001
  0
LINE
  8
_0-0_LAYER001
  6
CONTINUOUS
 62
    4
 10
1198.0356999999999
 20
1024.2199000000001
 11
1202.7647999999999
 21
1024.4881
  0
LINE
  8
_0-0_LAYER001
  6
CONTINUOUS
 62
    4
 10
1202.7647999999999
 20
1024.4881
 11
1210.9029
 21
1025.1190999999999
  0
LINE
  8
_0-0_LAYER001
  6
CONTINUOUS
 62
    4
 10
1210.9029
 20
1025.1190999999999
 11
1219.0237
 21
1025.933
  0
LINE
  8
_0-0_LAYER001
  6
CONTINUOUS
 62
    4
 10
1219.0237
 20
1025.933
 11
1227.1296
 21
1026.8942
  0
LINE
  8
_0-0_LAYER001
  6
CONTINUOUS
 62
    4
 10
1227.1296
 20
1026.8942
 11
1235.223
 21
1027.9674
  0
LINE
  8
_0-0_LAYER001
  6
CONTINUOUS
 62
    4
 10
1235.223
 20
1027.9674
 11
1243.3065999999999
 21
1029.117
  0
LINE
  8
_0-0_LAYER001
  6
CONTINUOUS
 62
    4
 10
1243.3065999999999
 20
1029.117
 11
1247.9915000000001
 21
1029.8047999999999
  0
LINE
  8
_0-0_LAYER001
  6
CONTINUOUS
 62
    4
 10
1247.9915000000001
 20
1029.8047999999999
 11
1250.4264000000001
 21
1030.1656
  0
LINE
  8
_0-0_LAYER001
  6
CONTINUOUS
 62
    4
 10
1250.4264000000001
 20
1030.1656
 11
1254.6233
 21
1030.7916
  0
LINE
  8
_0-0_LAYER001
  6
CONTINUOUS
 62
    4
 10
1254.6233
 20
1030.7916
 11
1258.8190999999999
 21
1031.4217000000001
  0
LINE
  8
_0-0_LAYER001
  6
CONTINUOUS
 62
    4
 10
1258.8190999999999
 20
1031.4217000000001
 11
1263.0138999999999
 21
1032.0550000000001
  0
LINE
  8
_0-0_LAYER001
  6
CONTINUOUS
 62
    4
 10
1263.0138999999999
 20
1032.0550000000001
 11
1267.2081000000001
 21
1032.6905999999999
  0
LINE
  8
_0-0_LAYER001
  6
CONTINUOUS
 62
    4
 10
1267.2081000000001
 20
1032.6905999999999
 11
1271.4019000000001
 21
1033.3276000000001
  0
LINE
  8
_0-0_LAYER001
  6
CONTINUOUS
 62
    4
 10
1271.4019000000001
 20
1033.3276000000001
 11
1273.8341
 21
1033.6973
  0
LINE
  8
_0-0_LAYER001
  6
CONTINUOUS
 62
    4
 10
1028.7973
 20
1041.5936999999999
 11
1030.8592000000001
 21
1042.3706
  0
LINE
  8
_0-0_LAYER001
  6
CONTINUOUS
 62
    4
 10
1030.8592000000001
 20
1042.3706
 11
1034.4268
 21
1043.7171000000001
  0
LINE
  8
_0-0_LAYER001
  6
CONTINUOUS
 62
    4
 10
1034.4268
 20
1043.7171000000001
 11
1038.0187000000001
 21
1045.0794000000001
  0
LINE
  8
_0-0_LAYER001
  6
CONTINUOUS
 62
    4
 10
1038.0187000000001
 20
1045.0794000000001
 11
1041.6391000000001
 21
1046.4631999999999
  0
LINE
  8
_0-0_LAYER001
  6
CONTINUOUS
 62
    4
 10
1041.6391000000001
 20
1046.4631999999999
 11
1045.2919999999999
 21
1047.8742999999999
  0
LINE
  8
_0-0_LAYER001
  6
CONTINUOUS
 62
    4
 10
1045.2919999999999
 20
1047.8742999999999
 11
1048.9712
 21
1049.3146999999999
  0
LINE
  8
_0-0_LAYER001
  6
CONTINUOUS
 62
    4
 10
1048.9712
 20
1049.3146999999999
 11
1051.1264000000001
 21
1050.1687999999999
  0
LINE
  8
_0-0_LAYER001
  6
CONTINUOUS
 62
    4
 10
1051.1264000000001
 20
1050.1687999999999
 11
1053.1500000000001
 21
1050.9754
  0
LINE
  8
_0-0_LAYER001
  6
CONTINUOUS
 62
    4
 10
1053.1500000000001
 20
1050.9754
 11
1056.4219000000001
 21
1052.2467999999999
  0
LINE
  8
_0-0_LAYER001
  6
CONTINUOUS
 62
    4
 10
1056.4219000000001
 20
1052.2467999999999
 11
1059.317
 21
1053.2691
  0
LINE
  8
_0-0_LAYER001
  6
CONTINUOUS
 62
    4
 10
1059.317
 20
1053.2691
 11
1061.7851000000001
 21
1053.9888000000001
  0
LINE
  8
_0-0_LAYER001
  6
CONTINUOUS
 62
    4
 10
1061.7851000000001
 20
1053.9888000000001
 11
1063.7768000000001
 21
1054.3961999999999
  0
LINE
  8
_0-0_LAYER001
  6
CONTINUOUS
 62
    4
 10
1063.7768000000001
 20
1054.3961999999999
 11
1065.5562
 21
1054.5607
  0
LINE
  8
_0-0_LAYER001
  6
CONTINUOUS
 62
    4
 10
1065.5562
 20
1054.5607
 11
1066.2357
 21
1054.5518999999999
  0
LINE
  8
_0-0_LAYER001
  6
CONTINUOUS
 62
    4
 10
1066.2357
 20
1054.5518999999999
 11
1066.1596
 21
1054.5573999999999
  0
LINE
  8
_0-0_LAYER001
  6
CONTINUOUS
 62
    4
 10
1066.1596
 20
1054.5573999999999
 11
1066.7732000000001
 21
1054.4858999999999
  0
LINE
  8
_0-0_LAYER001
  6
CONTINUOUS
 62
    4
 10
1066.7732000000001
 20
1054.4858999999999
 11
1067.3635999999999
 21
1054.3861999999999
  0
LINE
  8
_0-0_LAYER001
  6
CONTINUOUS
 62
    4
 10
1067.3635999999999
 20
1054.3861999999999
 11
1068.0310999999999
 21
1054.2411
  0
LINE
  8
_0-0_LAYER001
  6
CONTINUOUS
 62
    4
 10
1068.0310999999999
 20
1054.2411
 11
1068.7646
 21
1054.0486000000001
  0
LINE
  8
_0-0_LAYER001
  6
CONTINUOUS
 62
    4
 10
1068.7646
 20
1054.0486000000001
 11
1069.6138000000001
 21
1053.7901999999999
  0
LINE
  8
_0-0_LAYER001
  6
CONTINUOUS
 62
    4
 10
1069.6138000000001
 20
1053.7901999999999
 11
1069.8579
 21
1053.7083
  0
LINE
  8
_0-0_LAYER001
  6
CONTINUOUS
 62
    4
 10
1069.8579
 20
1053.7083
 11
1071.4177999999999
 21
1053.1161999999999
  0
LINE
  8
_0-0_LAYER001
  6
CONTINUOUS
 62
    4
 10
1071.4177999999999
 20
1053.1161999999999
 11
1074.3655000000001
 21
1051.7457999999999
  0
LINE
  8
_0-0_LAYER001
  6
CONTINUOUS
 62
    4
 10
1074.3655000000001
 20
1051.7457999999999
 11
1077.3266000000001
 21
1050.0852
  0
LINE
  8
_0-0_LAYER001
  6
CONTINUOUS
 62
    4
 10
1077.3266000000001
 20
1050.0852
 11
1080.4943000000001
 21
1048.0637999999999
  0
LINE
  8
_0-0_LAYER001
  6
CONTINUOUS
 62
    4
 10
1080.4943000000001
 20
1048.0637999999999
 11
1083.8789999999999
 21
1045.7189000000001
  0
LINE
  8
_0-0_LAYER001
  6
CONTINUOUS
 62
    4
 10
1083.8789999999999
 20
1045.7189000000001
 11
1087.4847
 21
1043.1164000000001
  0
LINE
  8
_0-0_LAYER001
  6
CONTINUOUS
 62
    4
 10
1087.4847
 20
1043.1164000000001
 11
1089.6917000000001
 21
1041.5139999999999
  0
LINE
  8
_0-0_LAYER001
  6
CONTINUOUS
 62
    4
 10
1089.6917000000001
 20
1041.5139999999999
 11
1093.1815999999999
 21
1039.0137
  0
LINE
  8
_0-0_LAYER001
  6
CONTINUOUS
 62
    4
 10
1093.1815999999999
 20
1039.0137
 11
1099.2737999999999
 21
1034.7887000000001
  0
LINE
  8
_0-0_LAYER001
  6
CONTINUOUS
 62
    4
 10
1099.2737999999999
 20
1034.7887000000001
 11
1105.5776000000001
 21
1030.6487
  0
LINE
  8
_0-0_LAYER001
  6
CONTINUOUS
 62
    4
 10
1105.5776000000001
 20
1030.6487
 11
1112.0983000000001
 21
1026.6599000000001
  0
LINE
  8
_0-0_LAYER001
  6
CONTINUOUS
 62
    4
 10
1112.0983000000001
 20
1026.6599000000001
 11
1118.8642
 21
1022.8759
  0
LINE
  8
_0-0_LAYER001
  6
CONTINUOUS
 62
    4
 10
1118.8642
 20
1022.8759
 11
1125.8072999999999
 21
1019.4014
  0
LINE
  8
_0-0_LAYER001
  6
CONTINUOUS
 62
    4
 10
1125.8072999999999
 20
1019.4014
 11
1130.0807
 21
1017.4768999999999
  0
LINE
  8
_0-0_LAYER001
  6
CONTINUOUS
 62
    4
 10
1130.0807
 20
1017.4768999999999
 11
1133.6858
 21
1015.979
  0
LINE
  8
_0-0_LAYER001
  6
CONTINUOUS
 62
    4
 10
1133.6858
 20
1015.979
 11
1139.7419
 21
1013.7171000000001
  0
LINE
  8
_0-0_LAYER001
  6
CONTINUOUS
 62
    4
 10
1139.7419
 20
1013.7171000000001
 11
1145.9917
 21
1011.7061000000001
  0
LINE
  8
_0-0_LAYER001
  6
CONTINUOUS
 62
    4
 10
1145.9917
 20
1011.7061000000001
 11
1152.3405
 21
1009.9846
  0
LINE
  8
_0-0_LAYER001
  6
CONTINUOUS
 62
    4
 10
1152.3405
 20
1009.9846
 11
1158.7746999999999
 21
1008.5617999999999
  0
LINE
  8
_0-0_LAYER001
  6
CONTINUOUS
 62
    4
 10
1158.7746999999999
 20
1008.5617999999999
 11
1165.1884
 21
1007.463
  0
LINE
  8
_0-0_LAYER001
  6
CONTINUOUS
 62
    4
 10
1165.1884
 20
1007.463
 11
1169.0472
 21
1006.9543000000001
  0
LINE
  8
_0-0_LAYER001
  6
CONTINUOUS
 62
    4
 10
1169.0472
 20
1006.9543000000001
 11
1172.0418
 21
1006.6359
  0
LINE
  8
_0-0_LAYER001
  6
CONTINUOUS
 62
    4
 10
1172.0418
 20
1006.6359
 11
1176.9341999999999
 21
1006.2536
  0
LINE
  8
_0-0_LAYER001
  6
CONTINUOUS
 62
    4
 10
1176.9341999999999
 20
1006.2536
 11
1181.8417999999999
 21
1006.0291999999999
  0
LINE
  8
_0-0_LAYER001
  6
CONTINUOUS
 62
    4
 10
1181.8417999999999
 20
1006.0291999999999
 11
1186.6891000000001
 21
1005.9463000000001
  0
LINE
  8
_0-0_LAYER001
  6
CONTINUOUS
 62
    4
 10
1186.6891000000001
 20
1005.9463000000001
 11
1191.4730999999999
 21
1005.9838999999999
  0
LINE
  8
_0-0_LAYER001
  6
CONTINUOUS
 62
    4
 10
1191.4730999999999
 20
1005.9838999999999
 11
1196.1606999999999
 21
1006.1208999999999
  0
LINE
  8
_0-0_LAYER001
  6
CONTINUOUS
 62
    4
 10
1196.1606999999999
 20
1006.1208999999999
 11
1198.9378999999999
 21
1006.2420999999999
  0
LINE
  8
_0-0_LAYER001
  6
CONTINUOUS
 62
    4
 10
1198.9378999999999
 20
1006.2420999999999
 11
1203.9702
 21
1006.5274999999999
  0
LINE
  8
_0-0_LAYER001
  6
CONTINUOUS
 62
    4
 10
1203.9702
 20
1006.5274999999999
 11
1212.4964
 21
1007.1886
  0
LINE
  8
_0-0_LAYER001
  6
CONTINUOUS
 62
    4
 10
1212.4964
 20
1007.1886
 11
1220.9811999999999
 21
1008.039
  0
LINE
  8
_0-0_LAYER001
  6
CONTINUOUS
 62
    4
 10
1220.9811999999999
 20
1008.039
 11
1229.3725999999999
 21
1009.0341000000001
  0
LINE
  8
_0-0_LAYER001
  6
CONTINUOUS
 62
    4
 10
1229.3725999999999
 20
1009.0341000000001
 11
1237.6732999999999
 21
1010.1348
  0
LINE
  8
_0-0_LAYER001
  6
CONTINUOUS
 62
    4
 10
1237.6732999999999
 20
1010.1348
 11
1245.8810000000001
 21
1011.3019999999999
  0
LINE
  8
_0-0_LAYER001
  6
CONTINUOUS
 62
    4
 10
1245.8810000000001
 20
1011.3019999999999
 11
1250.6180999999999
 21
1011.9974
  0
LINE
  8
_0-0_LAYER001
  6
CONTINUOUS
 62
    4
 10
1250.6180999999999
 20
1011.9974
 11
1253.0735
 21
1012.3613
  0
LINE
  8
_0-0_LAYER001
  6
CONTINUOUS
 62
    4
 10
1253.0735
 20
1012.3613
 11
1257.2876000000001
 21
1012.9899
  0
LINE
  8
_0-0_LAYER001
  6
CONTINUOUS
 62
    4
 10
1257.2876000000001
 20
1012.9899
 11
1261.4991
 21
1013.6224
  0
LINE
  8
_0-0_LAYER001
  6
CONTINUOUS
 62
    4
 10
1261.4991
 20
1013.6224
 11
1265.7058999999999
 21
1014.2574
  0
LINE
  8
_0-0_LAYER001
  6
CONTINUOUS
 62
    4
 10
1265.7058999999999
 20
1014.2574
 11
1269.9081000000001
 21
1014.8942
  0
LINE
  8
_0-0_LAYER001
  6
CONTINUOUS
 62
    4
 10
1269.9081000000001
 20
1014.8942
 11
1274.106
 21
1015.5319
  0
LINE
  8
_0-0_LAYER001
  6
CONTINUOUS
 62
    4
 10
1274.106
 20
1015.5319
 11
1275.7237
 21
1015.7778000000001
  0
LINE
  8
_0-0_LAYER001
  6
CONTINUOUS
 62
    4
 10
1023.2683999999999
 20
1058.7438999999999
 11
1023.6944000000001
 21
1058.9069
  0
ARC
  8
_0-0_LAYER001
  6
CONTINUOUS
 62
    4
 10
1024.3409999999999
 20
1055.9422
 40
3
 50
110.94902000000002
 51
178.70000000000002
  0
LINE
  8
_0-0_LAYER001
  6
CONTINUOUS
 62
    4
 10
1021.2325000000001
 20
1040.1711
 11
1021.2325000000001
 21
1055.8936000000001
  0
LINE
  8
_0-0_LAYER001
  6
CONTINUOUS
 62
    4
 10
1022.5864999999999
 20
1039.2358999999999
 11
1028.7612999999999
 21
1041.5730000000001
  0
ARC
  8
_0-0_LAYER001
  6
CONTINUOUS
 62
    4
 10
1022.2325000000001
 20
1040.1711
 40
1
 50
180
 51
290.73165999999998
  0
LINE
  8
_0-0_LAYER001
  6
CONTINUOUS
 62
    4
 10
1273.9591
 20
1033.7327
 11
1318.4132999999999
 21
1043.3806
  0
LINE
  8
_0-0_LAYER001
  6
CONTINUOUS
 62
    4
 10
1280.7043000000001
 20
1013.8989999999999
 11
1319.3761
 21
1022.9490000000001
  0
LINE
  8
_0-0_LAYER001
  6
CONTINUOUS
 62
    4
 10
1319.3761
 20
1023.9054000000001
 11
1319.3761
 21
1022.9490000000001
  0
ARC
  8
_0-0_LAYER001
  6
CONTINUOUS
 62
    4
 10
1320.3761
 20
1023.9054000000001
 40
1
 50
102.72435
 51
180
  0
LINE
  8
_0-0_LAYER001
  6
CONTINUOUS
 62
    4
 10
1325.1931
 20
1026.0183
 11
1320.1558
 21
1024.8809000000001
  0
ARC
  8
_0-0_LAYER001
  6
CONTINUOUS
 62
    4
 10
1325.4132999999999
 20
1025.0428999999999
 40
1
 50
0
 51
102.72435
  0
LINE
  8
_0-0_LAYER001
  6
CONTINUOUS
 62
    4
 10
1325.6253999999999
 20
1026.5268000000001
 11
1275.4915000000001
 21
1015.6463000000001
  0
ARC
  8
_0-0_LAYER001
  6
CONTINUOUS
 62
    4
 10
1325.4132999999999
 20
1027.5041000000001
 40
1
 50
282.24497000000002
 51
0
  0
LINE
  8
_0-0_LAYER001
  6
CONTINUOUS
 62
    4
 10
1325.6312
 20
1005.7861
 11
1276.0472
 21
994.71820000000002
  0
LINE
  8
_0-0_LAYER001
  6
CONTINUOUS
 62
    4
 10
1326.4132999999997
 20
1006.7620999999999
 11
1326.4132999999997
 21
1025.0428999999999
  0
ARC
  8
_0-0_LAYER001
  6
CONTINUOUS
 62
    4
 10
1325.4132999999999
 20
1006.7620999999999
 40
1
 50
282.58296000000001
 51
0.0000000000000254
  0
LINE
  8
_0-0_LAYER001
  6
CONTINUOUS
 62
    4
 10
1318.4132999999999
 20
1044.8376000000001
 11
1318.4132999999999
 21
1043.3806
  0
ARC
  8
_0-0_LAYER001
  6
CONTINUOUS
 62
    4
 10
1319.4132999999999
 20
1044.8376000000001
 40
1
 50
101.73308
 51
180
  0
LINE
  8
_0-0_LAYER001
  6
CONTINUOUS
 62
    4
 10
1325.21
 20
1047.0628999999999
 11
1319.21
 21
1045.8167000000001
  0
LINE
  8
_0-0_LAYER001
  6
CONTINUOUS
 62
    4
 10
1326.4132999999997
 20
1046.0838000000001
 11
1326.4132999999997
 21
1027.5041000000001
  0
ARC
  8
_0-0_LAYER001
  6
CONTINUOUS
 62
    4
 10
1325.4132999999999
 20
1046.0838000000001
 40
1
 50
0
 51
101.73308
  0
LINE
  8
_0-0_LAYER001
  6
CONTINUOUS
 62
    4
 10
881.68270000000007
 20
975.19389999999999
 11
873.14730000000009
 21
989.72720000000004
  0
LINE
  8
_0-0_LAYER001
  6
CONTINUOUS
 62
    4
 10
889.85059999999999
 20
974.54359999999997
 11
898.15679999999998
 21
984.6090999999999
  0
ARC
  8
_0-0_LAYER001
  6
CONTINUOUS
 62
    4
 10
885.99420000000009
 20
977.72600000000011
 40
5
 50
210.42578
 51
320.47001
  0
LINE
  8
_0-0_LAYER001
  6
CONTINUOUS
 62
    4
 10
965.7962
 20
974.07369999999992
 11
958.47090000000003
 21
985.37979999999993
  0
LINE
  8
_0-0_LAYER001
  6
CONTINUOUS
 62
    4
 10
974.30580000000009
 20
974.2636
 11
983.24420000000009
 21
989.50929999999994
  0
ARC
  8
_0-0_LAYER001
  6
CONTINUOUS
 62
    4
 10
969.99240000000009
 20
976.79250000000002
 40
5
 50
212.93986000000001
 51
329.61716000000001
  0
LINE
  8
_0-0_LAYER001
  6
CONTINUOUS
 62
    4
 10
1013.5878
 20
1013.8213000000001
 11
1016.0159000000001
 21
1014.2252000000001
  0
LINE
  8
_0-0_LAYER001
  6
CONTINUOUS
 62
    4
 10
1009.3987999999999
 20
1013.125
 11
1013.5878
 21
1013.8213000000001
  0
LINE
  8
_0-0_LAYER001
  6
CONTINUOUS
 62
    4
 10
1005.2049999999999
 20
1012.4295
 11
1009.3987999999999
 21
1013.125
  0
LINE
  8
_0-0_LAYER001
  6
CONTINUOUS
 62
    4
 10
1001.0062
 20
1011.7355
 11
1005.2049999999999
 21
1012.4295
  0
LINE
  8
_0-0_LAYER001
  6
CONTINUOUS
 62
    4
 10
996.80210000000011
 20
1011.0440000000001
 11
1001.0062
 21
1011.7355
  0
LINE
  8
_0-0_LAYER001
  6
CONTINUOUS
 62
    4
 10
992.59529999999995
 20
1010.3563999999999
 11
996.80210000000011
 21
1011.0440000000001
  0
LINE
  8
_0-0_LAYER001
  6
CONTINUOUS
 62
    4
 10
990.14300000000003
 20
1009.9579000000001
 11
992.59529999999995
 21
1010.3563999999999
  0
LINE
  8
_0-0_LAYER001
  6
CONTINUOUS
 62
    4
 10
985.41020000000003
 20
1009.1954000000001
 11
990.14300000000003
 21
1009.9579000000001
  0
LINE
  8
_0-0_LAYER001
  6
CONTINUOUS
 62
    4
 10
977.20579999999995
 20
1007.9114999999999
 11
985.41020000000003
 21
1009.1954000000001
  0
LINE
  8
_0-0_LAYER001
  6
CONTINUOUS
 62
    4
 10
968.89830000000006
 20
1006.6917000000001
 11
977.20579999999995
 21
1007.9114999999999
  0
LINE
  8
_0-0_LAYER001
  6
CONTINUOUS
 62
    4
 10
960.49009999999998
 20
1005.5753
 11
968.89830000000006
 21
1006.6917000000001
  0
LINE
  8
_0-0_LAYER001
  6
CONTINUOUS
 62
    4
 10
951.97749999999996
 20
1004.6018999999999
 11
960.49009999999998
 21
1005.5753
  0
LINE
  8
_0-0_LAYER001
  6
CONTINUOUS
 62
    4
 10
943.41830000000004
 20
1003.8179
 11
951.97749999999996
 21
1004.6018999999999
  0
LINE
  8
_0-0_LAYER001
  6
CONTINUOUS
 62
    4
 10
938.35680000000002
 20
1003.4599000000001
 11
943.41830000000004
 21
1003.8179
  0
LINE
  8
_0-0_LAYER001
  6
CONTINUOUS
 62
    4
 10
935.55420000000004
 20
1003.2982999999999
 11
938.35680000000002
 21
1003.4599000000001
  0
LINE
  8
_0-0_LAYER001
  6
CONTINUOUS
 62
    4
 10
930.83320000000003
 20
1003.0944
 11
935.55420000000004
 21
1003.2982999999999
  0
LINE
  8
_0-0_LAYER001
  6
CONTINUOUS
 62
    4
 10
926.00399999999991
 20
1002.9889000000001
 11
930.83320000000003
 21
1003.0944
  0
LINE
  8
_0-0_LAYER001
  6
CONTINUOUS
 62
    4
 10
921.10239999999999
 20
1003.0043000000001
 11
926.00399999999991
 21
1002.9889000000001
  0
LINE
  8
_0-0_LAYER001
  6
CONTINUOUS
 62
    4
 10
916.13130000000001
 20
1003.1622
 11
921.10239999999999
 21
1003.0043000000001
  0
LINE
  8
_0-0_LAYER001
  6
CONTINUOUS
 62
    4
 10
911.1739
 20
1003.4799
 11
916.13130000000001
 21
1003.1622
  0
LINE
  8
_0-0_LAYER001
  6
CONTINUOUS
 62
    4
 10
908.1223
 20
1003.7614000000001
 11
911.1739
 21
1003.4799
  0
LINE
  8
_0-0_LAYER001
  6
CONTINUOUS
 62
    4
 10
904.19340000000011
 20
1004.2236
 11
908.1223
 21
1003.7614000000001
  0
LINE
  8
_0-0_LAYER001
  6
CONTINUOUS
 62
    4
 10
897.67949999999996
 20
1005.2461000000001
 11
904.19340000000011
 21
1004.2236
  0
LINE
  8
_0-0_LAYER001
  6
CONTINUOUS
 62
    4
 10
891.13290000000006
 20
1006.5983000000001
 11
897.67949999999996
 21
1005.2461000000001
  0
LINE
  8
_0-0_LAYER001
  6
CONTINUOUS
 62
    4
 10
884.6699000000001
 20
1008.2542000000001
 11
891.13290000000006
 21
1006.5983000000001
  0
LINE
  8
_0-0_LAYER001
  6
CONTINUOUS
 62
    4
 10
878.30400000000009
 20
1010.2049
 11
884.6699000000001
 21
1008.2542000000001
  0
LINE
  8
_0-0_LAYER001
  6
CONTINUOUS
 62
    4
 10
872.13920000000007
 20
1012.4097999999999
 11
878.30400000000009
 21
1010.2049
  0
LINE
  8
_0-0_LAYER001
  6
CONTINUOUS
 62
    4
 10
868.45260000000007
 20
1013.8815999999999
 11
872.13920000000007
 21
1012.4097999999999
  0
LINE
  8
_0-0_LAYER001
  6
CONTINUOUS
 62
    4
 10
864.08829999999989
 20
1015.7741000000001
 11
868.45260000000007
 21
1013.8815999999999
  0
LINE
  8
_0-0_LAYER001
  6
CONTINUOUS
 62
    4
 10
857.01919999999996
 20
1019.1891000000001
 11
864.08829999999989
 21
1015.7741000000001
  0
LINE
  8
_0-0_LAYER001
  6
CONTINUOUS
 62
    4
 10
850.1262999999999
 20
1022.9186999999999
 11
857.01919999999996
 21
1019.1891000000001
  0
LINE
  8
_0-0_LAYER001
  6
CONTINUOUS
 62
    4
 10
843.48929999999996
 20
1026.8524
 11
850.1262999999999
 21
1022.9186999999999
  0
LINE
  8
_0-0_LAYER001
  6
CONTINUOUS
 62
    4
 10
837.07999999999993
 20
1030.9348
 11
843.48929999999996
 21
1026.8524
  0
LINE
  8
_0-0_LAYER001
  6
CONTINUOUS
 62
    4
 10
836.95650000000001
 20
1031.018
 11
837.07999999999993
 21
1030.9348
  0
LINE
  8
_0-0_LAYER001
  6
CONTINUOUS
 62
    4
 10
1009.5771999999999
 20
994.63380000000006
 11
1011.1913
 21
994.90229999999997
  0
LINE
  8
_0-0_LAYER001
  6
CONTINUOUS
 62
    4
 10
1005.3886
 20
993.93759999999997
 11
1009.5771999999999
 21
994.63380000000006
  0
LINE
  8
_0-0_LAYER001
  6
CONTINUOUS
 62
    4
 10
1001.1957
 20
993.24219999999991
 11
1005.3886
 21
993.93759999999997
  0
LINE
  8
_0-0_LAYER001
  6
CONTINUOUS
 62
    4
 10
996.9982
 20
992.5485000000001
 11
1001.1957
 21
993.24219999999991
  0
LINE
  8
_0-0_LAYER001
  6
CONTINUOUS
 62
    4
 10
992.79590000000007
 20
991.8572999999999
 11
996.9982
 21
992.5485000000001
  0
LINE
  8
_0-0_LAYER001
  6
CONTINUOUS
 62
    4
 10
988.59099999999989
 20
991.1699000000001
 11
992.79590000000007
 21
991.8572999999999
  0
LINE
  8
_0-0_LAYER001
  6
CONTINUOUS
 62
    4
 10
986.14100000000008
 20
990.77179999999998
 11
988.59099999999989
 21
991.1699000000001
  0
LINE
  8
_0-0_LAYER001
  6
CONTINUOUS
 62
    4
 10
981.41399999999999
 20
990.01029999999992
 11
986.14100000000008
 21
990.77179999999998
  0
LINE
  8
_0-0_LAYER001
  6
CONTINUOUS
 62
    4
 10
973.22340000000008
 20
988.72849999999994
 11
981.41399999999999
 21
990.01029999999992
  0
LINE
  8
_0-0_LAYER001
  6
CONTINUOUS
 62
    4
 10
964.9387999999999
 20
987.51209999999992
 11
973.22340000000008
 21
988.72849999999994
  0
LINE
  8
_0-0_LAYER001
  6
CONTINUOUS
 62
    4
 10
956.56220000000008
 20
986.39989999999989
 11
964.9387999999999
 21
987.51209999999992
  0
LINE
  8
_0-0_LAYER001
  6
CONTINUOUS
 62
    4
 10
948.09009999999989
 20
985.43119999999999
 11
956.56220000000008
 21
986.39989999999989
  0
LINE
  8
_0-0_LAYER001
  6
CONTINUOUS
 62
    4
 10
939.57400000000007
 20
984.65110000000004
 11
948.09009999999989
 21
985.43119999999999
  0
LINE
  8
_0-0_LAYER001
  6
CONTINUOUS
 62
    4
 10
934.54610000000002
 20
984.29549999999995
 11
939.57400000000007
 21
984.65110000000004
  0
LINE
  8
_0-0_LAYER001
  6
CONTINUOUS
 62
    4
 10
931.77089999999998
 20
984.13550000000009
 11
934.54610000000002
 21
984.29549999999995
  0
LINE
  8
_0-0_LAYER001
  6
CONTINUOUS
 62
    4
 10
927.08560000000011
 20
983.93299999999999
 11
931.77089999999998
 21
984.13550000000009
  0
LINE
  8
_0-0_LAYER001
  6
CONTINUOUS
 62
    4
 10
922.30269999999996
 20
983.82860000000005
 11
927.08560000000011
 21
983.93299999999999
  0
LINE
  8
_0-0_LAYER001
  6
CONTINUOUS
 62
    4
 10
917.4547
 20
983.8438000000001
 11
922.30269999999996
 21
983.82860000000005
  0
LINE
  8
_0-0_LAYER001
  6
CONTINUOUS
 62
    4
 10
912.54449999999997
 20
983.99970000000008
 11
917.4547
 21
983.8438000000001
  0
LINE
  8
_0-0_LAYER001
  6
CONTINUOUS
 62
    4
 10
907.64720000000011
 20
984.31359999999995
 11
912.54449999999997
 21
983.99970000000008
  0
LINE
  8
_0-0_LAYER001
  6
CONTINUOUS
 62
    4
 10
904.64840000000004
 20
984.5902000000001
 11
907.64720000000011
 21
984.31359999999995
  0
LINE
  8
_0-0_LAYER001
  6
CONTINUOUS
 62
    4
 10
900.78289999999993
 20
985.04500000000007
 11
904.64840000000004
 21
984.5902000000001
  0
LINE
  8
_0-0_LAYER001
  6
CONTINUOUS
 62
    4
 10
894.35449999999992
 20
986.05410000000006
 11
900.78289999999993
 21
985.04500000000007
  0
LINE
  8
_0-0_LAYER001
  6
CONTINUOUS
 62
    4
 10
887.90100000000007
 20
987.38699999999994
 11
894.35449999999992
 21
986.05410000000006
  0
LINE
  8
_0-0_LAYER001
  6
CONTINUOUS
 62
    4
 10
881.52880000000005
 20
989.01960000000008
 11
887.90100000000007
 21
987.38699999999994
  0
LINE
  8
_0-0_LAYER001
  6
CONTINUOUS
 62
    4
 10
875.25150000000008
 20
990.94319999999993
 11
881.52880000000005
 21
989.01960000000008
  0
LINE
  8
_0-0_LAYER001
  6
CONTINUOUS
 62
    4
 10
869.16439999999989
 20
993.12030000000004
 11
875.25150000000008
 21
990.94319999999993
  0
LINE
  8
_0-0_LAYER001
  6
CONTINUOUS
 62
    4
 10
865.53880000000004
 20
994.56780000000003
 11
869.16439999999989
 21
993.12030000000004
  0
LINE
  8
_0-0_LAYER001
  6
CONTINUOUS
 62
    4
 10
861.23890000000006
 20
996.43239999999992
 11
865.53880000000004
 21
994.56780000000003
  0
LINE
  8
_0-0_LAYER001
  6
CONTINUOUS
 62
    4
 10
854.24800000000005
 20
999.80960000000005
 11
861.23890000000006
 21
996.43239999999992
  0
LINE
  8
_0-0_LAYER001
  6
CONTINUOUS
 62
    4
 10
847.42990000000009
 20
1003.4987000000001
 11
854.24800000000005
 21
999.80960000000005
  0
LINE
  8
_0-0_LAYER001
  6
CONTINUOUS
 62
    4
 10
840.85410000000002
 20
1007.3960999999999
 11
847.42990000000009
 21
1003.4987000000001
  0
LINE
  8
_0-0_LAYER001
  6
CONTINUOUS
 62
    4
 10
836.95650000000001
 20
1009.8787
 11
840.85410000000002
 21
1007.3960999999999
  0
LINE
  8
_0-0_LAYER001
  6
CONTINUOUS
 62
    4
 10
1006.2927
 20
984.21260000000007
 11
1004.0473
 21
992.78600000000006
  0
ARC
  8
_0-0_LAYER001
  6
CONTINUOUS
 62
    4
 10
1009.1948
 20
984.97270000000003
 40
3
 50
194.67639000000003
 51
270.00000000000006
  0
LINE
  8
_0-0_LAYER001
  6
CONTINUOUS
 62
    4
 10
1012.6373000000001
 20
981.9683
 11
1009.2194999999999
 21
981.9683
  0
LINE
  8
_0-0_LAYER001
  6
CONTINUOUS
 62
    4
 10
1015.5965000000001
 20
984.47510000000011
 11
1017.5305000000001
 21
996.0793000000001
  0
ARC
  8
_0-0_LAYER001
  6
CONTINUOUS
 62
    4
 10
1012.6373000000001
 20
984.9683
 40
3
 50
270
 51
350.53766999999999
  0
LINE
  8
_0-0_LAYER001
  6
CONTINUOUS
 62
    4
 10
836.95650000000001
 20
1055.1809000000001
 11
838.72949999999992
 21
1053.9105999999999
  0
LINE
  8
_0-0_LAYER001
  6
CONTINUOUS
 62
    4
 10
838.72949999999992
 20
1053.9105999999999
 11
844.52170000000001
 21
1049.8937000000001
  0
LINE
  8
_0-0_LAYER001
  6
CONTINUOUS
 62
    4
 10
844.52170000000001
 20
1049.8937000000001
 11
850.39390000000003
 21
1046.0371
  0
LINE
  8
_0-0_LAYER001
  6
CONTINUOUS
 62
    4
 10
850.39390000000003
 20
1046.0371
 11
856.36809999999991
 21
1042.3825999999999
  0
LINE
  8
_0-0_LAYER001
  6
CONTINUOUS
 62
    4
 10
856.36809999999991
 20
1042.3825999999999
 11
862.46630000000005
 21
1038.9721
  0
LINE
  8
_0-0_LAYER001
  6
CONTINUOUS
 62
    4
 10
862.46630000000005
 20
1038.9721
 11
868.71049999999991
 21
1035.8471999999999
  0
LINE
  8
_0-0_LAYER001
  6
CONTINUOUS
 62
    4
 10
868.71049999999991
 20
1035.8471999999999
 11
872.40779999999995
 21
1034.1822999999999
  0
LINE
  8
_0-0_LAYER001
  6
CONTINUOUS
 62
    4
 10
872.40779999999995
 20
1034.1822999999999
 11
875.46710000000007
 21
1032.9111
  0
LINE
  8
_0-0_LAYER001
  6
CONTINUOUS
 62
    4
 10
875.46710000000007
 20
1032.9111
 11
880.82760000000007
 21
1030.9090000000001
  0
LINE
  8
_0-0_LAYER001
  6
CONTINUOUS
 62
    4
 10
880.82760000000007
 20
1030.9090000000001
 11
886.28330000000005
 21
1029.1534999999999
  0
LINE
  8
_0-0_LAYER001
  6
CONTINUOUS
 62
    4
 10
886.28330000000005
 20
1029.1534999999999
 11
891.81829999999991
 21
1027.6527000000001
  0
LINE
  8
_0-0_LAYER001
  6
CONTINUOUS
 62
    4
 10
891.81829999999991
 20
1027.6527000000001
 11
897.41660000000002
 21
1026.4147
  0
LINE
  8
_0-0_LAYER001
  6
CONTINUOUS
 62
    4
 10
897.41660000000002
 20
1026.4147
 11
903.06230000000005
 21
1025.4475
  0
LINE
  8
_0-0_LAYER001
  6
CONTINUOUS
 62
    4
 10
903.06230000000005
 20
1025.4475
 11
906.35230000000001
 21
1025.0137999999999
  0
LINE
  8
_0-0_LAYER001
  6
CONTINUOUS
 62
    4
 10
906.35230000000001
 20
1025.0137999999999
 11
908.87159999999994
 21
1024.7458999999999
  0
LINE
  8
_0-0_LAYER001
  6
CONTINUOUS
 62
    4
 10
908.87159999999994
 20
1024.7458999999999
 11
913.22370000000001
 21
1024.4059
  0
LINE
  8
_0-0_LAYER001
  6
CONTINUOUS
 62
    4
 10
913.22370000000001
 20
1024.4059
 11
917.58390000000009
 21
1024.2065
  0
LINE
  8
_0-0_LAYER001
  6
CONTINUOUS
 62
    4
 10
917.58390000000009
 20
1024.2065
 11
921.94910000000004
 21
1024.1318000000001
  0
LINE
  8
_0-0_LAYER001
  6
CONTINUOUS
 62
    4
 10
921.94910000000004
 20
1024.1318000000001
 11
926.31619999999998
 21
1024.1661999999999
  0
LINE
  8
_0-0_LAYER001
  6
CONTINUOUS
 62
    4
 10
926.31619999999998
 20
1024.1661999999999
 11
930.68209999999999
 21
1024.2937999999999
  0
LINE
  8
_0-0_LAYER001
  6
CONTINUOUS
 62
    4
 10
930.68209999999999
 20
1024.2937999999999
 11
933.21250000000009
 21
1024.4041999999999
  0
LINE
  8
_0-0_LAYER001
  6
CONTINUOUS
 62
    4
 10
933.21250000000009
 20
1024.4041999999999
 11
937.94160000000011
 21
1024.6723999999999
  0
LINE
  8
_0-0_LAYER001
  6
CONTINUOUS
 62
    4
 10
937.94160000000011
 20
1024.6723999999999
 11
946.07979999999998
 21
1025.3034
  0
LINE
  8
_0-0_LAYER001
  6
CONTINUOUS
 62
    4
 10
946.07979999999998
 20
1025.3034
 11
954.20059999999989
 21
1026.1172999999999
  0
LINE
  8
_0-0_LAYER001
  6
CONTINUOUS
 62
    4
 10
954.20059999999989
 20
1026.1172999999999
 11
962.30639999999994
 21
1027.0786000000001
  0
LINE
  8
_0-0_LAYER001
  6
CONTINUOUS
 62
    4
 10
962.30639999999994
 20
1027.0786000000001
 11
970.39989999999989
 21
1028.1516999999999
  0
LINE
  8
_0-0_LAYER001
  6
CONTINUOUS
 62
    4
 10
970.39989999999989
 20
1028.1516999999999
 11
978.48340000000007
 21
1029.3013000000001
  0
LINE
  8
_0-0_LAYER001
  6
CONTINUOUS
 62
    4
 10
978.48340000000007
 20
1029.3013000000001
 11
983.16830000000004
 21
1029.9891
  0
LINE
  8
_0-0_LAYER001
  6
CONTINUOUS
 62
    4
 10
983.16830000000004
 20
1029.9891
 11
985.60320000000002
 21
1030.3499999999999
  0
LINE
  8
_0-0_LAYER001
  6
CONTINUOUS
 62
    4
 10
985.60320000000002
 20
1030.3499999999999
 11
989.8001999999999
 21
1030.9760000000001
  0
LINE
  8
_0-0_LAYER001
  6
CONTINUOUS
 62
    4
 10
989.8001999999999
 20
1030.9760000000001
 11
993.99600000000009
 21
1031.6061
  0
LINE
  8
_0-0_LAYER001
  6
CONTINUOUS
 62
    4
 10
993.99600000000009
 20
1031.6061
 11
998.19080000000008
 21
1032.2393
  0
LINE
  8
_0-0_LAYER001
  6
CONTINUOUS
 62
    4
 10
998.19080000000008
 20
1032.2393
 11
1002.385
 21
1032.8749
  0
LINE
  8
_0-0_LAYER001
  6
CONTINUOUS
 62
    4
 10
1002.385
 20
1032.8749
 11
1006.5787
 21
1033.5119
  0
LINE
  8
_0-0_LAYER001
  6
CONTINUOUS
 62
    4
 10
1006.5787
 20
1033.5119
 11
1009.011
 21
1033.8816999999999
  0
LINE
  8
_0-0_LAYER001
  6
CONTINUOUS
 62
    4
 10
836.95650000000001
 20
1033.3272999999999
 11
840.75440000000003
 21
1030.8330000000001
  0
LINE
  8
_0-0_LAYER001
  6
CONTINUOUS
 62
    4
 10
840.75440000000003
 20
1030.8330000000001
 11
847.27510000000007
 21
1026.8442
  0
LINE
  8
_0-0_LAYER001
  6
CONTINUOUS
 62
    4
 10
847.27510000000007
 20
1026.8442
 11
854.04109999999991
 21
1023.0601999999999
  0
LINE
  8
_0-0_LAYER001
  6
CONTINUOUS
 62
    4
 10
854.04109999999991
 20
1023.0601999999999
 11
860.9840999999999
 21
1019.5857000000001
  0
LINE
  8
_0-0_LAYER001
  6
CONTINUOUS
 62
    4
 10
860.9840999999999
 20
1019.5857000000001
 11
865.25749999999994
 21
1017.6613
  0
LINE
  8
_0-0_LAYER001
  6
CONTINUOUS
 62
    4
 10
865.25749999999994
 20
1017.6613
 11
868.86259999999993
 21
1016.1633999999999
  0
LINE
  8
_0-0_LAYER001
  6
CONTINUOUS
 62
    4
 10
868.86259999999993
 20
1016.1633999999999
 11
874.91869999999994
 21
1013.9014
  0
LINE
  8
_0-0_LAYER001
  6
CONTINUOUS
 62
    4
 10
874.91869999999994
 20
1013.9014
 11
881.16859999999997
 21
1011.8904
  0
LINE
  8
_0-0_LAYER001
  6
CONTINUOUS
 62
    4
 10
881.16859999999997
 20
1011.8904
 11
887.51729999999998
 21
1010.1690000000001
  0
LINE
  8
_0-0_LAYER001
  6
CONTINUOUS
 62
    4
 10
887.51729999999998
 20
1010.1690000000001
 11
893.9516000000001
 21
1008.7461000000001
  0
LINE
  8
_0-0_LAYER001
  6
CONTINUOUS
 62
    4
 10
893.9516000000001
 20
1008.7461000000001
 11
900.36529999999993
 21
1007.6473000000001
  0
LINE
  8
_0-0_LAYER001
  6
CONTINUOUS
 62
    4
 10
900.36529999999993
 20
1007.6473000000001
 11
904.22409999999991
 21
1007.1386
  0
LINE
  8
_0-0_LAYER001
  6
CONTINUOUS
 62
    4
 10
904.22409999999991
 20
1007.1386
 11
907.2186999999999
 21
1006.8202000000001
  0
LINE
  8
_0-0_LAYER001
  6
CONTINUOUS
 62
    4
 10
907.2186999999999
 20
1006.8202000000001
 11
912.11110000000008
 21
1006.4380000000001
  0
LINE
  8
_0-0_LAYER001
  6
CONTINUOUS
 62
    4
 10
912.11110000000008
 20
1006.4380000000001
 11
917.01860000000011
 21
1006.2135000000001
  0
LINE
  8
_0-0_LAYER001
  6
CONTINUOUS
 62
    4
 10
917.01860000000011
 20
1006.2135000000001
 11
921.86599999999999
 21
1006.1306
  0
LINE
  8
_0-0_LAYER001
  6
CONTINUOUS
 62
    4
 10
921.86599999999999
 20
1006.1306
 11
926.64989999999989
 21
1006.1683
  0
LINE
  8
_0-0_LAYER001
  6
CONTINUOUS
 62
    4
 10
926.64989999999989
 20
1006.1683
 11
931.33760000000007
 21
1006.3052
  0
LINE
  8
_0-0_LAYER001
  6
CONTINUOUS
 62
    4
 10
931.33760000000007
 20
1006.3052
 11
934.11470000000008
 21
1006.4265
  0
LINE
  8
_0-0_LAYER001
  6
CONTINUOUS
 62
    4
 10
934.11470000000008
 20
1006.4265
 11
939.14709999999991
 21
1006.7119
  0
LINE
  8
_0-0_LAYER001
  6
CONTINUOUS
 62
    4
 10
939.14709999999991
 20
1006.7119
 11
947.67319999999995
 21
1007.373
  0
LINE
  8
_0-0_LAYER001
  6
CONTINUOUS
 62
    4
 10
947.67319999999995
 20
1007.373
 11
956.1581000000001
 21
1008.2233000000001
  0
LINE
  8
_0-0_LAYER001
  6
CONTINUOUS
 62
    4
 10
956.1581000000001
 20
1008.2233000000001
 11
964.54940000000011
 21
1009.2184
  0
LINE
  8
_0-0_LAYER001
  6
CONTINUOUS
 62
    4
 10
964.54940000000011
 20
1009.2184
 11
972.85010000000011
 21
1010.3190999999999
  0
LINE
  8
_0-0_LAYER001
  6
CONTINUOUS
 62
    4
 10
972.85010000000011
 20
1010.3190999999999
 11
981.05790000000002
 21
1011.4863
  0
LINE
  8
_0-0_LAYER001
  6
CONTINUOUS
 62
    4
 10
981.05790000000002
 20
1011.4863
 11
985.79500000000007
 21
1012.1818000000001
  0
LINE
  8
_0-0_LAYER001
  6
CONTINUOUS
 62
    4
 10
985.79500000000007
 20
1012.1818000000001
 11
988.25029999999992
 21
1012.5456999999999
  0
LINE
  8
_0-0_LAYER001
  6
CONTINUOUS
 62
    4
 10
988.25029999999992
 20
1012.5456999999999
 11
992.46450000000004
 21
1013.1741999999999
  0
LINE
  8
_0-0_LAYER001
  6
CONTINUOUS
 62
    4
 10
992.46450000000004
 20
1013.1741999999999
 11
996.67599999999993
 21
1013.8067000000001
  0
LINE
  8
_0-0_LAYER001
  6
CONTINUOUS
 62
    4
 10
996.67599999999993
 20
1013.8067000000001
 11
1000.8827000000001
 21
1014.4418000000001
  0
LINE
  8
_0-0_LAYER001
  6
CONTINUOUS
 62
    4
 10
1000.8827000000001
 20
1014.4418000000001
 11
1005.085
 21
1015.0786000000001
  0
LINE
  8
_0-0_LAYER001
  6
CONTINUOUS
 62
    4
 10
1005.085
 20
1015.0786000000001
 11
1009.2828999999999
 21
1015.7162000000001
  0
LINE
  8
_0-0_LAYER001
  6
CONTINUOUS
 62
    4
 10
1009.2828999999999
 20
1015.7162000000001
 11
1010.9005999999999
 21
1015.9621
  0
LINE
  8
_0-0_LAYER001
  6
CONTINUOUS
 62
    4
 10
1021.4094
 20
1019.0332000000001
 11
1021.4094
 21
1036.2306000000001
  0
LINE
  8
_0-0_LAYER001
  6
CONTINUOUS
 62
    4
 10
1009.1359
 20
1033.9170999999999
 11
1053.5902000000001
 21
1043.5649000000001
  0
LINE
  8
_0-0_LAYER001
  6
CONTINUOUS
 62
    4
 10
1015.8811000000001
 20
1014.0833
 11
1054.5528999999999
 21
1023.1333
  0
LINE
  8
_0-0_LAYER001
  6
CONTINUOUS
 62
    4
 10
1054.5528999999999
 20
1024.0898
 11
1054.5528999999999
 21
1023.1333
  0
ARC
  8
_0-0_LAYER001
  6
CONTINUOUS
 62
    4
 10
1055.5528999999999
 20
1024.0898
 40
1
 50
102.72435
 51
180
  0
LINE
  8
_0-0_LAYER001
  6
CONTINUOUS
 62
    4
 10
1060.3698999999999
 20
1026.2027
 11
1055.3326999999999
 21
1025.0652
  0
ARC
  8
_0-0_LAYER001
  6
CONTINUOUS
 62
    4
 10
1060.5902000000001
 20
1025.2272
 40
1
 50
0
 51
102.72435
  0
LINE
  8
_0-0_LAYER001
  6
CONTINUOUS
 62
    4
 10
1060.8023000000001
 20
1026.7111
 11
1010.6683
 21
1015.8306
  0
ARC
  8
_0-0_LAYER001
  6
CONTINUOUS
 62
    4
 10
1060.5902000000001
 20
1027.6884
 40
1
 50
282.24497000000002
 51
0
  0
LINE
  8
_0-0_LAYER001
  6
CONTINUOUS
 62
    4
 10
1060.8081
 20
1005.9703999999999
 11
1011.2240999999999
 21
994.90259999999989
  0
LINE
  8
_0-0_LAYER001
  6
CONTINUOUS
 62
    4
 10
1061.5902000000001
 20
1006.9464
 11
1061.5902000000001
 21
1025.2272
  0
ARC
  8
_0-0_LAYER001
  6
CONTINUOUS
 62
    4
 10
1060.5902000000001
 20
1006.9464
 40
1
 50
282.58296000000001
 51
0.0000000000000254
  0
LINE
  8
_0-0_LAYER001
  6
CONTINUOUS
 62
    4
 10
1053.5902000000001
 20
1045.0219999999999
 11
1053.5902000000001
 21
1043.5649000000001
  0
ARC
  8
_0-0_LAYER001
  6
CONTINUOUS
 62
    4
 10
1054.5902000000001
 20
1045.0219999999999
 40
1
 50
101.73308
 51
180
  0
LINE
  8
_0-0_LAYER001
  6
CONTINUOUS
 62
    4
 10
1060.3869
 20
1047.2472
 11
1054.3869
 21
1046.0011
  0
LINE
  8
_0-0_LAYER001
  6
CONTINUOUS
 62
    4
 10
1061.5902000000001
 20
1046.2681
 11
1061.5902000000001
 21
1027.6884
  0
ARC
  8
_0-0_LAYER001
  6
CONTINUOUS
 62
    4
 10
1060.5902000000001
 20
1046.2681
 40
1
 50
0
 51
101.73308
  0
LINE
  8
_0-0_LAYER001
  6
DASHED1
 62
    2
 10
860.80109999999991
 20
1018.7863
 11
876.80109999999991
 21
1018.7863
  0
LINE
  8
_0-0_LAYER001
  6
DASHED1
 62
    2
 10
876.80109999999991
 20
1018.7863
 11
876.80109999999991
 21
1015.7863
  0
LINE
  8
_0-0_LAYER001
  6
DASHED1
 62
    2
 10
860.80109999999991
 20
1018.7863
 11
860.80109999999991
 21
1015.7863
  0
LINE
  8
_0-0_LAYER001
  6
DASHED1
 62
    2
 10
860.80109999999991
 20
1015.7863
 11
876.80109999999991
 21
1015.7863
  0
LINE
  8
_0-0_LAYER001
  6
DASHED1
 62
    2
 10
871.80109999999991
 20
960.89030000000002
 11
868.7509
 21
946.38130000000001
  0
LINE
  8
_0-0_LAYER001
  6
DASHED1
 62
    2
 10
871.80109999999991
 20
1015.7863
 11
871.80109999999991
 21
960.89030000000002
  0
LINE
  8
_0-0_LAYER001
  6
DASHED1
 62
    2
 10
868.7509
 20
946.38130000000001
 11
865.80109999999991
 21
960.63879999999995
  0
LINE
  8
_0-0_LAYER001
  6
DASHED1
 62
    2
 10
865.80109999999991
 20
1015.7863
 11
865.80109999999991
 21
960.63879999999995
  0
LINE
  8
_0-0_LAYER001
  6
DASHED1
 62
    2
 10
1125.8072999999999
 20
1016.0551
 11
1141.8072999999999
 21
1016.0551
  0
LINE
  8
_0-0_LAYER001
  6
DASHED1
 62
    2
 10
1141.8072999999999
 20
1016.0551
 11
1141.8072999999999
 21
1013.0551
  0
LINE
  8
_0-0_LAYER001
  6
DASHED1
 62
    2
 10
1125.8072999999999
 20
1016.0551
 11
1125.8072999999999
 21
1013.0551
  0
LINE
  8
_0-0_LAYER001
  6
DASHED1
 62
    2
 10
1125.8072999999999
 20
1013.0551
 11
1141.8072999999999
 21
1013.0551
  0
LINE
  8
_0-0_LAYER001
  6
DASHED1
 62
    2
 10
1136.8072999999999
 20
958.15900000000011
 11
1133.7571
 21
943.65010000000007
  0
LINE
  8
_0-0_LAYER001
  6
DASHED1
 62
    2
 10
1136.8072999999999
 20
1013.0551
 11
1136.8072999999999
 21
958.15900000000011
  0
LINE
  8
_0-0_LAYER001
  6
DASHED1
 62
    2
 10
1133.7571
 20
943.65010000000007
 11
1130.8072999999999
 21
957.9076
  0
LINE
  8
_0-0_LAYER001
  6
DASHED1
 62
    2
 10
1130.8072999999999
 20
1013.0551
 11
1130.8072999999999
 21
957.9076
  0
LINE
  8
_0-2_LAYER004
  6
CONTINUOUS
 62
    2
 10
1880.5279
 20
1300.1446000000001
 11
1880.5279
 21
883.4226000000001
  0
LINE
  8
_0-2_LAYER004
  6
CONTINUOUS
 62
    2
 10
1860.7219
 20
965.43460000000005
 11
1860.7219
 21
1078.1990000000001
  0
LINE
  8
_0-2_LAYER004
  6
CONTINUOUS
 62
    2
 10
1875.7219
 20
1078.1990000000001
 11
1875.7219
 21
965.43460000000005
  0
LINE
  8
_0-2_LAYER004
  6
CONTINUOUS
 62
    2
 10
851.60789999999997
 20
981.2043000000001
 11
1733.3418999999999
 21
981.2043000000001
  0
LINE
  8
_0-2_LAYER004
  6
CONTINUOUS
 62
    2
 10
851.60789999999997
 20
966.2043000000001
 11
1733.3418999999999
 21
966.2043000000001
  0
LINE
  8
_0-2_LAYER004
  6
CONTINUOUS
 62
    2
 10
1733.3418999999999
 20
981.2043000000001
 11
1733.3418999999999
 21
966.2043000000001
  0
LINE
  8
_0-2_LAYER004
  6
CONTINUOUS
 62
    2
 10
1738.6169
 20
966.06060000000002
 11
1738.6169
 21
981.2043000000001
  0
LINE
  8
_0-2_LAYER004
  6
CONTINUOUS
 62
    2
 10
1738.6169
 20
981.2043000000001
 11
1759.1608999999999
 21
981.2043000000001
  0
LINE
  8
_0-2_LAYER004
  6
CONTINUOUS
 62
    2
 10
1880.5279
 20
949.18859999999995
 11
851.60789999999997
 21
949.18859999999995
  0
LINE
  8
_0-2_LAYER004
  6
CONTINUOUS
 62
    2
 10
1880.5279
 20
961.18859999999995
 11
851.60789999999997
 21
961.18859999999995
  0
LINE
  8
_0-2_LAYER004
  6
CONTINUOUS
 62
    2
 10
1738.6169
 20
966.06060000000002
 11
1858.1909000000001
 21
966.06060000000002
  0
LINE
  8
_0-2_LAYER004
  6
DASHED3
 62
    2
 10
1878.2049000000002
 20
963.68560000000002
 11
851.60789999999997
 21
963.68560000000002
  0
LINE
  8
_0-2_LAYER004
  6
DASHED3
 62
    2
 10
1878.2049000000002
 20
963.68560000000002
 11
1878.2049000000002
 21
1261.1886
  0
LINE
  8
_0-2_LAYER004
  6
CONTINUOUS
 62
    2
 10
1875.7219
 20
965.43460000000005
 11
1860.7219
 21
965.43460000000005
  0
LINE
  8
_0-2_LAYER004
  6
CONTINUOUS
 62
    3
 10
1880.5279
 20
883.4226000000001
 11
1880.5279
 21
729.33259999999996
  0
LINE
  8
_0-2_LAYER004
  6
CONTINUOUS
 62
    2
 10
1820.5279
 20
889.18859999999995
 11
1820.5279
 21
949.18859999999995
  0
LINE
  8
_0-2_LAYER004
  6
CONTINUOUS
 62
    2
 10
1820.5279
 20
949.18859999999995
 11
1880.5279
 21
949.18859999999995
  0
LINE
  8
_0-2_LAYER004
  6
CONTINUOUS
 62
    2
 10
1880.5279
 20
949.18859999999995
 11
1880.5279
 21
889.18859999999995
  0
LINE
  8
_0-2_LAYER004
  6
CONTINUOUS
 62
    2
 10
1880.5279
 20
889.18859999999995
 11
1820.5279
 21
889.18859999999995
  0
LINE
  8
_0-2_LAYER004
  6
CONTINUOUS
 62
    2
 10
1880.5279
 20
949.18859999999995
 11
1820.5279
 21
889.18859999999995
  0
LINE
  8
_0-2_LAYER004
  6
CONTINUOUS
 62
    2
 10
1782.5068999999999
 20
1103.491
 11
1779.8038999999999
 21
1118.2449999999999
  0
LINE
  8
_0-2_LAYER004
  6
CONTINUOUS
 62
    2
 10
1779.8038999999999
 20
1118.2449999999999
 11
1868.3319000000001
 21
1134.461
  0
LINE
  8
_0-2_LAYER004
  6
CONTINUOUS
 62
    2
 10
1868.3319000000001
 20
1134.461
 11
1871.0338999999999
 21
1119.7059999999999
  0
LINE
  8
_0-2_LAYER004
  6
CONTINUOUS
 62
    2
 10
1871.0338999999999
 20
1119.7059999999999
 11
1782.5068999999999
 21
1103.491
  0
LINE
  8
_0-2_LAYER004
  6
CONTINUOUS
 62
    2
 10
1779.8038999999999
 20
1118.2449999999999
 11
1871.0338999999999
 21
1119.7059999999999
  0
LINE
  8
_0-2_LAYER004
  6
CONTINUOUS
 62
    2
 10
1770.5279
 20
1118.4883
 11
1769.9798999999998
 21
1100.4093
  0
LINE
  8
_0-2_LAYER004
  6
CONTINUOUS
 62
    2
 10
1845.5279
 20
1137.4570000000001
 11
1857.5279
 21
1137.4570000000001
  0
LINE
  8
_0-2_LAYER004
  6
CONTINUOUS
 62
    2
 10
1857.5279
 20
1145.2660000000001
 11
1857.5279
 21
1185.2660000000001
  0
LINE
  8
_0-2_LAYER004
  6
CONTINUOUS
 62
    2
 10
1857.5279
 20
1185.2660000000001
 11
1875.5279
 21
1185.2660000000001
  0
LINE
  8
_0-2_LAYER004
  6
CONTINUOUS
 62
    2
 10
1875.5279
 20
1185.2660000000001
 11
1875.5279
 21
1145.2660000000001
  0
LINE
  8
_0-2_LAYER004
  6
CONTINUOUS
 62
    2
 10
1875.5279
 20
1145.2660000000001
 11
1857.5279
 21
1145.2660000000001
  0
LINE
  8
_0-2_LAYER004
  6
CONTINUOUS
 62
    2
 10
1875.5279
 20
1185.2660000000001
 11
1857.5279
 21
1145.2660000000001
  0
LINE
  8
_0-2_LAYER004
  6
CONTINUOUS
 62
    2
 10
1770.5279
 20
1118.4883
 11
1876.9429
 21
1137.98
  0
LINE
  8
_0-2_LAYER004
  6
CONTINUOUS
 62
    2
 10
1876.9429
 20
1127.98
 11
1876.9429
 21
1277.98
  0
LINE
  8
_0-5_LAYER007
  6
CONTINUOUS
 62
    3
 10
1880.5279
 20
1378.0165999999999
 11
1880.5279
 21
866.68959999999993
  0
LINE
  8
_0-2_LAYER004
  6
CONTINUOUS
 62
    3
 10
1880.5279
 20
1300.1446000000001
 11
1880.5279
 21
1378.0165999999999
  0
LINE
  8
_0-2_LAYER004
  6
CONTINUOUS
 62
    2
 10
1857.5279
 20
1137.4570000000001
 11
1857.5279
 21
1378.0165999999999
  0
LINE
  8
_0-2_LAYER004
  6
CONTINUOUS
 62
    2
 10
1845.5279
 20
1137.4570000000001
 11
1845.5279
 21
1378.0165999999999
  0
LINE
  8
_0-2_LAYER004
  6
CONTINUOUS
 62
    2
 10
1517.5279
 20
889.18859999999995
 11
1517.5279
 21
949.18859999999995
  0
LINE
  8
_0-2_LAYER004
  6
CONTINUOUS
 62
    2
 10
1517.5279
 20
949.18859999999995
 11
1577.5279
 21
949.18859999999995
  0
LINE
  8
_0-2_LAYER004
  6
CONTINUOUS
 62
    2
 10
1577.5279
 20
949.18859999999995
 11
1577.5279
 21
889.18859999999995
  0
LINE
  8
_0-2_LAYER004
  6
CONTINUOUS
 62
    2
 10
1577.5279
 20
889.18859999999995
 11
1517.5279
 21
889.18859999999995
  0
LINE
  8
_0-2_LAYER004
  6
CONTINUOUS
 62
    2
 10
1577.5279
 20
949.18859999999995
 11
1517.5279
 21
889.18859999999995
  0
LINE
  8
_0-2_LAYER004
  6
CONTINUOUS
 62
    2
 10
1214.5279
 20
889.18859999999995
 11
1214.5279
 21
949.18859999999995
  0
LINE
  8
_0-2_LAYER004
  6
CONTINUOUS
 62
    2
 10
1214.5279
 20
949.18859999999995
 11
1274.5279
 21
949.18859999999995
  0
LINE
  8
_0-2_LAYER004
  6
CONTINUOUS
 62
    2
 10
1274.5279
 20
949.18859999999995
 11
1274.5279
 21
889.18859999999995
  0
LINE
  8
_0-2_LAYER004
  6
CONTINUOUS
 62
    2
 10
1274.5279
 20
889.18859999999995
 11
1214.5279
 21
889.18859999999995
  0
LINE
  8
_0-2_LAYER004
  6
CONTINUOUS
 62
    2
 10
1274.5279
 20
949.18859999999995
 11
1214.5279
 21
889.18859999999995
  0
LINE
  8
_0-2_LAYER004
  6
CONTINUOUS
 62
    2
 10
911.52790000000005
 20
889.18859999999995
 11
911.52790000000005
 21
949.18859999999995
  0
LINE
  8
_0-2_LAYER004
  6
CONTINUOUS
 62
    2
 10
911.52790000000005
 20
949.18859999999995
 11
971.52790000000005
 21
949.18859999999995
  0
LINE
  8
_0-2_LAYER004
  6
CONTINUOUS
 62
    2
 10
971.52790000000005
 20
949.18859999999995
 11
971.52790000000005
 21
889.18859999999995
  0
LINE
  8
_0-2_LAYER004
  6
CONTINUOUS
 62
    2
 10
971.52790000000005
 20
889.18859999999995
 11
911.52790000000005
 21
889.18859999999995
  0
LINE
  8
_0-2_LAYER004
  6
CONTINUOUS
 62
    2
 10
971.52790000000005
 20
949.18859999999995
 11
911.52790000000005
 21
889.18859999999995
  0
CIRCLE
  8
_0-3_LAYER005
  6
CONTINUOUS
 62
    2
 10
1781.6298999999999
 20
1046.0843
 40
1.1619999999999999
  0
CIRCLE
  8
_0-3_LAYER005
  6
CONTINUOUS
 62
    2
 10
1803.8179
 20
1049.3713
 40
1.1619999999999999
  0
CIRCLE
  8
_0-3_LAYER005
  6
CONTINUOUS
 62
    2
 10
1812.0358999999999
 20
1049.3713
 40
1.1619999999999999
  0
CIRCLE
  8
_0-3_LAYER005
  6
CONTINUOUS
 62
    2
 10
1798.8879000000002
 20
1050.4626000000001
 40
1.1619999999999999
  0
CIRCLE
  8
_0-3_LAYER005
  6
CONTINUOUS
 62
    2
 10
1808.7489
 20
1054.5706
 40
1.1619999999999999
  0
CIRCLE
  8
_0-3_LAYER005
  6
CONTINUOUS
 62
    2
 10
1786.5608999999999
 20
1047.1746000000001
 40
1.1619999999999999
  0
CIRCLE
  8
_0-3_LAYER005
  6
CONTINUOUS
 62
    2
 10
1785.7388999999998
 20
1038.9576
 40
1.1619999999999999
  0
CIRCLE
  8
_0-3_LAYER005
  6
CONTINUOUS
 62
    2
 10
1791.4919
 20
1034.8486
 40
1.1619999999999999
  0
CIRCLE
  8
_0-3_LAYER005
  6
CONTINUOUS
 62
    2
 10
1800.5309000000002
 20
1037.3136
 40
1.1619999999999999
  0
CIRCLE
  8
_0-3_LAYER005
  6
CONTINUOUS
 62
    2
 10
1822.7188999999998
 20
1043.8876
 40
1.1619999999999999
  0
CIRCLE
  8
_0-3_LAYER005
  6
CONTINUOUS
 62
    2
 10
1826.0059000000001
 20
1051.2836
 40
1.1619999999999999
  0
CIRCLE
  8
_0-3_LAYER005
  6
CONTINUOUS
 62
    2
 10
1835.0448999999999
 20
1056.2146
 40
1.1619999999999999
  0
CIRCLE
  8
_0-3_LAYER005
  6
CONTINUOUS
 62
    2
 10
1823.5409
 20
1040.3323
 40
1.1619999999999999
  0
CIRCLE
  8
_0-3_LAYER005
  6
CONTINUOUS
 62
    2
 10
1826.8279000000002
 20
1048.5503000000001
 40
1.1619999999999999
  0
CIRCLE
  8
_0-3_LAYER005
  6
CONTINUOUS
 62
    2
 10
1838.3319000000001
 20
1056.7673
 40
1.1619999999999999
  0
CIRCLE
  8
_0-3_LAYER005
  6
CONTINUOUS
 62
    2
 10
1836.6889000000001
 20
1059.2333000000001
 40
1.1619999999999999
  0
CIRCLE
  8
_0-3_LAYER005
  6
CONTINUOUS
 62
    2
 10
1844.0848999999998
 20
1063.3413
 40
1.1619999999999999
  0
CIRCLE
  8
_0-3_LAYER005
  6
CONTINUOUS
 62
    2
 10
1846.5499
 20
1071.5592999999999
 40
1.1619999999999999
  0
CIRCLE
  8
_0-3_LAYER005
  6
CONTINUOUS
 62
    2
 10
1785.3218999999999
 20
1080.4549
 40
1.1619999999999999
  0
CIRCLE
  8
_0-3_LAYER005
  6
CONTINUOUS
 62
    2
 10
1792.7179000000001
 20
1076.3459
 40
1.1619999999999999
  0
CIRCLE
  8
_0-3_LAYER005
  6
CONTINUOUS
 62
    2
 10
1823.7966999999999
 20
1080.4549
 40
1.1619999999999999
  0
CIRCLE
  8
_0-3_LAYER005
  6
CONTINUOUS
 62
    2
 10
1814.7577000000001
 20
1085.3859
 40
1.1619999999999999
  0
CIRCLE
  8
_0-3_LAYER005
  6
CONTINUOUS
 62
    2
 10
1795.1527999999998
 20
1081.0904
 40
1.1619999999999999
  0
CIRCLE
  8
_0-3_LAYER005
  6
CONTINUOUS
 62
    2
 10
1801.7267999999999
 20
1078.6243999999999
 40
1.1619999999999999
  0
CIRCLE
  8
_0-3_LAYER005
  6
CONTINUOUS
 62
    2
 10
1807.7692000000002
 20
1082.23
 40
1.1619999999999999
  0
CIRCLE
  8
_0-3_LAYER005
  6
CONTINUOUS
 62
    2
 10
1814.3431999999998
 20
1081.4090000000001
 40
1.1619999999999999
  0
CIRCLE
  8
_0-3_LAYER005
  6
CONTINUOUS
 62
    2
 10
1824.1853999999998
 20
1087.0699999999999
 40
1.1619999999999999
  0
CIRCLE
  8
_0-3_LAYER005
  6
CONTINUOUS
 62
    2
 10
1832.4034000000001
 20
1087.8920000000001
 40
1.1619999999999999
  0
CIRCLE
  8
_0-3_LAYER005
  6
CONTINUOUS
 62
    2
 10
1840.1523000000002
 20
1082.0165999999999
 40
1.1619999999999999
  0
CIRCLE
  8
_0-3_LAYER005
  6
CONTINUOUS
 62
    2
 10
1841.7963
 20
1076.2646
 40
1.1619999999999999
  0
CIRCLE
  8
_0-3_LAYER005
  6
CONTINUOUS
 62
    2
 10
1839.1538999999998
 20
1087.9943000000001
 40
1.1619999999999999
  0
CIRCLE
  8
_0-3_LAYER005
  6
CONTINUOUS
 62
    2
 10
1821.0749000000001
 20
1055.9453000000001
 40
1.1619999999999999
  0
CIRCLE
  8
_0-3_LAYER005
  6
CONTINUOUS
 62
    2
 10
1807.9268999999999
 20
1055.9453000000001
 40
1.1619999999999999
  0
CIRCLE
  8
_0-3_LAYER005
  6
CONTINUOUS
 62
    2
 10
1784.0958999999998
 20
1051.0153
 40
1.1619999999999999
  0
CIRCLE
  8
_0-3_LAYER005
  6
CONTINUOUS
 62
    2
 10
1802.1749
 20
1041.9753000000001
 40
1.1619999999999999
  0
CIRCLE
  8
_0-3_LAYER005
  6
CONTINUOUS
 62
    2
 10
1816.1448999999998
 20
1057.0365999999999
 40
1.1619999999999999
  0
CIRCLE
  8
_0-3_LAYER005
  6
CONTINUOUS
 62
    2
 10
1782.4519
 20
1038.6883
 40
1.1619999999999999
  0
CIRCLE
  8
_0-3_LAYER005
  6
CONTINUOUS
 62
    2
 10
1792.3128999999999
 20
1043.6193000000001
 40
1.1619999999999999
  0
CIRCLE
  8
_0-3_LAYER005
  6
CONTINUOUS
 62
    2
 10
1781.6298999999999
 20
1024.9875999999999
 40
1.1619999999999999
  0
CIRCLE
  8
_0-3_LAYER005
  6
CONTINUOUS
 62
    2
 10
1785.7388999999998
 20
1028.2746
 40
1.1619999999999999
  0
CIRCLE
  8
_0-3_LAYER005
  6
CONTINUOUS
 62
    2
 10
1811.2139000000002
 20
1038.9576
 40
1.1619999999999999
  0
CIRCLE
  8
_0-3_LAYER005
  6
CONTINUOUS
 62
    2
 10
1801.3528999999999
 20
1034.0265999999999
 40
1.1619999999999999
  0
CIRCLE
  8
_0-3_LAYER005
  6
CONTINUOUS
 62
    2
 10
1807.1048999999998
 20
1049.6405999999999
 40
1.1619999999999999
  0
CIRCLE
  8
_0-3_LAYER005
  6
CONTINUOUS
 62
    2
 10
1816.9659000000001
 20
1051.2836
 40
1.1619999999999999
  0
CIRCLE
  8
_0-3_LAYER005
  6
CONTINUOUS
 62
    2
 10
1825.1839
 20
1055.3925999999999
 40
1.1619999999999999
  0
CIRCLE
  8
_0-3_LAYER005
  6
CONTINUOUS
 62
    2
 10
1834.2229000000002
 20
1045.2633000000001
 40
1.1619999999999999
  0
CIRCLE
  8
_0-3_LAYER005
  6
CONTINUOUS
 62
    2
 10
1834.2229000000002
 20
1051.0153
 40
1.1619999999999999
  0
CIRCLE
  8
_0-3_LAYER005
  6
CONTINUOUS
 62
    2
 10
1834.2229000000002
 20
1056.7673
 40
1.1619999999999999
  0
CIRCLE
  8
_0-3_LAYER005
  6
CONTINUOUS
 62
    2
 10
1819.4319
 20
1055.9453000000001
 40
1.1619999999999999
  0
CIRCLE
  8
_0-3_LAYER005
  6
CONTINUOUS
 62
    2
 10
1805.4618999999998
 20
1040.3323
 40
1.1619999999999999
  0
CIRCLE
  8
_0-3_LAYER005
  6
CONTINUOUS
 62
    2
 10
1816.9659000000001
 20
1044.4413
 40
1.1619999999999999
  0
CIRCLE
  8
_0-3_LAYER005
  6
CONTINUOUS
 62
    2
 10
1794.7788999999998
 20
1044.4413
 40
1.1619999999999999
  0
LINE
  8
_0-1_LAYER003
  6
CONTINUOUS
 62
    7
 10
1627.6120999999998
 20
1417.6429000000003
 11
1800.1120999999998
 21
1417.6429000000003
  0
LINE
  8
_0-1_LAYER003
  6
CONTINUOUS
 62
    7
 10
1766.4747000000002
 20
1341.6732999999999
 11
1725.9747000000002
 21
1341.6732999999999
  0
LINE
  8
_0-1_LAYER003
  6
CONTINUOUS
 62
    7
 10
1742.1282999999999
 20
1293.7074000000002
 11
1595.1282999999999
 21
1293.7074000000002
  0
LINE
  8
_0-1_LAYER003
  6
CONTINUOUS
 62
    7
 10
1731.2184999999999
 20
1260.6270999999999
 11
1497.2184999999999
 21
1260.6270999999999
  0
LINE
  8
_0-1_LAYER003
  6
CONTINUOUS
 62
    7
 10
1682.8020000000001
 20
1228.8742999999999
 11
1568.8020000000001
 21
1228.8742999999999
  0
LINE
  8
_0-1_LAYER003
  6
CONTINUOUS
 62
    7
 10
1685.3811000000001
 20
1191.5598
 11
1620.8811000000001
 21
1191.5598
  0
LINE
  8
_0-1_LAYER003
  6
CONTINUOUS
 62
    7
 10
1770.5279
 20
1200.2212
 11
1770.5279
 21
1167.062158129195
  0
LINE
  8
_0-1_LAYER003
  6
CONTINUOUS
 62
    7
 10
1770.5279
 20
1197.7212
 11
1845.5279
 21
1197.7212
  0
LINE
  8
_0-1_LAYER003
  6
CONTINUOUS
 62
    7
 10
1845.5279
 20
1378.0165999999999
 11
1845.5279
 21
1137.4570000000001
  0
LINE
  8
_0-1_LAYER003
  6
CONTINUOUS
 62
    7
 10
1845.5279
 20
1137.4570000000001
 11
1857.5279
 21
1137.4570000000001
  0
LINE
  8
_0-1_LAYER003
  6
CONTINUOUS
 62
    7
 10
1857.5279
 20
1137.4570000000001
 11
1857.5279
 21
1378.0165999999999
  0
LINE
  8
_0-1_LAYER003
  6
CONTINUOUS
 62
    7
 10
1943.4232000000002
 20
1261.1895999999999
 11
2020.1232000000002
 21
1261.1895999999999
  0
LINE
  8
_0-1_LAYER003
  6
CONTINUOUS
 62
    7
 10
2018.4232000000002
 20
1261.1895999999999
 11
2018.4232000000002
 21
961.18859999999995
  0
LINE
  8
_0-1_LAYER003
  6
CONTINUOUS
 62
    7
 10
2020.1232000000002
 20
961.18859999999995
 11
1937.1120999999998
 21
961.18859999999995
  0
LINE
  8
_0-1_LAYER003
  6
CONTINUOUS
 62
    7
 10
1962.1120999999998
 20
961.18859999999995
 11
1962.1120999999998
 21
1078.1990000000001
  0
LINE
  8
_0-1_LAYER003
  6
CONTINUOUS
 62
    7
 10
1937.1120999999998
 20
1078.1990000000001
 11
1964.6120999999998
 21
1078.1990000000001
  0
LINE
  8
_0-1_LAYER003
  6
CONTINUOUS
 62
    7
 10
1902.3872999999999
 20
1162.7747999999999
 11
1983.3872999999999
 21
1162.7747999999999
  0
LINE
  8
_0-1_LAYER003
  6
CONTINUOUS
 62
    7
 10
2055.8872999999999
 20
1127.98
 11
2107.5872999999997
 21
1127.98
  0
LINE
  8
_0-1_LAYER003
  6
CONTINUOUS
 62
    7
 10
2055.8872999999999
 20
961.18859999999995
 11
2107.5872999999997
 21
961.18859999999995
  0
LINE
  8
_0-1_LAYER003
  6
CONTINUOUS
 62
    7
 10
2105.8872999999999
 20
961.18859999999995
 11
2105.8872999999999
 21
1277.98
  0
LINE
  8
_0-1_LAYER003
  6
CONTINUOUS
 62
    7
 10
2055.8872999999999
 20
1277.98
 11
2105.8872999999999
 21
1277.98
  0
LINE
  8
_0-1_LAYER003
  6
CONTINUOUS
 62
    7
 10
2105.8872999999999
 20
1276.28
 11
2105.8872999999999
 21
1277.98
  0
LINE
  8
_0-1_LAYER003
  6
CONTINUOUS
 62
    7
 10
2105.8872999999999
 20
1277.98
 11
2107.5872999999997
 21
1277.98
  0
LINE
  8
_0-1_LAYER003
  6
CONTINUOUS
 62
    7
 10
1876.9429
 20
1277.98
 11
1876.9429
 21
1137.98
  0
LINE
  8
_0-1_LAYER003
  6
CONTINUOUS
 62
    7
 10
1878.2049000000002
 20
1261.1886
 11
1878.2049000000002
 21
963.68560000000002
  0
LINE
  8
_0-1_LAYER003
  6
CONTINUOUS
 62
    7
 10
1878.2049000000002
 20
963.68560000000002
 11
851.60789999999997
 21
963.68560000000002
  0
LINE
  8
_0-1_LAYER003
  6
CONTINUOUS
 62
    7
 10
851.60789999999997
 20
981.2043000000001
 11
1733.3418999999999
 21
981.2043000000001
  0
LINE
  8
_0-1_LAYER003
  6
CONTINUOUS
 62
    7
 10
1733.3418999999999
 20
981.2043000000001
 11
1733.3418999999999
 21
966.2043000000001
  0
LINE
  8
_0-1_LAYER003
  6
CONTINUOUS
 62
    7
 10
1733.3418999999999
 20
966.2043000000001
 11
851.60789999999997
 21
966.2043000000001
  0
LINE
  8
_0-1_LAYER003
  6
CONTINUOUS
 62
    7
 10
851.60789999999997
 20
961.18859999999995
 11
1880.5279
 21
961.18859999999995
  0
LINE
  8
_0-1_LAYER003
  6
CONTINUOUS
 62
    7
 10
1880.5279
 20
949.18859999999995
 11
851.60789999999997
 21
949.18859999999995
  0
LINE
  8
_0-1_LAYER003
  6
CONTINUOUS
 62
    7
 10
911.52790000000005
 20
949.18859999999995
 11
911.52790000000005
 21
889.18859999999995
  0
LINE
  8
_0-1_LAYER003
  6
CONTINUOUS
 62
    7
 10
911.52790000000005
 20
889.18859999999995
 11
971.52790000000005
 21
889.18859999999995
  0
LINE
  8
_0-1_LAYER003
  6
CONTINUOUS
 62
    7
 10
971.52790000000005
 20
889.18859999999995
 11
971.52790000000005
 21
949.18859999999995
  0
LINE
  8
_0-1_LAYER003
  6
CONTINUOUS
 62
    7
 10
971.52790000000005
 20
949.18859999999995
 11
1214.5279
 21
949.18859999999995
  0
LINE
  8
_0-1_LAYER003
  6
CONTINUOUS
 62
    7
 10
1214.5279
 20
949.18859999999995
 11
1214.5279
 21
889.18859999999995
  0
LINE
  8
_0-1_LAYER003
  6
CONTINUOUS
 62
    7
 10
1214.5279
 20
889.18859999999995
 11
1274.5279
 21
889.18859999999995
  0
LINE
  8
_0-1_LAYER003
  6
CONTINUOUS
 62
    7
 10
1274.5279
 20
889.18859999999995
 11
1274.5279
 21
949.18859999999995
  0
LINE
  8
_0-1_LAYER003
  6
CONTINUOUS
 62
    7
 10
1020.9482
 20
849.97530000000006
 11
1020.9482
 21
798.27530000000002
  0
LINE
  8
_0-1_LAYER003
  6
CONTINUOUS
 62
    7
 10
1020.9482
 20
799.97530000000006
 11
1855.9481999999998
 21
799.97530000000006
  0
LINE
  8
_0-1_LAYER003
  6
CONTINUOUS
 62
    7
 10
1855.9481999999998
 20
798.27530000000002
 11
1855.9481999999998
 21
849.97530000000006
  0
LINE
  8
_0-1_LAYER003
  6
CONTINUOUS
 62
    7
 10
1858.1909000000001
 20
854.75750000000005
 11
1858.1909000000001
 21
906.45749999999998
  0
LINE
  8
_0-1_LAYER003
  6
CONTINUOUS
 62
    7
 10
1880.5279
 20
889.18859999999995
 11
1820.5279
 21
889.18859999999995
  0
LINE
  8
_0-1_LAYER003
  6
CONTINUOUS
 62
    7
 10
1820.5279
 20
889.18859999999995
 11
1820.5279
 21
949.18859999999995
  0
LINE
  8
_0-1_LAYER003
  6
CONTINUOUS
 62
    7
 10
1820.5279
 20
949.18859999999995
 11
1880.5279
 21
949.18859999999995
  0
LINE
  8
_0-1_LAYER003
  6
CONTINUOUS
 62
    7
 10
1880.5279
 20
729.33259999999996
 11
1880.5279
 21
1378.0165999999999
  0
LINE
  8
_0-1_LAYER003
  6
CONTINUOUS
 62
    7
 10
1857.5279
 20
1185.2660000000001
 11
1875.5279
 21
1185.2660000000001
  0
LINE
  8
_0-1_LAYER003
  6
CONTINUOUS
 62
    7
 10
1875.5279
 20
1185.2660000000001
 11
1875.5279
 21
1145.2660000000001
  0
LINE
  8
_0-1_LAYER003
  6
CONTINUOUS
 62
    7
 10
1875.5279
 20
1145.2660000000001
 11
1857.5279
 21
1145.2660000000001
  0
LINE
  8
_0-1_LAYER003
  6
CONTINUOUS
 62
    7
 10
1836.1469000000002
 20
1111.5655999999999
 11
1854.5963000000002
 21
1111.5655999999999
  0
LINE
  8
_0-1_LAYER003
  6
CONTINUOUS
 62
    7
 10
1854.5963000000002
 20
1111.5655999999999
 11
1854.5963000000002
 21
1093.0016000000001
  0
LINE
  8
_0-1_LAYER003
  6
CONTINUOUS
 62
    7
 10
1854.5963000000002
 20
1093.0016000000001
 11
1836.1469000000002
 21
1093.0016000000001
  0
LINE
  8
_0-1_LAYER003
  6
CONTINUOUS
 62
    7
 10
1836.1469000000002
 20
1093.0016000000001
 11
1836.1469000000002
 21
1111.5655999999999
  0
LINE
  8
_0-1_LAYER003
  6
CONTINUOUS
 62
    7
 10
1850.5279
 20
1115.6949999999999
 11
1850.5279
 21
1088.1990000000001
  0
LINE
  8
_0-1_LAYER003
  6
CONTINUOUS
 62
    7
 10
1850.5279
 20
1088.1990000000001
 11
1880.5279
 21
1088.1990000000001
  0
LINE
  8
_0-1_LAYER003
  6
CONTINUOUS
 62
    7
 10
1880.5279
 20
1118.1990000000001
 11
1864.0895
 21
1118.1990000000001
  0
LINE
  8
_0-1_LAYER003
  6
CONTINUOUS
 62
    7
 10
1860.7219
 20
1078.1990000000001
 11
1875.7219
 21
1078.1990000000001
  0
LINE
  8
_0-1_LAYER003
  6
CONTINUOUS
 62
    7
 10
1875.7219
 20
1078.1990000000001
 11
1875.7219
 21
965.43460000000005
  0
LINE
  8
_0-1_LAYER003
  6
CONTINUOUS
 62
    7
 10
1875.7219
 20
965.43460000000005
 11
1860.7219
 21
965.43460000000005
  0
LINE
  8
_0-1_LAYER003
  6
CONTINUOUS
 62
    7
 10
1860.7219
 20
965.43460000000005
 11
1860.7219
 21
1078.1990000000001
  0
LINE
  8
_0-1_LAYER003
  6
CONTINUOUS
 62
    7
 10
1858.1909000000001
 20
966.06060000000002
 11
1738.6169
 21
966.06060000000002
  0
LINE
  8
_0-1_LAYER003
  6
CONTINUOUS
 62
    7
 10
1738.6169
 20
966.06060000000002
 11
1738.6169
 21
981.2043000000001
  0
LINE
  8
_0-1_LAYER003
  6
CONTINUOUS
 62
    7
 10
1738.6169
 20
981.2043000000001
 11
1757.6181247698146
 21
981.2043000000001
  0
LINE
  8
_0-1_LAYER003
  6
CONTINUOUS
 62
    7
 10
1930.1713
 20
896.89810000000011
 11
2093.6713
 21
896.89810000000011
  0
LINE
  8
_0-1_LAYER003
  6
CONTINUOUS
 62
    7
 10
1932.0434
 20
796.68429999999989
 11
2133.0434
 21
796.68429999999989
  0
LINE
  8
_0-1_LAYER003
  6
CONTINUOUS
 62
    7
 10
1858.1909000000001
 20
856.45749999999998
 11
1738.6169
 21
856.45749999999998
  0
LINE
  8
_0-1_LAYER003
  6
CONTINUOUS
 62
    7
 10
1738.6169
 20
854.75750000000005
 11
1738.6169
 21
906.45749999999998
  0
LINE
  8
_0-1_LAYER003
  6
CONTINUOUS
 62
    7
 10
1577.5279
 20
949.18859999999995
 11
1577.5279
 21
889.18859999999995
  0
LINE
  8
_0-1_LAYER003
  6
CONTINUOUS
 62
    7
 10
1577.5279
 20
889.18859999999995
 11
1517.5279
 21
889.18859999999995
  0
LINE
  8
_0-1_LAYER003
  6
CONTINUOUS
 62
    7
 10
1517.5279
 20
889.18859999999995
 11
1517.5279
 21
949.18859999999995
  0
LINE
  8
_0-1_LAYER003
  6
CONTINUOUS
 62
    7
 10
1550.9481999999998
 20
849.97530000000006
 11
1550.9481999999998
 21
798.27530000000002
  0
LINE
  8
_0-1_LAYER003
  6
CONTINUOUS
 62
    7
 10
1285.9482
 20
849.97530000000006
 11
1285.9482
 21
797.47530000000006
  0
LINE
  8
_0-1_LAYER003
  6
CONTINUOUS
 62
    7
 10
1012.2358999999999
 20
754.79989999999998
 11
1217.058563279043
 21
754.79989999999998
  0
LINE
  8
_0-1_LAYER003
  6
CONTINUOUS
 62
    7
 10
1199.7491
 20
724.81889999999999
 11
959.44589999999994
 21
724.81889999999999
  0
LINE
  8
_0-1_LAYER003
  6
CONTINUOUS
 62
    7
 10
1010.7021999999999
 20
694.72360000000003
 11
1182.3734914599138
 21
694.72360000000003
  0
LINE
  8
_0-1_LAYER003
  6
CONTINUOUS
 62
    7
 10
1165.1300000000001
 20
664.85699999999997
 11
1103.9096
 21
664.85699999999997
  0
LINE
  8
_0-1_LAYER003
  6
CONTINUOUS
 62
    7
 10
1411.3662999999999
 20
1084.1261
 11
1451.8663000000001
 21
1084.1261
  0
LINE
  8
_0-1_LAYER003
  6
CONTINUOUS
 62
    7
 10
1902.3872999999999
 20
1162.7747999999999
 11
1864.0895
 21
1096.441
  0
LINE
  8
_0-1_LAYER003
  6
CONTINUOUS
 62
    7
 10
1864.0895
 20
1096.441
 11
1866.0306
 21
1103.6855
  0
LINE
  8
_0-1_LAYER003
  6
CONTINUOUS
 62
    7
 10
1864.0895
 20
1096.441
 11
1869.3928000000001
 21
1101.7443000000001
  0
LINE
  8
_0-1_LAYER003
  6
CONTINUOUS
 62
    7
 10
1850.5279
 20
1088.1990000000001
 11
1880.5279
 21
1118.1990000000001
  0
LINE
  8
_0-1_LAYER003
  6
CONTINUOUS
 62
    7
 10
1876.9429
 20
1137.98
 11
1876.9429
 21
1127.98
  0
LINE
  8
_0-1_LAYER003
  6
CONTINUOUS
 62
    7
 10
1876.9429
 20
1137.98
 11
1770.5279
 21
1118.4883
  0
LINE
  8
_0-1_LAYER003
  6
CONTINUOUS
 62
    7
 10
1770.5279
 20
1118.4883
 11
1769.9798999999998
 21
1100.4093
  0
LINE
  8
_0-1_LAYER003
  6
CONTINUOUS
 62
    7
 10
1769.9798999999998
 20
1100.4093
 11
1775.0499
 21
1106.499
  0
LINE
  8
_0-1_LAYER003
  6
CONTINUOUS
 62
    7
 10
1779.8038999999999
 20
1118.2449999999999
 11
1782.5068999999999
 21
1103.491
  0
LINE
  8
_0-1_LAYER003
  6
CONTINUOUS
 62
    7
 10
1782.5068999999999
 20
1103.491
 11
1871.0338999999999
 21
1119.7059999999999
  0
LINE
  8
_0-1_LAYER003
  6
CONTINUOUS
 62
    7
 10
1871.0338999999999
 20
1119.7059999999999
 11
1868.3319000000001
 21
1134.461
  0
LINE
  8
_0-1_LAYER003
  6
CONTINUOUS
 62
    7
 10
1868.3319000000001
 20
1134.461
 11
1779.8038999999999
 21
1118.2449999999999
  0
LINE
  8
_0-1_LAYER003
  6
CONTINUOUS
 62
    7
 10
1779.8038999999999
 20
1118.2449999999999
 11
1871.0338999999999
 21
1119.7059999999999
  0
LINE
  8
_0-1_LAYER003
  6
CONTINUOUS
 62
    7
 10
1843.9301
 20
1121.2637999999999
 11
1845.8712
 21
1114.0193999999999
  0
LINE
  8
_0-1_LAYER003
  6
CONTINUOUS
 62
    7
 10
1845.8712
 20
1114.0193999999999
 11
1840.5679
 21
1119.3226999999999
  0
LINE
  8
_0-1_LAYER003
  6
CONTINUOUS
 62
    7
 10
1812.473
 20
1123.7723000000001
 11
1814.4142000000002
 21
1116.5279
  0
LINE
  8
_0-1_LAYER003
  6
CONTINUOUS
 62
    7
 10
1814.4142000000002
 20
1116.5279
 11
1809.1109000000001
 21
1121.8312000000001
  0
LINE
  8
_0-1_LAYER003
  6
CONTINUOUS
 62
    7
 10
1814.4142000000002
 20
1116.5279
 11
1731.2184999999999
 21
1260.6270999999999
  0
LINE
  8
_0-1_LAYER003
  6
CONTINUOUS
 62
    7
 10
1682.8020000000001
 20
1228.8742999999999
 11
1769.7682
 21
1078.2444
  0
LINE
  8
_0-1_LAYER003
  6
CONTINUOUS
 62
    7
 10
1769.7682
 20
1078.2444
 11
1767.8270000000002
 21
1085.4888000000001
  0
LINE
  8
_0-1_LAYER003
  6
CONTINUOUS
 62
    7
 10
1769.7682
 20
1078.2444
 11
1764.4648999999999
 21
1083.5477000000001
  0
LINE
  8
_0-1_LAYER003
  6
CONTINUOUS
 62
    7
 10
1777.6226155941904
 20
1077.8926304853978
 11
1776.6550999999999
 21
1069.1848
  0
LINE
  8
_0-1_LAYER003
  6
CONTINUOUS
 62
    7
 10
1781.5225999999998
 20
1025.0378000000001
 11
1779.5814999999998
 21
1032.2822000000001
  0
LINE
  8
_0-1_LAYER003
  6
CONTINUOUS
 62
    7
 10
1776.2193000000002
 20
1030.3411000000001
 11
1781.5225999999998
 21
1025.0378000000001
  0
LINE
  8
_0-1_LAYER003
  6
CONTINUOUS
 62
    7
 10
1781.5225999999998
 20
1025.0378000000001
 11
1685.3811000000001
 21
1191.5598
  0
LINE
  8
_0-1_LAYER003
  6
CONTINUOUS
 62
    7
 10
1845.8712
 20
1114.0193999999999
 11
1742.1282999999999
 21
1293.7074000000002
  0
LINE
  8
_0-1_LAYER003
  6
CONTINUOUS
 62
    7
 10
1766.4747000000002
 20
1341.6732999999999
 11
1867.6833000000001
 21
1166.3748000000001
  0
LINE
  8
_0-1_LAYER003
  6
CONTINUOUS
 62
    7
 10
1867.6833000000001
 20
1166.3748000000001
 11
1865.7422000000001
 21
1173.6193000000001
  0
LINE
  8
_0-1_LAYER003
  6
CONTINUOUS
 62
    7
 10
1867.6833000000001
 20
1166.3748000000001
 11
1862.3800000000001
 21
1171.6781000000001
  0
LINE
  8
_0-1_LAYER003
  6
CONTINUOUS
 62
    7
 10
1857.5279
 20
1145.2660000000001
 11
1875.5279
 21
1185.2660000000001
  0
LINE
  8
_0-1_LAYER003
  6
CONTINUOUS
 62
    7
 10
1800.1120999999998
 20
1417.6429000000003
 11
1850.2678000000001
 21
1330.7706000000003
  0
LINE
  8
_0-1_LAYER003
  6
CONTINUOUS
 62
    7
 10
1850.2678000000001
 20
1330.7706000000003
 11
1848.3267000000001
 21
1338.0150000000001
  0
LINE
  8
_0-1_LAYER003
  6
CONTINUOUS
 62
    7
 10
1850.2678000000001
 20
1330.7706000000003
 11
1844.9645
 21
1336.0739000000001
  0
LINE
  8
_0-1_LAYER003
  6
CONTINUOUS
 62
    7
 10
1860.7219
 20
1078.1990000000001
 11
1875.7219
 21
965.43460000000005
  0
LINE
  8
_0-1_LAYER003
  6
CONTINUOUS
 62
    7
 10
1869.3263999999999
 20
1002.2846
 11
1871.2674999999999
 21
995.04009999999994
  0
LINE
  8
_0-1_LAYER003
  6
CONTINUOUS
 62
    7
 10
1869.3263999999999
 20
1002.2846
 11
1874.6297
 21
996.98129999999992
  0
LINE
  8
_0-1_LAYER003
  6
CONTINUOUS
 62
    7
 10
1869.3263999999999
 20
1002.2846
 11
1930.1713
 21
896.89810000000011
  0
LINE
  8
_0-1_LAYER003
  6
CONTINUOUS
 62
    7
 10
1880.5279
 20
949.18859999999995
 11
1820.5279
 21
889.18859999999995
  0
LINE
  8
_0-1_LAYER003
  6
CONTINUOUS
 62
    7
 10
1834.2734
 20
966.02700000000004
 11
1836.2145
 21
958.7826
  0
LINE
  8
_0-1_LAYER003
  6
CONTINUOUS
 62
    7
 10
1836.2145
 20
958.7826
 11
1834.2734
 21
966.02700000000004
  0
LINE
  8
_0-1_LAYER003
  6
CONTINUOUS
 62
    7
 10
1834.2734
 20
966.02700000000004
 11
1839.1118000000001
 21
961.18859999999995
  0
LINE
  8
_0-1_LAYER003
  6
CONTINUOUS
 62
    7
 10
1834.2734
 20
966.02700000000004
 11
1932.0434
 21
796.68429999999989
  0
LINE
  8
_0-2_LAYER004
  6
CONTINUOUS
 62
    2
 10
1858.1909000000001
 20
966.06060000000002
 11
1858.1909000000001
 21
1078.1990942443849
  0
LINE
  8
_0-1_LAYER003
  6
CONTINUOUS
 62
    7
 10
1858.1909000000001
 20
966.06060000000002
 11
1858.1909000000001
 21
1078.1990942443849
  0
LINE
  8
_0-1_LAYER003
  6
CONTINUOUS
 62
    7
 10
1858.1909000000001
 20
1078.1990942443849
 11
1852.2017000000001
 21
1070.0248999999999
  0
LINE
  8
_0-1_LAYER003
  6
CONTINUOUS
 62
    7
 10
1858.1909000000001
 20
1078.1990942443849
 11
1852.2017000000001
 21
1070.0248999999999
  0
LINE
  8
_0-1_LAYER003
  6
CONTINUOUS
 62
    7
 10
1832.1723000000002
 20
1061.8581999999999
 11
1826.4065000000001
 21
1060.6865
  0
LINE
  8
_0-1_LAYER003
  6
CONTINUOUS
 62
    7
 10
1826.4065000000001
 20
1060.6865
 11
1826.4065000000001
 21
1079.5943
  0
LINE
  8
_0-1_LAYER003
  6
CONTINUOUS
 62
    7
 10
1826.4065000000001
 20
1079.5943
 11
1854.5963000000002
 21
1093.0016000000001
  0
LINE
  8
_0-1_LAYER003
  6
CONTINUOUS
 62
    7
 10
1854.5963000000002
 20
1093.0016000000001
 11
1859.5237999999999
 21
1089.3347000000001
  0
LINE
  8
_0-1_LAYER003
  6
CONTINUOUS
 62
    7
 10
1859.5237999999999
 20
1089.3347000000001
 11
1832.1723000000002
 21
1061.8581999999999
  0
LINE
  8
_0-1_LAYER003
  6
CONTINUOUS
 62
    7
 10
1577.5279
 20
949.18859999999995
 11
1517.5279
 21
889.18859999999995
  0
LINE
  8
_0-1_LAYER003
  6
CONTINUOUS
 62
    7
 10
1497.9747000000002
 20
1000.3816999999999
 11
1503.2779999999998
 21
995.0784000000001
  0
LINE
  8
_0-1_LAYER003
  6
CONTINUOUS
 62
    7
 10
1503.2779999999998
 20
995.0784000000001
 11
1501.3368999999998
 21
1002.3227999999999
  0
LINE
  8
_0-1_LAYER003
  6
CONTINUOUS
 62
    7
 10
1503.2779999999998
 20
995.0784000000001
 11
1451.8663000000001
 21
1084.1261
  0
LINE
  8
_0-1_LAYER003
  6
CONTINUOUS
 62
    7
 10
1341.0669000000003
 20
973.47090000000003
 11
1346.3702000000001
 21
978.77420000000006
  0
LINE
  8
_0-1_LAYER003
  6
CONTINUOUS
 62
    7
 10
1346.3702000000001
 20
978.77420000000006
 11
1344.4291000000001
 21
971.52980000000002
  0
LINE
  8
_0-1_LAYER003
  6
CONTINUOUS
 62
    7
 10
1346.3702000000001
 20
978.77420000000006
 11
1165.1300000000001
 21
664.85699999999997
  0
LINE
  8
_0-1_LAYER003
  6
CONTINUOUS
 62
    7
 10
1274.5279
 20
949.18859999999995
 11
1214.5279
 21
889.18859999999995
  0
LINE
  8
_0-1_LAYER003
  6
CONTINUOUS
 62
    7
 10
971.52790000000005
 20
949.18859999999995
 11
911.52790000000005
 21
889.18859999999995
  0
TEXT
  8
_0-0_LAYER001
 62
    7
 10
1793.7808818923504
 20
1214.2943186029179
 40
20
 41
1
 50
0
  1
７５
  0
TEXT
  8
_0-0_LAYER001
 62
    7
 10
1627.6120999999998
 20
1420.1428999999998
 40
20
 41
1
 50
0
  1
外壁　防火サイディング
  0
TEXT
  8
_0-0_LAYER001
 62
    7
 10
1725.9747000000002
 20
1344.1732999999999
 40
20
 41
1
 50
0
  1
胴　縁
  0
TEXT
  8
_0-0_LAYER001
 62
    7
 10
1620.8811000000001
 20
1194.0598
 40
20
 41
1
 50
0
  1
葺　土　
  0
TEXT
  8
_0-0_LAYER001
 62
    7
 10
1100.6300000000003
 20
667.35699999999974
 40
20
 41
1
 50
0
  1
　垂木　
  0
TEXT
  8
_0-0_LAYER001
 62
    7
 10
1411.2171617951424
 20
1091.3247654433906
 40
20
 41
1
 50
0
  1
桟　瓦
  0
TEXT
  8
_0-0_LAYER001
 62
    7
 10
1933.5350987927504
 20
905.27033690502685
 40
20
 41
1
 50
0
  1
下地材：１５ｘ１０５
  0
TEXT
  8
_0-0_LAYER001
 62
    7
 10
1142.8144313140292
 20
813.22494146935583
 40
20
 41
1
 50
0
  1
265
  0
TEXT
  8
_0-0_LAYER001
 62
    7
 10
1405.0521009782813
 20
814.76751599679187
 40
20
 41
1
 50
0
  1
265
  0
TEXT
  8
_0-0_LAYER001
 62
    7
 10
1693.5135376089597
 20
814.76751599679187
 40
20
 41
1
 50
0
  1
305
  0
TEXT
  8
_0-0_LAYER001
 62
    7
 10
1786.0680092551663
 20
868.75762445707994
 40
20
 41
1
 50
0
  1
120
  0
TEXT
  8
_0-0_LAYER001
 62
    7
 10
1944.9531855811542
 20
1006.046757398953
 40
20
 41
1
 50
90
  1
115
  0
TEXT
  8
_0-4_LAYER006
 62
    7
 10
1902.3872999999992
 20
1165.2747999999999
 40
20
 41
1
 50
0
  1
30x30
  0
TEXT
  8
_0-0_LAYER001
 62
    7
 10
2094.5829147425225
 20
1191.155700691367
 40
20
 41
1
 50
90
  1
150
  0
TEXT
  8
_0-0_LAYER001
 62
    7
 10
2093.0403402150851
 20
1030.7279498379414
 40
20
 41
1
 50
90
  1
165
  0
TEXT
  8
_0-0_LAYER001
 62
    7
 10
1575.7125757675713
 20
1301.2229593211582
 40
20
 41
1
 50
0
  1
笠木：１５ｘ９０
  0
TEXT
  8
_0-0_LAYER001
 62
    7
 10
1550.5338252378551
 20
1231.6111196213549
 40
20
 41
1
 50
0
  1
熨斗瓦２段積み
  0
TEXT
  8
_0-0_LAYER001
 62
    7
 10
1424.6400725892747
 20
1265.6764879850884
 40
20
 41
1
 50
0
  1
雨押水切カラー鋼板0.35ｍｍ以上
  0
TEXT
  8
_0-0_LAYER001
 62
    7
 10
978.82807791606615
 20
765.06368333543924
 40
20
 41
1
 50
0
  1
　瓦桟：１５ｘ３０以上　
  0
TEXT
  8
_0-0_LAYER001
 62
    7
 10
949.20601846934119
 20
699.8951525526445
 40
20
 41
1
 50
0
  1
　野地板：杉ｔ＝１２　
  0
TEXT
  8
_0-0_LAYER001
 62
    7
 10
953.74909999999943
 20
727.31889999999999
 40
20
 41
1
 50
0
  1
　下葺材：ルーフィング　
  0
TEXT
  8
_0-0_LAYER001
 62
    7
 10
1937.101701017614
 20
803.57236061618141
 40
20
 41
1
 50
0
  1
捨谷カラー鋼板0.35ｍｍ以上
  0
TEXT
  8
_0-0_LAYER001
 62
    7
 10
2008.1946436897535
 20
1105.7173669727745
 40
20
 41
1
 50
90
  1
300
  0
TEXT
  8
_0-1_LAYER003
 62
    7
 10
2045.2222179981595
 20
1024.2567034942813
 40
20
 41
1
 50
90
  1
下葺き材立上がり寸法
  0
TEXT
  8
_0-2_LAYER004
 62
    7
 10
2137.0506022830064
 20
1079.0575134707224
 40
20
 41
1
 50
90
  1
水切り立上がり寸法
  0
ENDSEC
  0
EOF
