  0
SECTION
  2
HEADER
  9
$ACADVER
  1
AC1009
  9
$INSBASE
 10
0
 20
0
 30
0
  9
$EXTMIN
 10
0
 20
0
  9
$EXTMAX
 10
2970
 20
2100
  9
$LIMMIN
 10
0
 20
0
  9
$LIMMAX
 10
2970
 20
2100
  9
$LTSCALE
 40
10
  0
ENDSEC
  0
SECTION
  2
TABLES
  0
TABLE
  2
LTYPE
 70
     9
  0
LTYPE
  2
CONTINUOUS
 70
    64
  3
実線
 72
    65
 73
     0
 40
0.0
  0
LTYPE
  2
DASHED1
 70
    64
  3
--  --  --  --  --  --  --  --  
 72
    65
 73
     2
 40
2.5
 49
1.25
 49
-1.25
  0
LTYPE
  2
DASHED2
 70
    64
  3
----    ----    ----    ----    
 72
    65
 73
     2
 40
5.0
 49
2.5
 49
-2.5
  0
LTYPE
  2
DASHED3
 70
    64
  3
------  ------  ------  ------  
 72
    65
 73
     2
 40
5.0
 49
3.75
 49
-1.25
  0
LTYPE
  2
CENTER1
 70
    64
  3
----- - ----- - ----- - ----- - 
 72
    65
 73
     4
 40
10.0
 49
6.25
 49
-1.25
 49
1.25
 49
-1.25
  0
LTYPE
  2
CENTER2
 70
    64
  3
----------  --  ----------  --  
 72
    65
 73
     4
 40
20.0
 49
12.5
 49
-2.5
 49
2.5
 49
-2.5
  0
LTYPE
  2
PHANTOM1
 70
    64
  3
--- - - --- - - --- - - --- - - 
 72
    65
 73
     6
 40
10.0
 49
3.25
 49
-1.25
 49
1.25
 49
-1.25
 49
1.25
 49
-1.25
  0
LTYPE
  2
PHANTOM2
 70
    64
  3
--------  -  -  --------  -  -  
 72
    65
 73
     6
 40
20.0
 49
10.0
 49
-2.5
 49
1.25
 49
-2.5
 49
1.25
 49
-2.5
  0
LTYPE
  2
DOT
 70
    64
  3
-   -   -   -   -   -   -   -   
 72
    65
 73
     2
 40
2.5
 49
0.625
 49
-1.875
  0
LTYPE
  2
DUMMY
 70
    64
  3
ダミー
 72
    65
 73
     0
 40
0.0
  0
LTYPE
  2
RAND1
 70
    64
  3
ランダム線1
 72
    65
 73
     4
 40
10.0
 49
1.0
 49
-2.0
 49
3.0
 49
-4.0
  0
LTYPE
  2
RAND2
 70
    64
  3
ランダム線2
 72
    65
 73
     4
 40
14.0
 49
2.0
 49
-3.0
 49
4.0
 49
-5.0
  0
LTYPE
  2
RAND3
 70
    64
  3
ランダム線3
 72
    65
 73
     4
 40
18.0
 49
3.0
 49
-4.0
 49
5.0
 49
-6.0
  0
LTYPE
  2
RAND4
 70
    64
  3
ランダム線4
 72
    65
 73
     4
 40
22.0
 49
4.0
 49
-5.0
 49
6.0
 49
-7.0
  0
LTYPE
  2
RAND5
 70
    64
  3
ランダム線5
 72
    65
 73
     4
 40
26.0
 49
5.0
 49
-6.0
 49
7.0
 49
-8.0
  0
LTYPE
  2
LONG1
 70
    64
  3
----------  --  ----------  --  
 72
    65
 73
     4
 40
40.0
 49
32.5
 49
-2.5
 49
2.5
 49
-2.5
  0
LTYPE
  2
LONG2
 70
    64
  3
--------  -  -  --------  -  -  
 72
    65
 73
     6
 40
40.0
 49
30.0
 49
-2.5
 49
1.25
 49
-2.5
 49
1.25
 49
-2.5
  0
LTYPE
  2
LONG3
 70
    64
  3
+++++++++++++++..+++++++++++++++
 72
    65
 73
     2
 40
40.0
 49
37.5
 49
-2.5
  0
LTYPE
  2
LONG4
 70
    64
  3
+++++++++++++++..+++++++++++++++
 72
    65
 73
     2
 40
80.0
 49
75.0
 49
-5.0
  0
LTYPE
  2
LONG5
 70
    64
  3
----------  --  ----------  --  
 72
    65
 73
     4
 40
60.0
 49
37.5
 49
-7.5
 49
7.5
 49
-7.5
  0
LTYPE
  2
dashed
 70
   64
  3
-------   -------------   ------
 72
   65
 73
    2
 40
7.5
 49
6
 49
-1.5
  0
LTYPE
  2
dashed_spaced
 70
   64
  3
----        --------        ----
 72
   65
 73
    2
 40
12
 49
6
 49
-6
  0
LTYPE
  2
long_dashed_dotted
 70
   64
  3
------------- --- --------------
 72
   65
 73
    4
 40
15.25
 49
12
 49
-1.5
 49
0.25
 49
-1.5
  0
LTYPE
  2
long_dashed_double-dotted
 70
   64
  3
----------- --- --- ------------
 72
   65
 73
    6
 40
17
 49
12
 49
-1.5
 49
0.25
 49
-1.5
 49
0.25
 49
-1.5
  0
LTYPE
  2
long_dashed_triplicate-dotted
 70
   64
  3
--------- --- --- --- ----------
 72
   65
 73
    8
 40
18.75
 49
12
 49
-1.5
 49
0.25
 49
-1.5
 49
0.25
 49
-1.5
 49
0.25
 49
-1.5
  0
LTYPE
  2
dotted
 70
   64
  3
   -       -       -       -    
 72
   65
 73
    2
 40
1.75
 49
0.25
 49
-1.5
  0
LTYPE
  2
chain
 70
   64
  3
-------------- -- --------------
 72
   65
 73
    4
 40
18.5
 49
12
 49
-1.5
 49
3.5
 49
-1.5
  0
LTYPE
  2
chain_double_dash
 70
   64
  3
------------ -- -- -------------
 72
   65
 73
    6
 40
23.5
 49
12
 49
-1.5
 49
3.5
 49
-1.5
 49
3.5
 49
-1.5
  0
LTYPE
  2
dashed_dotted
 70
   64
  3
-----------     -     ----------
 72
   65
 73
    4
 40
9.25
 49
6
 49
-1.5
 49
0.25
 49
-1.5
  0
LTYPE
  2
double-dashed_dotted
 70
   64
  3
------   -----------   -   -----
 72
   65
 73
    6
 40
16.75
 49
6
 49
-1.5
 49
6
 49
-1.5
 49
0.25
 49
-1.5
  0
LTYPE
  2
dashed_double-dotted
 70
   64
  3
---------    -    -    ---------
 72
   65
 73
    6
 40
11
 49
6
 49
-1.5
 49
0.25
 49
-1.5
 49
0.25
 49
-1.5
  0
LTYPE
  2
double-dashed_double-dotted
 70
   64
  3
-----   ---------   -   -   ----
 72
   65
 73
    8
 40
18.5
 49
6
 49
-1.5
 49
6
 49
-1.5
 49
0.25
 49
-1.5
 49
0.25
 49
-1.5
  0
LTYPE
  2
dashed_triplicate-dotted
 70
   64
  3
-------    -    -    -    ------
 72
   65
 73
    8
 40
12.75
 49
6
 49
-1.5
 49
0.25
 49
-1.5
 49
0.25
 49
-1.5
 49
0.25
 49
-1.5
  0
LTYPE
  2
double-dashed_triplicate-dotted
 70
   64
  3
-----  ---------  -  -  -  -----
 72
   65
 73
   10
 40
20.25
 49
6
 49
-1.5
 49
6
 49
-1.5
 49
0.25
 49
-1.5
 49
0.25
 49
-1.5
 49
0.25
 49
-1.5
  0
LTYPE
  2
undefined
 70
   64
  3
--------------------------------
 72
   65
 73
    0
 40
0
  0
LTYPE
  2
HIDDEN
 70
   64
  3
----        --------        ----
 72
   65
 73
    2
 40
10
 49
5
 49
-5
  0
LTYPE
  2
DASHED
 70
   64
  3
-------   -------------   ------
 72
   65
 73
    2
 40
50
 49
40
 49
-10
  0
LTYPE
  2
CENTER
 70
   64
  3
------------   ---   -----------
 72
   65
 73
    4
 40
100
 49
70
 49
-10
 49
10
 49
-10
  0
LTYPE
  2
PHANTOM
 70
   64
  3
---------   ---   ---   --------
 72
   65
 73
    6
 40
100
 49
50
 49
-10
 49
10
 49
-10
 49
10
 49
-10
  0
ENDTAB
  0
TABLE
  2
STYLE
  5
3
100
AcDbSymbolTable
 70
     1
  0
STYLE
  5
10
100
AcDbSymbolTableRecord
100
AcDbTextStyleTableRecord
  2
STANDARD
 70
     0
 40
0.0
 41
1.0
 50
0.0
 71
     0
 42
0.2
  3
txt
  4
bigfont.shx
  0
STYLE
  5
26
100
AcDbSymbolTableRecord
100
AcDbTextStyleTableRecord
  2
TATEGAKI
 70
    68
 40
0.0
 41
1.0
 50
0.0
 71
     0
 42
1.0
  3
txt
  4
bigfont.shx
  0
ENDTAB
  0
TABLE
  2
LAYER
 70
    2
  0
LAYER
  2
_0-0_LAYER001
 70
   64
 62
    7
  6
CONTINUOUS
  0
LAYER
  2
ADD_LINE
 70
   64
 62
    7
  6
CONTINUOUS
  0
ENDTAB
  0
ENDSEC
  0
SECTION
  2
BLOCKS
  0
ENDSEC
  0
SECTION
  2
ENTITIES
  0
LINE
  8
_0-0_LAYER001
  6
CONTINUOUS
 62
    3
 10
1141.1156599999999
 20
802.79534300000023
 11
1183.7933790000002
 21
707.955738
  0
LINE
  8
_0-0_LAYER001
  6
CONTINUOUS
 62
    3
 10
1118.317614
 20
792.536247
 11
1160.995343
 21
697.69661700000006
  0
LINE
  8
_0-0_LAYER001
  6
CONTINUOUS
 62
    3
 10
1183.7933790000002
 20
707.955738
 11
1160.995343
 21
697.69661700000006
  0
LINE
  8
_0-0_LAYER001
  6
CONTINUOUS
 62
    4
 10
1258.1707109999998
 20
950.78628600000002
 11
1263.774672
 21
952.55655500000012
  0
ARC
  8
_0-0_LAYER001
  6
CONTINUOUS
 62
    4
 10
1280.5594499999997
 20
954.27008500000011
 40
16.872017
 50
103.35714900000002
 51
185.82903500000003
  0
LINE
  8
_0-0_LAYER001
  6
CONTINUOUS
 62
    4
 10
1282.2056090000001
 20
954.08459800000037
 11
1588.380103
 21
1050.8039050000002
  0
LINE
  8
_0-0_LAYER001
  6
CONTINUOUS
 62
    4
 10
1582.3011270000002
 20
1070.0475020000003
 11
1558.9161429999999
 21
1062.6602780000003
  0
LINE
  8
_0-0_LAYER001
  6
CONTINUOUS
 62
    4
 10
1276.6616709999998
 20
970.68569600000001
 11
1556.5068259999998
 21
1059.087669
  0
ARC
  8
_0-0_LAYER001
  6
CONTINUOUS
 62
    4
 10
1562.1375929999999
 20
1057.6077
 40
5.8220140000000011
 50
113.701938
 51
165.27368200000001
  0
LINE
  8
_0-0_LAYER001
  6
CONTINUOUS
 62
    4
 10
1258.1613170000001
 20
950.8160240000002
 11
1264.0444189999998
 21
932.19248100000004
  0
ARC
  8
_0-0_LAYER001
  6
CONTINUOUS
 62
    4
 10
1286.103388
 20
937.66898800000035
 40
16.872017
 50
103.35714900000002
 51
192.69455200000002
  0
LINE
  8
_0-0_LAYER001
  6
CONTINUOUS
 62
    4
 10
1589.5360580000001
 20
1031.6928420000004
 11
1587.7745530000002
 21
1037.269061
  0
LINE
  8
_0-0_LAYER001
  6
CONTINUOUS
 62
    4
 10
1582.3011270000002
 20
1070.0475020000003
 11
1593.9743159999998
 21
1033.0948700000004
  0
LINE
  8
_0-0_LAYER001
  6
CONTINUOUS
 62
    4
 10
1589.5360580000001
 20
1031.6928420000004
 11
1593.9743159999998
 21
1033.0948700000004
  0
LINE
  8
_0-0_LAYER001
  6
CONTINUOUS
 62
    4
 10
1269.6437989999999
 20
933.96130300000004
 11
1264.0444189999998
 21
932.19248100000004
  0
LINE
  8
_0-0_LAYER001
  6
CONTINUOUS
 62
    4
 10
1269.27331
 20
936.65578300000016
 11
1587.7745530000002
 21
1037.269061
  0
LINE
  8
_0-0_LAYER001
  6
CONTINUOUS
 62
    4
 10
1512.6914409999999
 20
1067.8954100000001
 11
1518.3098759999998
 21
1069.619189
  0
ARC
  8
_0-0_LAYER001
  6
CONTINUOUS
 62
    4
 10
1535.108275
 20
1071.1935980000003
 40
16.872017
 50
102.88244700000001
 51
185.354333
  0
LINE
  8
_0-0_LAYER001
  6
CONTINUOUS
 62
    4
 10
1536.752841
 20
1070.9944800000003
 11
1843.7181490000003
 21
1165.173804
  0
LINE
  8
_0-0_LAYER001
  6
CONTINUOUS
 62
    4
 10
1837.7988150000001
 20
1184.4671050000002
 11
1814.3534300000001
 21
1177.2738800000002
  0
LINE
  8
_0-0_LAYER001
  6
CONTINUOUS
 62
    4
 10
1531.346634
 20
1087.6409390000003
 11
1811.9145959999996
 21
1173.7213550000001
  0
ARC
  8
_0-0_LAYER001
  6
CONTINUOUS
 62
    4
 10
1817.5329089999996
 20
1172.194786
 40
5.8220140000000011
 50
113.22723600000002
 51
164.79898000000003
  0
LINE
  8
_0-0_LAYER001
  6
CONTINUOUS
 62
    4
 10
1512.6822940000002
 20
1067.925225
 11
1518.4108980000001
 21
1049.2535800000001
  0
ARC
  8
_0-0_LAYER001
  6
CONTINUOUS
 62
    4
 10
1540.514482
 20
1054.5471390000002
 40
16.872017
 50
102.88244700000001
 51
192.21985000000001
  0
LINE
  8
_0-0_LAYER001
  6
CONTINUOUS
 62
    4
 10
1844.7157289999996
 20
1146.0538200000001
 11
1843.0004829999998
 21
1151.6444410000004
  0
LINE
  8
_0-0_LAYER001
  6
CONTINUOUS
 62
    4
 10
1837.7988150000001
 20
1184.4671050000002
 11
1849.1654500000004
 21
1147.4190290000001
  0
LINE
  8
_0-0_LAYER001
  6
CONTINUOUS
 62
    4
 10
1844.7157289999996
 20
1146.0538200000001
 11
1849.1654500000004
 21
1147.4190290000001
  0
LINE
  8
_0-0_LAYER001
  6
CONTINUOUS
 62
    4
 10
1524.0247410000002
 20
1050.97595
 11
1518.4108980000001
 21
1049.2535800000001
  0
LINE
  8
_0-0_LAYER001
  6
CONTINUOUS
 62
    4
 10
1523.6765879999998
 20
1053.6734070000002
 11
1843.0004829999998
 21
1151.6444410000004
  0
LINE
  8
_0-0_LAYER001
  6
CONTINUOUS
 62
    4
 10
1768.0102749999996
 20
1182.840158
 11
1773.6287110000003
 21
1184.5639380000002
  0
ARC
  8
_0-0_LAYER001
  6
CONTINUOUS
 62
    4
 10
1790.4271090000002
 20
1186.1383460000002
 40
16.872017
 50
102.88244700000001
 51
185.354333
  0
LINE
  8
_0-0_LAYER001
  6
CONTINUOUS
 62
    4
 10
1792.0716759999996
 20
1185.9392280000002
 11
2099.036983
 21
1280.1185520000004
  0
LINE
  8
_0-0_LAYER001
  6
CONTINUOUS
 62
    4
 10
2093.1176489999998
 20
1299.4118530000001
 11
2069.6722639999998
 21
1292.2186280000001
  0
LINE
  8
_0-0_LAYER001
  6
CONTINUOUS
 62
    4
 10
1786.6654680000001
 20
1202.5856870000002
 11
2067.2334300000002
 21
1288.666103
  0
ARC
  8
_0-0_LAYER001
  6
CONTINUOUS
 62
    4
 10
2072.8517430000002
 20
1287.1395340000004
 40
5.8220140000000011
 50
113.22723600000002
 51
164.79898000000003
  0
LINE
  8
_0-0_LAYER001
  6
CONTINUOUS
 62
    4
 10
1768.0011279999999
 20
1182.8699730000003
 11
1773.7297319999998
 21
1164.1983280000004
  0
ARC
  8
_0-0_LAYER001
  6
CONTINUOUS
 62
    4
 10
1795.8333160000002
 20
1169.4918870000001
 40
16.872017
 50
102.88244700000001
 51
192.21985000000001
  0
LINE
  8
_0-0_LAYER001
  6
CONTINUOUS
 62
    4
 10
2100.0345630000002
 20
1260.998568
 11
2098.3193170000004
 21
1266.5891900000001
  0
LINE
  8
_0-0_LAYER001
  6
CONTINUOUS
 62
    4
 10
2093.1176489999998
 20
1299.4118530000001
 11
2104.4842840000001
 21
1262.363777
  0
LINE
  8
_0-0_LAYER001
  6
CONTINUOUS
 62
    4
 10
2100.0345630000002
 20
1260.998568
 11
2104.4842840000001
 21
1262.363777
  0
LINE
  8
_0-0_LAYER001
  6
CONTINUOUS
 62
    4
 10
1779.3435749999999
 20
1165.9206990000002
 11
1773.7297319999998
 21
1164.1983280000004
  0
LINE
  8
_0-0_LAYER001
  6
CONTINUOUS
 62
    4
 10
1778.995422
 20
1168.6181550000001
 11
2098.3193170000004
 21
1266.5891900000001
  0
LINE
  8
_0-0_LAYER001
  6
CONTINUOUS
 62
    4
 10
2023.3291090000002
 20
1297.7849070000002
 11
2028.947545
 21
1299.5086860000001
  0
ARC
  8
_0-0_LAYER001
  6
CONTINUOUS
 62
    4
 10
2045.7459429999999
 20
1301.083095
 40
16.872017
 50
102.88244700000001
 51
185.354333
  0
LINE
  8
_0-0_LAYER001
  6
CONTINUOUS
 62
    4
 10
2047.3905100000002
 20
1300.883977
 11
2126.9601919999996
 21
1325.2965690000001
  0
LINE
  8
_0-0_LAYER001
  6
CONTINUOUS
 62
    4
 10
2041.9843019999998
 20
1317.5304350000001
 11
2119.2825270000003
 21
1341.2461270000003
  0
LINE
  8
_0-0_LAYER001
  6
CONTINUOUS
 62
    4
 10
2023.3199619999996
 20
1297.8147210000002
 11
2029.0485660000004
 21
1279.1430770000002
  0
ARC
  8
_0-0_LAYER001
  6
CONTINUOUS
 62
    4
 10
2051.1521499999999
 20
1284.4366360000004
 40
16.872017
 50
102.88244700000001
 51
192.21985000000001
  0
LINE
  8
_0-0_LAYER001
  6
CONTINUOUS
 62
    4
 10
2034.6624089999996
 20
1280.8654470000001
 11
2029.0485660000004
 21
1279.1430770000002
  0
LINE
  8
_0-0_LAYER001
  6
CONTINUOUS
 62
    4
 10
2034.3142559999997
 20
1283.562903
 11
2132.5424210000001
 21
1313.7000620000003
  0
LINE
  8
_0-0_LAYER001
  6
CONTINUOUS
 62
    4
 10
1004.9295179999999
 20
836.21519600000011
 11
1010.5334790000001
 21
837.9854650000002
  0
ARC
  8
_0-0_LAYER001
  6
CONTINUOUS
 62
    4
 10
1027.3182569999999
 20
839.6989950000002
 40
16.872017
 50
103.35714900000002
 51
185.82903500000003
  0
LINE
  8
_0-0_LAYER001
  6
CONTINUOUS
 62
    4
 10
1028.9644159999998
 20
839.51350900000034
 11
1335.1389100000001
 21
936.23281600000018
  0
LINE
  8
_0-0_LAYER001
  6
CONTINUOUS
 62
    4
 10
1329.0599339999999
 20
955.47641199999998
 11
1305.6749500000001
 21
948.08918900000026
  0
LINE
  8
_0-0_LAYER001
  6
CONTINUOUS
 62
    4
 10
1023.4204779999999
 20
856.11460600000009
 11
1303.2656320000001
 21
944.51657999999998
  0
ARC
  8
_0-0_LAYER001
  6
CONTINUOUS
 62
    4
 10
1308.8964000000001
 20
943.03661099999999
 40
5.8220140000000011
 50
113.701938
 51
165.27368200000001
  0
LINE
  8
_0-0_LAYER001
  6
CONTINUOUS
 62
    4
 10
1004.9201239999996
 20
836.24493400000028
 11
1010.8032259999999
 21
817.62139200000001
  0
ARC
  8
_0-0_LAYER001
  6
CONTINUOUS
 62
    4
 10
1032.8621939999998
 20
823.09789799999999
 40
16.872017
 50
103.35714900000002
 51
192.69455200000002
  0
LINE
  8
_0-0_LAYER001
  6
CONTINUOUS
 62
    4
 10
1336.2948649999998
 20
917.12175300000035
 11
1334.5333599999999
 21
922.69797200000039
  0
LINE
  8
_0-0_LAYER001
  6
CONTINUOUS
 62
    4
 10
1329.0599339999999
 20
955.47641199999998
 11
1340.733123
 21
918.52378100000033
  0
LINE
  8
_0-0_LAYER001
  6
CONTINUOUS
 62
    4
 10
1336.2948649999998
 20
917.12175300000035
 11
1340.733123
 21
918.52378100000033
  0
LINE
  8
_0-0_LAYER001
  6
CONTINUOUS
 62
    4
 10
1016.4026060000001
 20
819.39021400000001
 11
1010.8032259999999
 21
817.62139200000001
  0
LINE
  8
_0-0_LAYER001
  6
CONTINUOUS
 62
    4
 10
1016.0321169999997
 20
822.08469300000024
 11
1334.5333599999999
 21
922.69797200000039
  0
LINE
  8
_0-0_LAYER001
  6
CONTINUOUS
 62
   18
 10
1146.2470149999999
 20
819.8119770000003
 11
1080.216015
 21
790.09797700000036
  0
LINE
  8
_0-0_LAYER001
  6
CONTINUOUS
 62
   18
 10
1080.216015
 20
790.09797700000036
 11
1080.216015
 21
760.52231900000015
  0
LINE
  8
_0-0_LAYER001
  6
CONTINUOUS
 62
   18
 10
1080.216015
 20
760.52231900000015
 11
1085.6131660000001
 21
769.28928900000028
  0
LINE
  8
_0-0_LAYER001
  6
DASHED
 62
   18
 10
2141.4395370000002
 20
1268.8421090000002
 11
1085.0086539999998
 21
793.44799600000033
  0
LINE
  8
_0-0_LAYER001
  6
CONTINUOUS
 62
   18
 10
1198.5668430000001
 20
762.85276400000021
 11
1205.9531069999998
 21
746.43880500000023
  0
LINE
  8
_0-0_LAYER001
  6
CONTINUOUS
 62
   18
 10
1471.2308379999999
 20
885.55066400000032
 11
1478.6167049999999
 21
869.13652600000023
  0
LINE
  8
_0-0_LAYER001
  6
CONTINUOUS
 62
   18
 10
1744.8072570000004
 20
1008.6609560000002
 11
1752.193475
 21
992.24693800000023
  0
LINE
  8
_0-0_LAYER001
  6
CONTINUOUS
 62
   18
 10
1711.9780149999997
 20
993.88797700000032
 11
1719.3642330000002
 21
977.47395900000038
  0
LINE
  8
_0-0_LAYER001
  6
CONTINUOUS
 62
   18
 10
1438.4012939999998
 20
870.77835800000003
 11
1445.7871610000002
 21
854.36422100000027
  0
LINE
  8
_0-0_LAYER001
  6
CONTINUOUS
 62
   18
 10
2142.4654469999996
 20
1266.562304
 11
1090.5951009999999
 21
793.2204340000003
  0
LINE
  8
_0-0_LAYER001
  6
CONTINUOUS
 62
   18
 10
2147.3898129999998
 20
1255.6192410000003
 11
1095.5194670000001
 21
782.27737200000001
  0
LINE
  8
_0-0_LAYER001
  6
CONTINUOUS
 62
   18
 10
1090.5951009999999
 20
793.2204340000003
 11
1095.5194670000001
 21
782.27737200000001
  0
LINE
  8
_0-0_LAYER001
  6
CONTINUOUS
 62
   18
 10
1198.5668430000001
 20
762.85276400000021
 11
1173.1239190000001
 21
731.66570700000011
  0
LINE
  8
_0-0_LAYER001
  6
CONTINUOUS
 62
   18
 10
1471.2308379999999
 20
885.55066400000032
 11
1445.7871610000002
 21
854.36422100000027
  0
LINE
  8
_0-0_LAYER001
  6
CONTINUOUS
 62
   18
 10
1744.8072570000004
 20
1008.6609560000002
 11
1719.3642330000002
 21
977.47395900000038
  0
LINE
  8
_0-0_LAYER001
  6
CONTINUOUS
 62
   18
 10
1155.1373309999999
 20
710.71445500000027
 11
1165.9331529999999
 21
699.91863200000034
  0
LINE
  8
_0-0_LAYER001
  6
CONTINUOUS
 62
   18
 10
1146.4592400000001
 20
729.99914699999999
 11
1173.2480500000001
 21
703.21033699999987
  0
LINE
  8
_0-0_LAYER001
  6
CONTINUOUS
 62
   18
 10
1137.7811499999998
 20
749.28383900000017
 11
1180.562946
 21
706.50204200000007
  0
LINE
  8
_0-0_LAYER001
  6
CONTINUOUS
 62
   18
 10
1129.103059
 20
768.56853100000035
 11
1178.9477400000001
 21
718.72385000000031
  0
LINE
  8
_0-0_LAYER001
  6
CONTINUOUS
 62
   18
 10
1120.4249690000001
 20
787.85322399999995
 11
1170.2696500000002
 21
738.00854200000003
  0
LINE
  8
_0-0_LAYER001
  6
CONTINUOUS
 62
   18
 10
1123.8561930000001
 20
795.02860099999998
 11
1161.5915599999998
 21
757.29323400000021
  0
LINE
  8
_0-0_LAYER001
  6
CONTINUOUS
 62
   18
 10
1131.171096
 20
798.32030000000032
 11
1152.9134690000001
 21
776.57792700000027
  0
LINE
  8
_0-0_LAYER001
  6
CONTINUOUS
 62
   18
 10
1138.485999
 20
801.61199800000031
 11
1144.2353790000002
 21
795.862619
  0
LINE
  8
_0-0_LAYER001
  6
CONTINUOUS
 62
   18
 10
1072.8026799999998
 20
760.45640200000025
 11
1078.1059799999998
 21
765.75970200000029
  0
LINE
  8
_0-0_LAYER001
  6
CONTINUOUS
 62
   18
 10
1078.1059799999998
 20
765.75970200000029
 11
1076.1648380000001
 21
758.51525900000024
  0
LINE
  8
_0-0_LAYER001
  6
CONTINUOUS
 62
   18
 10
1078.1059799999998
 20
765.75970200000029
 11
1023.6101869999998
 21
671.37021900000036
  0
LINE
  8
_0-0_LAYER001
  6
CONTINUOUS
 62
   18
 10
1023.6101869999998
 20
671.37021900000036
 11
822.61018699999977
 21
671.37021900000036
  0
LINE
  8
_0-0_LAYER001
  6
CONTINUOUS
 62
   18
 10
1151.4279329999999
 20
733.09713899999997
 11
1155.1779329999999
 21
739.59232900000006
  0
LINE
  8
_0-0_LAYER001
  6
CONTINUOUS
 62
   18
 10
1155.1779329999999
 20
739.59232900000006
 11
1155.1779329999999
 21
732.09232900000006
  0
LINE
  8
_0-0_LAYER001
  6
CONTINUOUS
 62
   18
 10
1155.1779329999999
 20
739.59232900000006
 11
1113.4749240000001
 21
583.95457900000019
  0
LINE
  8
_0-0_LAYER001
  6
CONTINUOUS
 62
   18
 10
1113.4749240000001
 20
583.95457900000019
 11
1065.4749240000001
 21
583.95457900000019
  0
LINE
  8
_0-0_LAYER001
  6
CONTINUOUS
 62
   18
 10
951.21938300000011
 20
945.03960200000029
 11
972.76348499999983
 21
897.16370400000005
  0
CIRCLE
  8
_0-0_LAYER001
  6
CONTINUOUS
 62
   18
 10
952.24529299999995
 20
942.75979700000016
 40
1.7000000000000002
  0
LINE
  8
_0-0_LAYER001
  6
CONTINUOUS
 62
   18
 10
952.24529299999995
 20
942.75979700000016
 11
1207.583419
 21
1057.6616760000002
  0
CIRCLE
  8
_0-0_LAYER001
  6
CONTINUOUS
 62
   18
 10
1207.583419
 20
1057.6616760000002
 40
1.7000000000000002
  0
LINE
  8
_0-0_LAYER001
  6
CONTINUOUS
 62
   18
 10
1206.5575089999998
 20
1059.94148
 11
1228.101611
 21
1012.0655820000002
  0
LINE
  8
_0-0_LAYER001
  6
CONTINUOUS
 62
   18
 10
1198.3502319999998
 20
1078.1799180000003
 11
1219.8943340000001
 21
1030.3040190000002
  0
CIRCLE
  8
_0-0_LAYER001
  6
CONTINUOUS
 62
   18
 10
1199.3761420000001
 20
1075.9001130000001
 40
1.7000000000000002
  0
LINE
  8
_0-0_LAYER001
  6
CONTINUOUS
 62
   18
 10
1199.3761420000001
 20
1075.9001130000001
 11
1454.7142669999998
 21
1190.8019910000003
  0
CIRCLE
  8
_0-0_LAYER001
  6
CONTINUOUS
 62
   18
 10
1454.7142669999998
 20
1190.8019910000003
 40
1.7000000000000002
  0
LINE
  8
_0-0_LAYER001
  6
CONTINUOUS
 62
   18
 10
1453.6883579999999
 20
1193.0817960000004
 11
1475.2324600000002
 21
1145.2058970000003
  0
LINE
  8
_0-0_LAYER001
  6
CONTINUOUS
 62
   18
 10
1445.4810809999999
 20
1211.3202330000004
 11
1467.0251829999997
 21
1163.4443350000001
  0
CIRCLE
  8
_0-0_LAYER001
  6
CONTINUOUS
 62
   18
 10
1446.5069899999999
 20
1209.0404290000001
 40
1.7000000000000002
  0
LINE
  8
_0-0_LAYER001
  6
CONTINUOUS
 62
   18
 10
1446.5069899999999
 20
1209.0404290000001
 11
1701.8451160000004
 21
1323.9423070000003
  0
CIRCLE
  8
_0-0_LAYER001
  6
CONTINUOUS
 62
   18
 10
1701.8451160000004
 20
1323.9423070000003
 40
1.7000000000000002
  0
LINE
  8
_0-0_LAYER001
  6
CONTINUOUS
 62
   18
 10
1700.8192060000001
 20
1326.222111
 11
1722.363308
 21
1278.3462130000003
  0
LINE
  8
_0-0_LAYER001
  6
CONTINUOUS
 62
   18
 10
1692.6119289999997
 20
1344.4605490000004
 11
1714.1560309999995
 21
1296.5846500000002
  0
CIRCLE
  8
_0-0_LAYER001
  6
CONTINUOUS
 62
   18
 10
1693.637839
 20
1342.1807440000002
 40
1.7000000000000002
  0
LINE
  8
_0-0_LAYER001
  6
CONTINUOUS
 62
   18
 10
1693.637839
 20
1342.1807440000002
 11
1948.9759649999996
 21
1457.0826220000004
  0
CIRCLE
  8
_0-0_LAYER001
  6
CONTINUOUS
 62
   18
 10
1948.9759649999996
 20
1457.0826220000004
 40
1.7000000000000002
  0
LINE
  8
_0-0_LAYER001
  6
CONTINUOUS
 62
   18
 10
1947.9500550000002
 20
1459.362427
 11
1969.4941570000001
 21
1411.4865290000002
  0
LINE
  8
_0-0_LAYER001
  6
CONTINUOUS
 62
   18
 10
1939.7427779999998
 20
1477.6008650000003
 11
1961.2868799999997
 21
1429.7249660000002
  0
CIRCLE
  8
_0-0_LAYER001
  6
CONTINUOUS
 62
   18
 10
1940.7686880000001
 20
1475.3210600000002
 40
1.7000000000000002
  0
LINE
  8
_0-0_LAYER001
  6
CONTINUOUS
 62
   18
 10
1940.7686880000001
 20
1475.3210600000002
 11
2031.2674880000004
 21
1516.0454210000003
  0
LINE
  8
_0-0_LAYER001
  6
CONTINUOUS
 62
   18
 10
973.64704100000017
 20
895.20024300000023
 11
984.93204699999978
 21
870.12239100000033
  0
CIRCLE
  8
_0-0_LAYER001
  6
CONTINUOUS
 62
   18
 10
974.67295000000013
 20
892.9204380000001
 40
1.7000000000000002
  0
LINE
  8
_0-0_LAYER001
  6
CONTINUOUS
 62
   18
 10
974.67295000000013
 20
892.9204380000001
 11
1043.0674909999998
 21
923.69790600000033
  0
CIRCLE
  8
_0-0_LAYER001
  6
CONTINUOUS
 62
   18
 10
1043.0674909999998
 20
923.69790600000033
 40
1.7000000000000002
  0
LINE
  8
_0-0_LAYER001
  6
CONTINUOUS
 62
   18
 10
1042.041581
 20
925.977711
 11
1053.326587
 21
900.89985900000011
  0
CIRCLE
  8
_0-0_LAYER001
  6
CONTINUOUS
 62
   18
 10
1043.0674909999998
 20
923.69790600000033
 40
1.7000000000000002
  0
LINE
  8
_0-0_LAYER001
  6
CONTINUOUS
 62
   18
 10
1043.0674909999998
 20
923.69790600000033
 11
1230.0110759999998
 21
1007.8223160000002
  0
CIRCLE
  8
_0-0_LAYER001
  6
CONTINUOUS
 62
   18
 10
1230.0110759999998
 20
1007.8223160000002
 40
1.7000000000000002
  0
LINE
  8
_0-0_LAYER001
  6
CONTINUOUS
 62
   18
 10
1228.9851659999999
 20
1010.1021210000004
 11
1240.270172
 21
985.024269
  0
CIRCLE
  8
_0-0_LAYER001
  6
CONTINUOUS
 62
   18
 10
1230.0110759999998
 20
1007.8223160000002
 40
1.7000000000000002
  0
LINE
  8
_0-0_LAYER001
  6
CONTINUOUS
 62
   18
 10
1230.0110759999998
 20
1007.8223160000002
 11
1284.7263889999999
 21
1032.4441470000002
  0
CIRCLE
  8
_0-0_LAYER001
  6
CONTINUOUS
 62
   18
 10
1284.7263889999999
 20
1032.4441470000002
 40
1.7000000000000002
  0
LINE
  8
_0-0_LAYER001
  6
CONTINUOUS
 62
   18
 10
1283.7004790000001
 20
1034.7239520000003
 11
1294.9854850000002
 21
1009.6461000000004
  0
LINE
  8
_0-0_LAYER001
  6
CONTINUOUS
 62
   18
 10
1565.1765070000001
 20
1010.8308220000004
 11
1592.746971
 21
1022.6574660000001
  0
LINE
  8
_0-0_LAYER001
  6
CONTINUOUS
 62
   18
 10
1592.746971
 20
1022.6574660000001
 11
1586.8336490000002
 21
1036.4426980000003
  0
LINE
  8
_0-0_LAYER001
  6
CONTINUOUS
 62
   18
 10
1586.8336490000002
 20
1036.4426980000003
 11
1559.2631849999998
 21
1024.6160540000001
  0
LINE
  8
_0-0_LAYER001
  6
CONTINUOUS
 62
   18
 10
1559.2631849999998
 20
1024.6160540000001
 11
1565.1765070000001
 21
1010.8308220000004
  0
LINE
  8
_0-0_LAYER001
  6
CONTINUOUS
 62
   18
 10
1586.8336490000002
 20
1036.4426980000003
 11
1565.1765070000001
 21
1010.8308220000004
  0
LINE
  8
_0-0_LAYER001
  6
CONTINUOUS
 62
   18
 10
1820.1841709999999
 20
1125.394335
 11
1847.8516730000001
 21
1136.9921510000004
  0
LINE
  8
_0-0_LAYER001
  6
CONTINUOUS
 62
   18
 10
1847.8516730000001
 20
1136.9921510000004
 11
1842.0527650000004
 21
1150.825902
  0
LINE
  8
_0-0_LAYER001
  6
CONTINUOUS
 62
   18
 10
1842.0527650000004
 20
1150.825902
 11
1814.3852630000001
 21
1139.2280860000001
  0
LINE
  8
_0-0_LAYER001
  6
CONTINUOUS
 62
   18
 10
1814.3852630000001
 20
1139.2280860000001
 11
1820.1841709999999
 21
1125.394335
  0
LINE
  8
_0-0_LAYER001
  6
CONTINUOUS
 62
   18
 10
1842.0527650000004
 20
1150.825902
 11
1820.1841709999999
 21
1125.394335
  0
LINE
  8
_0-0_LAYER001
  6
CONTINUOUS
 62
   18
 10
2075.5030049999996
 20
1240.3390830000003
 11
2103.1705069999998
 21
1251.9369000000002
  0
LINE
  8
_0-0_LAYER001
  6
CONTINUOUS
 62
   18
 10
2103.1705069999998
 20
1251.9369000000002
 11
2097.3715990000001
 21
1265.7706510000003
  0
LINE
  8
_0-0_LAYER001
  6
CONTINUOUS
 62
   18
 10
2097.3715990000001
 20
1265.7706510000003
 11
2069.7040969999998
 21
1254.172834
  0
LINE
  8
_0-0_LAYER001
  6
CONTINUOUS
 62
   18
 10
2069.7040969999998
 20
1254.172834
 11
2075.5030049999996
 21
1240.3390830000003
  0
LINE
  8
_0-0_LAYER001
  6
CONTINUOUS
 62
   18
 10
2097.3715990000001
 20
1265.7706510000003
 11
2075.5030049999996
 21
1240.3390830000003
  0
LINE
  8
_0-0_LAYER001
  6
CONTINUOUS
 62
   18
 10
1311.9353139999998
 20
896.25973199999999
 11
1339.5057780000002
 21
908.08637700000008
  0
LINE
  8
_0-0_LAYER001
  6
CONTINUOUS
 62
   18
 10
1339.5057780000002
 20
908.08637700000008
 11
1333.5924559999999
 21
921.87160900000026
  0
LINE
  8
_0-0_LAYER001
  6
CONTINUOUS
 62
   18
 10
1333.5924559999999
 20
921.87160900000026
 11
1306.021992
 21
910.04496400000016
  0
LINE
  8
_0-0_LAYER001
  6
CONTINUOUS
 62
   18
 10
1306.021992
 20
910.04496400000016
 11
1311.9353139999998
 21
896.25973199999999
  0
LINE
  8
_0-0_LAYER001
  6
CONTINUOUS
 62
   18
 10
1333.5924559999999
 20
921.87160900000026
 11
1311.9353139999998
 21
896.25973199999999
  0
LINE
  8
_0-0_LAYER001
  6
CONTINUOUS
 62
   18
 10
1098.6884030000001
 20
799.60388600000033
 11
1082.2737999999999
 21
836.08073899999999
  0
LINE
  8
_0-0_LAYER001
  6
CONTINUOUS
 62
   18
 10
1127.8698709999999
 20
856.59898000000021
 11
1082.2737999999999
 21
836.08073899999999
  0
LINE
  8
_0-0_LAYER001
  6
CONTINUOUS
 62
   18
 10
1127.8698709999999
 20
856.59898000000021
 11
1144.284474
 21
820.12212700000009
  0
LINE
  8
_0-0_LAYER001
  6
CONTINUOUS
 62
   18
 10
1127.8698709999999
 20
856.59898000000021
 11
1098.6884030000001
 21
799.60388600000033
  0
LINE
  8
_0-0_LAYER001
  6
CONTINUOUS
 62
   18
 10
1082.2737999999999
 20
836.08073899999999
 11
1144.284474
 21
820.12212700000009
  0
LINE
  8
_0-0_LAYER001
  6
CONTINUOUS
 62
   18
 10
1107.2065050000001
 20
814.5819290000004
 11
1110.9565050000001
 21
821.07712000000038
  0
LINE
  8
_0-0_LAYER001
  6
CONTINUOUS
 62
   18
 10
1110.9565050000001
 20
821.07712000000038
 11
1110.9565050000001
 21
813.57712000000038
  0
LINE
  8
_0-0_LAYER001
  6
CONTINUOUS
 62
   18
 10
1110.9565050000001
 20
821.07712000000038
 11
1059.4101059999998
 21
628.70334100000036
  0
LINE
  8
_0-0_LAYER001
  6
CONTINUOUS
 62
   18
 10
1059.4101059999998
 20
628.70334100000036
 11
919.91010599999981
 21
628.70334100000036
  0
LINE
  8
_0-0_LAYER001
  6
CONTINUOUS
 62
   18
 10
1165.7373699999998
 20
748.08030099999996
 11
1802.5900019999999
 21
1034.664115
  0
LINE
  8
_0-0_LAYER001
  6
CONTINUOUS
 62
   18
 10
1173.1239190000001
 20
731.66570700000011
 11
1802.9911920000004
 21
1015.1061080000004
  0
LINE
  8
_0-0_LAYER001
  6
CONTINUOUS
 62
   18
 10
1175.5861019999998
 20
726.19417499999997
 11
1803.124922
 21
1008.5867720000001
  0
LINE
  8
_0-0_LAYER001
  6
CONTINUOUS
 62
   18
 10
1699.2696610000003
 20
1120.0470910000004
 11
1701.2108040000003
 21
1112.802647
  0
LINE
  8
_0-0_LAYER001
  6
CONTINUOUS
 62
   18
 10
1701.2108040000003
 20
1112.802647
 11
1695.9075030000004
 21
1118.1059480000004
  0
LINE
  8
_0-0_LAYER001
  6
CONTINUOUS
 62
   18
 10
1701.2108040000003
 20
1112.802647
 11
1642.7325940000001
 21
1214.0898780000002
  0
LINE
  8
_0-0_LAYER001
  6
CONTINUOUS
 62
   18
 10
1642.7325940000001
 20
1214.0898780000002
 11
1602.2325940000001
 21
1214.0898780000002
  0
LINE
  8
_0-0_LAYER001
  6
CONTINUOUS
 62
   18
 10
1655.347229
 20
734.71516500000007
 11
1721.0854929999996
 21
734.71516500000007
  0
LINE
  8
_0-0_LAYER001
  6
CONTINUOUS
 62
   18
 10
1648.174047
 20
764.5817390000002
 11
1869.1146760000001
 21
764.5817390000002
  0
LINE
  8
_0-0_LAYER001
  6
CONTINUOUS
 62
   18
 10
1638.6309550000001
 20
794.67706100000032
 11
1882.4480940000003
 21
794.67706100000032
  0
LINE
  8
_0-0_LAYER001
  6
CONTINUOUS
 62
   18
 10
1577.7393889999998
 20
1016.851568
 11
1577.7393889999998
 21
1024.351568
  0
LINE
  8
_0-0_LAYER001
  6
CONTINUOUS
 62
   18
 10
1577.7393889999998
 20
1024.351568
 11
1581.4893889999998
 21
1017.8563779999999
  0
LINE
  8
_0-0_LAYER001
  6
CONTINUOUS
 62
   18
 10
1577.7393889999998
 20
1024.351568
 11
1655.347229
 21
734.71516500000007
  0
LINE
  8
_0-0_LAYER001
  6
CONTINUOUS
 62
   18
 10
1631.2471169999999
 20
824.65800900000022
 11
1836.0698300000004
 21
824.65800900000022
  0
TEXT
  8
_0-0_LAYER001
 62
    7
 10
1655.347229
 20
737.21516499999962
 40
20
 41
1
 50
0
  1
　垂木
  0
TEXT
  8
_0-0_LAYER001
 62
    7
 10
1648.174047
 20
767.08173900000077
 40
20
 41
1
 50
0
  1
　野地板：耐水合板ｔ＝１２
  0
TEXT
  8
_0-0_LAYER001
 62
    7
 10
1601.354381920627
 20
1215.7757349162966
 40
20
 41
1
 50
0
  1
桟　瓦
  0
TEXT
  8
_0-0_LAYER001
 62
    7
 10
1630.119642694754
 20
828.02001968106561
 40
20
 41
1
 50
0
  1
　瓦桟：１５ｘ３０以上
  0
TEXT
  8
_0-0_LAYER001
 62
    7
 10
1065.8969728245879
 20
1009.8805100049641
 40
20
 41
1
 50
24.227692999999988
  1
280
  0
TEXT
  8
_0-0_LAYER001
 62
    7
 10
1317.4585836680274
 20
1140.3198637756368
 40
20
 41
1
 50
24.227692999999988
  1
280
  0
TEXT
  8
_0-0_LAYER001
 62
    7
 10
1555.9762591343999
 20
1270.7592175463087
 40
20
 41
1
 50
24.227693000000016
  1
280
  0
TEXT
  8
_0-0_LAYER001
 62
    7
 10
1800.0841926195151
 20
1408.6522486753056
 40
20
 41
1
 50
24.227692999999942
  1
280
  0
TEXT
  8
_0-0_LAYER001
 62
    7
 10
1250.3754874431099
 20
1030.3781227403556
 40
20
 41
1
 50
24.227693000000013
  1
60
  0
TEXT
  8
_0-0_LAYER001
 62
    7
 10
1121.7995530120188
 20
970.74870387376245
 40
20
 41
1
 50
24.227692999999988
  1
205
  0
TEXT
  8
_0-0_LAYER001
 62
    7
 10
1000.6772959392509
 20
916.70954302591235
 40
20
 41
1
 50
24.227693000000034
  1
75
  0
TEXT
  8
_0-0_LAYER001
 62
    7
 10
757.95693602322694
 20
679.59127408657173
 40
20
 41
1
 50
0
  1
水切カラー鋼板0.35ｍｍ以上
  0
TEXT
  8
_0-0_LAYER001
 62
    7
 10
902.93385032482593
 20
634.71746727893355
 40
20
 41
1
 50
0
  1
瓦座：40x50
  0
TEXT
  8
_0-0_LAYER001
 62
    7
 10
1053.1455743687852
 20
588.11504930412912
 40
20
 41
1
 50
0
  1
鼻隠し
  0
TEXT
  8
_0-0_LAYER001
 62
    7
 10
1638.1739157115089
 20
798.10414847597474
 40
20
 41
1
 50
0
  1
　下葺材：ルーフィング
  0
ENDSEC
  0
EOF
