  0
SECTION
  2
HEADER
  9
$ACADVER
  1
AC1009
  9
$INSBASE
 10
0
 20
0
 30
0
  9
$EXTMIN
 10
0
 20
0
  9
$EXTMAX
 10
2970
 20
2100
  9
$LIMMIN
 10
0
 20
0
  9
$LIMMAX
 10
2970
 20
2100
  9
$LTSCALE
 40
10
  0
ENDSEC
  0
SECTION
  2
TABLES
  0
TABLE
  2
LTYPE
 70
     9
  0
LTYPE
  2
CONTINUOUS
 70
    64
  3
実線
 72
    65
 73
     0
 40
0.0
  0
LTYPE
  2
DASHED1
 70
    64
  3
--  --  --  --  --  --  --  --  
 72
    65
 73
     2
 40
2.5
 49
1.25
 49
-1.25
  0
LTYPE
  2
DASHED2
 70
    64
  3
----    ----    ----    ----    
 72
    65
 73
     2
 40
5.0
 49
2.5
 49
-2.5
  0
LTYPE
  2
DASHED3
 70
    64
  3
------  ------  ------  ------  
 72
    65
 73
     2
 40
5.0
 49
3.75
 49
-1.25
  0
LTYPE
  2
CENTER1
 70
    64
  3
----- - ----- - ----- - ----- - 
 72
    65
 73
     4
 40
10.0
 49
6.25
 49
-1.25
 49
1.25
 49
-1.25
  0
LTYPE
  2
CENTER2
 70
    64
  3
----------  --  ----------  --  
 72
    65
 73
     4
 40
20.0
 49
12.5
 49
-2.5
 49
2.5
 49
-2.5
  0
LTYPE
  2
PHANTOM1
 70
    64
  3
--- - - --- - - --- - - --- - - 
 72
    65
 73
     6
 40
10.0
 49
3.25
 49
-1.25
 49
1.25
 49
-1.25
 49
1.25
 49
-1.25
  0
LTYPE
  2
PHANTOM2
 70
    64
  3
--------  -  -  --------  -  -  
 72
    65
 73
     6
 40
20.0
 49
10.0
 49
-2.5
 49
1.25
 49
-2.5
 49
1.25
 49
-2.5
  0
LTYPE
  2
DOT
 70
    64
  3
-   -   -   -   -   -   -   -   
 72
    65
 73
     2
 40
2.5
 49
0.625
 49
-1.875
  0
LTYPE
  2
DUMMY
 70
    64
  3
ダミー
 72
    65
 73
     0
 40
0.0
  0
LTYPE
  2
RAND1
 70
    64
  3
ランダム線1
 72
    65
 73
     4
 40
10.0
 49
1.0
 49
-2.0
 49
3.0
 49
-4.0
  0
LTYPE
  2
RAND2
 70
    64
  3
ランダム線2
 72
    65
 73
     4
 40
14.0
 49
2.0
 49
-3.0
 49
4.0
 49
-5.0
  0
LTYPE
  2
RAND3
 70
    64
  3
ランダム線3
 72
    65
 73
     4
 40
18.0
 49
3.0
 49
-4.0
 49
5.0
 49
-6.0
  0
LTYPE
  2
RAND4
 70
    64
  3
ランダム線4
 72
    65
 73
     4
 40
22.0
 49
4.0
 49
-5.0
 49
6.0
 49
-7.0
  0
LTYPE
  2
RAND5
 70
    64
  3
ランダム線5
 72
    65
 73
     4
 40
26.0
 49
5.0
 49
-6.0
 49
7.0
 49
-8.0
  0
LTYPE
  2
LONG1
 70
    64
  3
----------  --  ----------  --  
 72
    65
 73
     4
 40
40.0
 49
32.5
 49
-2.5
 49
2.5
 49
-2.5
  0
LTYPE
  2
LONG2
 70
    64
  3
--------  -  -  --------  -  -  
 72
    65
 73
     6
 40
40.0
 49
30.0
 49
-2.5
 49
1.25
 49
-2.5
 49
1.25
 49
-2.5
  0
LTYPE
  2
LONG3
 70
    64
  3
+++++++++++++++..+++++++++++++++
 72
    65
 73
     2
 40
40.0
 49
37.5
 49
-2.5
  0
LTYPE
  2
LONG4
 70
    64
  3
+++++++++++++++..+++++++++++++++
 72
    65
 73
     2
 40
80.0
 49
75.0
 49
-5.0
  0
LTYPE
  2
LONG5
 70
    64
  3
----------  --  ----------  --  
 72
    65
 73
     4
 40
60.0
 49
37.5
 49
-7.5
 49
7.5
 49
-7.5
  0
LTYPE
  2
dashed
 70
   64
  3
-------   -------------   ------
 72
   65
 73
    2
 40
7.5
 49
6
 49
-1.5
  0
LTYPE
  2
dashed_spaced
 70
   64
  3
----        --------        ----
 72
   65
 73
    2
 40
12
 49
6
 49
-6
  0
LTYPE
  2
long_dashed_dotted
 70
   64
  3
------------- --- --------------
 72
   65
 73
    4
 40
15.25
 49
12
 49
-1.5
 49
0.25
 49
-1.5
  0
LTYPE
  2
long_dashed_double-dotted
 70
   64
  3
----------- --- --- ------------
 72
   65
 73
    6
 40
17
 49
12
 49
-1.5
 49
0.25
 49
-1.5
 49
0.25
 49
-1.5
  0
LTYPE
  2
long_dashed_triplicate-dotted
 70
   64
  3
--------- --- --- --- ----------
 72
   65
 73
    8
 40
18.75
 49
12
 49
-1.5
 49
0.25
 49
-1.5
 49
0.25
 49
-1.5
 49
0.25
 49
-1.5
  0
LTYPE
  2
dotted
 70
   64
  3
   -       -       -       -    
 72
   65
 73
    2
 40
1.75
 49
0.25
 49
-1.5
  0
LTYPE
  2
chain
 70
   64
  3
-------------- -- --------------
 72
   65
 73
    4
 40
18.5
 49
12
 49
-1.5
 49
3.5
 49
-1.5
  0
LTYPE
  2
chain_double_dash
 70
   64
  3
------------ -- -- -------------
 72
   65
 73
    6
 40
23.5
 49
12
 49
-1.5
 49
3.5
 49
-1.5
 49
3.5
 49
-1.5
  0
LTYPE
  2
dashed_dotted
 70
   64
  3
-----------     -     ----------
 72
   65
 73
    4
 40
9.25
 49
6
 49
-1.5
 49
0.25
 49
-1.5
  0
LTYPE
  2
double-dashed_dotted
 70
   64
  3
------   -----------   -   -----
 72
   65
 73
    6
 40
16.75
 49
6
 49
-1.5
 49
6
 49
-1.5
 49
0.25
 49
-1.5
  0
LTYPE
  2
dashed_double-dotted
 70
   64
  3
---------    -    -    ---------
 72
   65
 73
    6
 40
11
 49
6
 49
-1.5
 49
0.25
 49
-1.5
 49
0.25
 49
-1.5
  0
LTYPE
  2
double-dashed_double-dotted
 70
   64
  3
-----   ---------   -   -   ----
 72
   65
 73
    8
 40
18.5
 49
6
 49
-1.5
 49
6
 49
-1.5
 49
0.25
 49
-1.5
 49
0.25
 49
-1.5
  0
LTYPE
  2
dashed_triplicate-dotted
 70
   64
  3
-------    -    -    -    ------
 72
   65
 73
    8
 40
12.75
 49
6
 49
-1.5
 49
0.25
 49
-1.5
 49
0.25
 49
-1.5
 49
0.25
 49
-1.5
  0
LTYPE
  2
double-dashed_triplicate-dotted
 70
   64
  3
-----  ---------  -  -  -  -----
 72
   65
 73
   10
 40
20.25
 49
6
 49
-1.5
 49
6
 49
-1.5
 49
0.25
 49
-1.5
 49
0.25
 49
-1.5
 49
0.25
 49
-1.5
  0
LTYPE
  2
undefined
 70
   64
  3
--------------------------------
 72
   65
 73
    0
 40
0
  0
LTYPE
  2
HIDDEN
 70
   64
  3
----        --------        ----
 72
   65
 73
    2
 40
2
 49
1
 49
-1
  0
LTYPE
  2
DASHED
 70
   64
  3
-------   -------------   ------
 72
   65
 73
    2
 40
10
 49
8
 49
-2
  0
LTYPE
  2
CENTER
 70
   64
  3
------------   ---   -----------
 72
   65
 73
    4
 40
20
 49
14
 49
-2
 49
2
 49
-2
  0
LTYPE
  2
PHANTOM
 70
   64
  3
---------   ---   ---   --------
 72
   65
 73
    6
 40
20
 49
10
 49
-2
 49
2
 49
-2
 49
2
 49
-2
  0
ENDTAB
  0
TABLE
  2
STYLE
  5
3
100
AcDbSymbolTable
 70
     1
  0
STYLE
  5
10
100
AcDbSymbolTableRecord
100
AcDbTextStyleTableRecord
  2
STANDARD
 70
     0
 40
0.0
 41
1.0
 50
0.0
 71
     0
 42
0.2
  3
txt
  4
bigfont.shx
  0
STYLE
  5
26
100
AcDbSymbolTableRecord
100
AcDbTextStyleTableRecord
  2
TATEGAKI
 70
    68
 40
0.0
 41
1.0
 50
0.0
 71
     0
 42
1.0
  3
txt
  4
bigfont.shx
  0
ENDTAB
  0
TABLE
  2
LAYER
 70
    2
  0
LAYER
  2
_0-0_1
 70
   64
 62
    7
  6
CONTINUOUS
  0
LAYER
  2
ADD_LINE
 70
   64
 62
    7
  6
CONTINUOUS
  0
ENDTAB
  0
ENDSEC
  0
SECTION
  2
BLOCKS
  0
ENDSEC
  0
SECTION
  2
ENTITIES
  0
LINE
  8
_0-0_1
  6
CONTINUOUS
 62
    3
 10
1092.465700499999
 20
802.79534299999796
 11
1135.1434195000002
 21
707.95573799999693
  0
LINE
  8
_0-0_1
  6
CONTINUOUS
 62
    3
 10
1069.6676544999991
 20
792.53624699999637
 11
1112.3453835
 21
697.69661699999779
  0
LINE
  8
_0-0_1
  6
CONTINUOUS
 62
    3
 10
1135.1434195000002
 20
707.95573799999693
 11
1112.3453835
 21
697.69661699999779
  0
LINE
  8
_0-0_1
  6
CONTINUOUS
 62
    4
 10
1209.5207515000002
 20
950.78628599999865
 11
1215.1247124999991
 21
952.55655499999921
  0
ARC
  8
_0-0_1
  6
CONTINUOUS
 62
    4
 10
1231.9094905000002
 20
954.27008499999647
 40
16.872017
 50
103.35714900000002
 51
185.82903500000003
  0
LINE
  8
_0-0_1
  6
CONTINUOUS
 62
    4
 10
1233.5556495000001
 20
954.08459799999764
 11
1539.730143499999
 21
1050.803904999997
  0
LINE
  8
_0-0_1
  6
CONTINUOUS
 62
    4
 10
1533.6511675000002
 20
1070.0475019999976
 11
1510.2661834999999
 21
1062.6602779999957
  0
LINE
  8
_0-0_1
  6
CONTINUOUS
 62
    4
 10
1228.0117114999994
 20
970.68569599999682
 11
1507.8568665000003
 21
1059.0876689999968
  0
ARC
  8
_0-0_1
  6
CONTINUOUS
 62
    4
 10
1513.487633499999
 20
1057.6076999999968
 40
5.8220140000000011
 50
113.701938
 51
165.27368200000001
  0
LINE
  8
_0-0_1
  6
CONTINUOUS
 62
    4
 10
1209.5113574999996
 20
950.8160239999961
 11
1215.3944594999994
 21
932.19248099999822
  0
ARC
  8
_0-0_1
  6
CONTINUOUS
 62
    4
 10
1237.4534284999991
 20
937.66898799999763
 40
16.872017
 50
103.35714900000002
 51
192.69455200000002
  0
LINE
  8
_0-0_1
  6
CONTINUOUS
 62
    4
 10
1540.8860984999992
 20
1031.6928419999967
 11
1539.1245935000006
 21
1037.2690609999991
  0
LINE
  8
_0-0_1
  6
CONTINUOUS
 62
    4
 10
1533.6511675000002
 20
1070.0475019999976
 11
1545.3243564999993
 21
1033.0948699999972
  0
LINE
  8
_0-0_1
  6
CONTINUOUS
 62
    4
 10
1540.8860984999992
 20
1031.6928419999967
 11
1545.3243564999993
 21
1033.0948699999972
  0
LINE
  8
_0-0_1
  6
CONTINUOUS
 62
    4
 10
1220.993839499999
 20
933.96130299999641
 11
1215.3944594999994
 21
932.19248099999822
  0
LINE
  8
_0-0_1
  6
CONTINUOUS
 62
    4
 10
1220.6233505
 20
936.65578299999834
 11
1539.1245935000006
 21
1037.2690609999991
  0
LINE
  8
_0-0_1
  6
CONTINUOUS
 62
    4
 10
1464.0414815000004
 20
1067.8954099999974
 11
1469.6599164999989
 21
1069.6191889999973
  0
ARC
  8
_0-0_1
  6
CONTINUOUS
 62
    4
 10
1486.4583155
 20
1071.193597999998
 40
16.872017
 50
102.88244700000001
 51
185.354333
  0
LINE
  8
_0-0_1
  6
CONTINUOUS
 62
    4
 10
1488.1028814999991
 20
1070.9944799999976
 11
1795.0681894999998
 21
1165.1738039999982
  0
LINE
  8
_0-0_1
  6
CONTINUOUS
 62
    4
 10
1789.1488554999996
 20
1184.4671049999961
 11
1765.7034705000005
 21
1177.273879999997
  0
LINE
  8
_0-0_1
  6
CONTINUOUS
 62
    4
 10
1482.6966744999991
 20
1087.6409389999972
 11
1763.2646365000001
 21
1173.7213549999979
  0
ARC
  8
_0-0_1
  6
CONTINUOUS
 62
    4
 10
1768.8829494999991
 20
1172.1947859999964
 40
5.8220140000000011
 50
113.22723600000002
 51
164.79898000000003
  0
LINE
  8
_0-0_1
  6
CONTINUOUS
 62
    4
 10
1464.0323344999997
 20
1067.925224999999
 11
1469.7609384999996
 21
1049.2535799999969
  0
ARC
  8
_0-0_1
  6
CONTINUOUS
 62
    4
 10
1491.8645225
 20
1054.5471389999984
 40
16.872017
 50
102.88244700000001
 51
192.21985000000001
  0
LINE
  8
_0-0_1
  6
CONTINUOUS
 62
    4
 10
1796.0657694999991
 20
1146.0538199999974
 11
1794.3505234999993
 21
1151.6444409999967
  0
LINE
  8
_0-0_1
  6
CONTINUOUS
 62
    4
 10
1789.1488554999996
 20
1184.4671049999961
 11
1800.5154904999999
 21
1147.419028999997
  0
LINE
  8
_0-0_1
  6
CONTINUOUS
 62
    4
 10
1796.0657694999991
 20
1146.0538199999974
 11
1800.5154904999999
 21
1147.419028999997
  0
LINE
  8
_0-0_1
  6
CONTINUOUS
 62
    4
 10
1475.3747815000006
 20
1050.9759499999964
 11
1469.7609384999996
 21
1049.2535799999969
  0
LINE
  8
_0-0_1
  6
CONTINUOUS
 62
    4
 10
1475.0266284999998
 20
1053.6734069999984
 11
1794.3505234999993
 21
1151.6444409999967
  0
LINE
  8
_0-0_1
  6
CONTINUOUS
 62
    4
 10
1719.3603155000001
 20
1182.8401579999991
 11
1724.9787514999989
 21
1184.5639379999957
  0
ARC
  8
_0-0_1
  6
CONTINUOUS
 62
    4
 10
1741.7771494999997
 20
1186.1383459999961
 40
16.872017
 50
102.88244700000001
 51
185.354333
  0
LINE
  8
_0-0_1
  6
CONTINUOUS
 62
    4
 10
1743.4217164999991
 20
1185.9392279999993
 11
2050.3870234999995
 21
1280.1185519999963
  0
LINE
  8
_0-0_1
  6
CONTINUOUS
 62
    4
 10
2044.4676894999993
 20
1299.4118529999978
 11
2021.0223045000002
 21
1292.2186279999987
  0
LINE
  8
_0-0_1
  6
CONTINUOUS
 62
    4
 10
1738.0155085000006
 20
1202.5856869999989
 11
2018.5834704999997
 21
1288.6661029999959
  0
ARC
  8
_0-0_1
  6
CONTINUOUS
 62
    4
 10
2024.2017835000006
 20
1287.1395339999981
 40
5.8220140000000011
 50
113.22723600000002
 51
164.79898000000003
  0
LINE
  8
_0-0_1
  6
CONTINUOUS
 62
    4
 10
1719.3511684999994
 20
1182.8699729999971
 11
1725.0797724999993
 21
1164.1983279999986
  0
ARC
  8
_0-0_1
  6
CONTINUOUS
 62
    4
 10
1747.1833564999997
 20
1169.4918869999965
 40
16.872017
 50
102.88244700000001
 51
192.21985000000001
  0
LINE
  8
_0-0_1
  6
CONTINUOUS
 62
    4
 10
2051.3846035000006
 20
1260.9985679999991
 11
2049.669357499999
 21
1266.5891899999988
  0
LINE
  8
_0-0_1
  6
CONTINUOUS
 62
    4
 10
2044.4676894999993
 20
1299.4118529999978
 11
2055.8343244999996
 21
1262.3637769999987
  0
LINE
  8
_0-0_1
  6
CONTINUOUS
 62
    4
 10
2051.3846035000006
 20
1260.9985679999991
 11
2055.8343244999996
 21
1262.3637769999987
  0
LINE
  8
_0-0_1
  6
CONTINUOUS
 62
    4
 10
1730.6936155000003
 20
1165.9206989999984
 11
1725.0797724999993
 21
1164.1983279999986
  0
LINE
  8
_0-0_1
  6
CONTINUOUS
 62
    4
 10
1730.3454624999995
 20
1168.6181549999965
 11
2049.669357499999
 21
1266.5891899999988
  0
LINE
  8
_0-0_1
  6
CONTINUOUS
 62
    4
 10
1974.6791494999998
 20
1297.7849069999975
 11
1980.2975855000004
 21
1299.5086859999974
  0
ARC
  8
_0-0_1
  6
CONTINUOUS
 62
    4
 10
1997.0959834999994
 20
1301.0830949999981
 40
16.872017
 50
102.88244700000001
 51
185.354333
  0
LINE
  8
_0-0_1
  6
CONTINUOUS
 62
    4
 10
1998.7405505000006
 20
1300.8839769999977
 11
2078.3102325
 21
1325.2965689999983
  0
LINE
  8
_0-0_1
  6
CONTINUOUS
 62
    4
 10
1993.3343425000003
 20
1317.5304349999969
 11
2070.6325674999989
 21
1341.2461269999985
  0
LINE
  8
_0-0_1
  6
CONTINUOUS
 62
    4
 10
1974.6700024999991
 20
1297.8147209999988
 11
1980.398606499999
 21
1279.143076999997
  0
ARC
  8
_0-0_1
  6
CONTINUOUS
 62
    4
 10
2002.5021904999994
 20
1284.4366359999985
 40
16.872017
 50
102.88244700000001
 51
192.21985000000001
  0
LINE
  8
_0-0_1
  6
CONTINUOUS
 62
    4
 10
1986.0124495
 20
1280.8654469999965
 11
1980.398606499999
 21
1279.143076999997
  0
LINE
  8
_0-0_1
  6
CONTINUOUS
 62
    4
 10
1985.6642964999992
 20
1283.5629029999982
 11
2083.8924614999996
 21
1313.7000619999963
  0
LINE
  8
_0-0_1
  6
CONTINUOUS
 62
    4
 10
956.27955850000035
 20
836.21519599999738
 11
961.88351949999912
 21
837.98546499999793
  0
ARC
  8
_0-0_1
  6
CONTINUOUS
 62
    4
 10
978.66829750000022
 20
839.69899499999883
 40
16.872017
 50
103.35714900000002
 51
185.82903500000003
  0
LINE
  8
_0-0_1
  6
CONTINUOUS
 62
    4
 10
980.31445650000023
 20
839.5135089999967
 11
1286.4889504999992
 21
936.23281599999609
  0
LINE
  8
_0-0_1
  6
CONTINUOUS
 62
    4
 10
1280.4099745000003
 20
955.47641199999634
 11
1257.0249905000001
 21
948.08918899999844
  0
LINE
  8
_0-0_1
  6
CONTINUOUS
 62
    4
 10
974.77051849999953
 20
856.11460599999918
 11
1254.6156725000001
 21
944.51657999999588
  0
ARC
  8
_0-0_1
  6
CONTINUOUS
 62
    4
 10
1260.2464404999992
 20
943.0366109999959
 40
5.8220140000000011
 50
113.701938
 51
165.27368200000001
  0
LINE
  8
_0-0_1
  6
CONTINUOUS
 62
    4
 10
956.27016449999974
 20
836.24493399999847
 11
962.15326649999952
 21
817.62139199999729
  0
ARC
  8
_0-0_1
  6
CONTINUOUS
 62
    4
 10
984.21223449999889
 20
823.09789799999635
 40
16.872017
 50
103.35714900000002
 51
192.69455200000002
  0
LINE
  8
_0-0_1
  6
CONTINUOUS
 62
    4
 10
1287.6449054999994
 20
917.12175299999581
 11
1285.883400499999
 21
922.69797199999812
  0
LINE
  8
_0-0_1
  6
CONTINUOUS
 62
    4
 10
1280.4099745000003
 20
955.47641199999634
 11
1292.0831634999995
 21
918.52378099999623
  0
LINE
  8
_0-0_1
  6
CONTINUOUS
 62
    4
 10
1287.6449054999994
 20
917.12175299999581
 11
1292.0831634999995
 21
918.52378099999623
  0
LINE
  8
_0-0_1
  6
CONTINUOUS
 62
    4
 10
967.75264649999917
 20
819.3902139999991
 11
962.15326649999952
 21
817.62139199999729
  0
LINE
  8
_0-0_1
  6
CONTINUOUS
 62
    4
 10
967.38215750000018
 20
822.08469299999706
 11
1285.883400499999
 21
922.69797199999812
  0
LINE
  8
_0-0_1
  6
DASHED
 62
   18
 10
2092.7895774999997
 20
1268.8421089999974
 11
1036.3586945000006
 21
793.44799599999897
  0
LINE
  8
_0-0_1
  6
CONTINUOUS
 62
   18
 10
1149.9168835
 20
762.85276399999566
 11
1157.3031474999989
 21
746.43880499999796
  0
LINE
  8
_0-0_1
  6
CONTINUOUS
 62
   18
 10
1422.580878499999
 20
885.55066399999851
 11
1429.9667454999999
 21
869.13652599999841
  0
LINE
  8
_0-0_1
  6
CONTINUOUS
 62
   18
 10
1696.1572974999999
 20
1008.6609559999961
 11
1703.5435154999996
 21
992.24693799999659
  0
LINE
  8
_0-0_1
  6
CONTINUOUS
 62
   18
 10
1663.3280555000001
 20
993.8879769999985
 11
1670.7142734999998
 21
977.47395899999901
  0
LINE
  8
_0-0_1
  6
CONTINUOUS
 62
   18
 10
1389.7513344999988
 20
870.77835799999593
 11
1397.1372014999997
 21
854.36422099999618
  0
LINE
  8
_0-0_1
  6
CONTINUOUS
 62
   18
 10
2093.8154875
 20
1266.5623039999991
 11
1041.9451415000003
 21
793.22043399999893
  0
LINE
  8
_0-0_1
  6
CONTINUOUS
 62
   18
 10
2098.7398534999993
 20
1255.6192409999967
 11
1046.8695074999996
 21
782.27737199999683
  0
LINE
  8
_0-0_1
  6
CONTINUOUS
 62
   18
 10
1041.9451415000003
 20
793.22043399999893
 11
1046.8695074999996
 21
782.27737199999683
  0
LINE
  8
_0-0_1
  6
CONTINUOUS
 62
   18
 10
1149.9168835
 20
762.85276399999566
 11
1124.4739594999992
 21
731.66570699999647
  0
LINE
  8
_0-0_1
  6
CONTINUOUS
 62
   18
 10
1422.580878499999
 20
885.55066399999851
 11
1397.1372014999997
 21
854.36422099999618
  0
LINE
  8
_0-0_1
  6
CONTINUOUS
 62
   18
 10
1696.1572974999999
 20
1008.6609559999961
 11
1670.7142734999998
 21
977.47395899999901
  0
LINE
  8
_0-0_1
  6
CONTINUOUS
 62
   18
 10
1106.4873714999994
 20
710.71445499999754
 11
1117.2831934999995
 21
699.91863199999716
  0
LINE
  8
_0-0_1
  6
CONTINUOUS
 62
   18
 10
1097.8092804999997
 20
729.99914699999863
 11
1124.5980904999997
 21
703.2103369999968
  0
LINE
  8
_0-0_1
  6
CONTINUOUS
 62
   18
 10
1089.1311905000002
 20
749.28383899999608
 11
1131.9129864999995
 21
706.50204199999644
  0
LINE
  8
_0-0_1
  6
CONTINUOUS
 62
   18
 10
1080.4530995000005
 20
768.56853099999717
 11
1130.2977804999991
 21
718.72384999999838
  0
LINE
  8
_0-0_1
  6
CONTINUOUS
 62
   18
 10
1071.7750094999992
 20
787.85322399999859
 11
1121.6196904999997
 21
738.00854199999594
  0
LINE
  8
_0-0_1
  6
CONTINUOUS
 62
   18
 10
1075.2062334999991
 20
795.02860099999816
 11
1112.9416005000003
 21
757.29323399999703
  0
LINE
  8
_0-0_1
  6
CONTINUOUS
 62
   18
 10
1082.5211364999996
 20
798.32029999999577
 11
1104.2635095000005
 21
776.57792699999845
  0
LINE
  8
_0-0_1
  6
CONTINUOUS
 62
   18
 10
1089.8360395
 20
801.61199799999667
 11
1095.5854194999993
 21
795.8626189999959
  0
LINE
  8
_0-0_1
  6
CONTINUOUS
 62
   18
 10
1102.7779735000004
 20
733.0971389999977
 11
1106.5279735000004
 21
739.59232899999915
  0
LINE
  8
_0-0_1
  6
CONTINUOUS
 62
   18
 10
1106.5279735000004
 20
739.59232899999915
 11
1106.5279735000004
 21
732.09232899999915
  0
LINE
  8
_0-0_1
  6
CONTINUOUS
 62
   18
 10
1106.5279735000004
 20
739.59232899999915
 11
1064.8249644999996
 21
583.95457899999747
  0
LINE
  8
_0-0_1
  6
CONTINUOUS
 62
   18
 10
1064.8249644999996
 20
583.95457899999747
 11
1016.8249644999996
 21
583.95457899999747
  0
LINE
  8
_0-0_1
  6
CONTINUOUS
 62
   18
 10
902.56942349999917
 20
945.0396019999971
 11
924.1135254999989
 21
897.16370399999869
  0
CIRCLE
  8
_0-0_1
  6
CONTINUOUS
 62
   18
 10
903.59533349999936
 20
942.7597969999988
 40
1.7000000000000002
  0
LINE
  8
_0-0_1
  6
CONTINUOUS
 62
   18
 10
903.59533349999936
 20
942.7597969999988
 11
1158.9334595
 21
1057.6616759999961
  0
CIRCLE
  8
_0-0_1
  6
CONTINUOUS
 62
   18
 10
1158.9334595
 20
1057.6616759999961
 40
1.7000000000000002
  0
LINE
  8
_0-0_1
  6
CONTINUOUS
 62
   18
 10
1157.9075494999997
 20
1059.9414799999977
 11
1179.4516514999996
 21
1012.0655819999993
  0
LINE
  8
_0-0_1
  6
CONTINUOUS
 62
   18
 10
1149.7002725000002
 20
1078.179917999998
 11
1171.2443745
 21
1030.3040189999992
  0
CIRCLE
  8
_0-0_1
  6
CONTINUOUS
 62
   18
 10
1150.7261825000005
 20
1075.9001129999961
 40
1.7000000000000002
  0
LINE
  8
_0-0_1
  6
CONTINUOUS
 62
   18
 10
1150.7261825000005
 20
1075.9001129999961
 11
1406.0643074999989
 21
1190.8019909999966
  0
CIRCLE
  8
_0-0_1
  6
CONTINUOUS
 62
   18
 10
1406.0643074999989
 20
1190.8019909999966
 40
1.7000000000000002
  0
LINE
  8
_0-0_1
  6
CONTINUOUS
 62
   18
 10
1405.0383984999989
 20
1193.0817959999986
 11
1426.5825005000006
 21
1145.2058969999962
  0
LINE
  8
_0-0_1
  6
CONTINUOUS
 62
   18
 10
1396.8311214999994
 20
1211.3202329999986
 11
1418.3752234999993
 21
1163.4443349999965
  0
CIRCLE
  8
_0-0_1
  6
CONTINUOUS
 62
   18
 10
1397.8570304999994
 20
1209.0404289999969
 40
1.7000000000000002
  0
LINE
  8
_0-0_1
  6
CONTINUOUS
 62
   18
 10
1397.8570304999994
 20
1209.0404289999969
 11
1653.1951564999999
 21
1323.9423069999975
  0
CIRCLE
  8
_0-0_1
  6
CONTINUOUS
 62
   18
 10
1653.1951564999999
 20
1323.9423069999975
 40
1.7000000000000002
  0
LINE
  8
_0-0_1
  6
CONTINUOUS
 62
   18
 10
1652.1692464999996
 20
1326.2221109999991
 11
1673.7133484999995
 21
1278.3462129999971
  0
LINE
  8
_0-0_1
  6
CONTINUOUS
 62
   18
 10
1643.9619695000001
 20
1344.4605489999958
 11
1665.5060715
 21
1296.5846499999971
  0
CIRCLE
  8
_0-0_1
  6
CONTINUOUS
 62
   18
 10
1644.9878795000004
 20
1342.1807439999975
 40
1.7000000000000002
  0
LINE
  8
_0-0_1
  6
CONTINUOUS
 62
   18
 10
1644.9878795000004
 20
1342.1807439999975
 11
1900.3260054999992
 21
1457.0826219999981
  0
CIRCLE
  8
_0-0_1
  6
CONTINUOUS
 62
   18
 10
1900.3260054999992
 20
1457.0826219999981
 40
1.7000000000000002
  0
LINE
  8
_0-0_1
  6
CONTINUOUS
 62
   18
 10
1899.3000954999989
 20
1459.3624269999964
 11
1920.8441975000005
 21
1411.486528999998
  0
LINE
  8
_0-0_1
  6
CONTINUOUS
 62
   18
 10
1891.0928184999993
 20
1477.6008649999967
 11
1912.6369204999992
 21
1429.7249659999979
  0
CIRCLE
  8
_0-0_1
  6
CONTINUOUS
 62
   18
 10
1892.1187284999996
 20
1475.3210599999984
 40
1.7000000000000002
  0
LINE
  8
_0-0_1
  6
CONTINUOUS
 62
   18
 10
1892.1187284999996
 20
1475.3210599999984
 11
1982.617528499999
 21
1516.0454209999989
  0
LINE
  8
_0-0_1
  6
CONTINUOUS
 62
   18
 10
924.99708149999969
 20
895.20024299999568
 11
936.28208749999976
 21
870.12239099999715
  0
CIRCLE
  8
_0-0_1
  6
CONTINUOUS
 62
   18
 10
926.02299049999965
 20
892.92043799999738
 40
1.7000000000000002
  0
LINE
  8
_0-0_1
  6
CONTINUOUS
 62
   18
 10
926.02299049999965
 20
892.92043799999738
 11
994.41753149999931
 21
923.6979059999976
  0
CIRCLE
  8
_0-0_1
  6
CONTINUOUS
 62
   18
 10
994.41753149999931
 20
923.6979059999976
 40
1.7000000000000002
  0
LINE
  8
_0-0_1
  6
CONTINUOUS
 62
   18
 10
993.39162149999902
 20
925.97771099999591
 11
1004.6766274999991
 21
900.89985899999738
  0
CIRCLE
  8
_0-0_1
  6
CONTINUOUS
 62
   18
 10
994.41753149999931
 20
923.6979059999976
 40
1.7000000000000002
  0
LINE
  8
_0-0_1
  6
CONTINUOUS
 62
   18
 10
994.41753149999931
 20
923.6979059999976
 11
1181.3611165000002
 21
1007.822315999998
  0
CIRCLE
  8
_0-0_1
  6
CONTINUOUS
 62
   18
 10
1181.3611165000002
 20
1007.822315999998
 40
1.7000000000000002
  0
LINE
  8
_0-0_1
  6
CONTINUOUS
 62
   18
 10
1180.3352064999999
 20
1010.1021209999963
 11
1191.6202125
 21
985.02426899999773
  0
CIRCLE
  8
_0-0_1
  6
CONTINUOUS
 62
   18
 10
1181.3611165000002
 20
1007.822315999998
 40
1.7000000000000002
  0
LINE
  8
_0-0_1
  6
CONTINUOUS
 62
   18
 10
1181.3611165000002
 20
1007.822315999998
 11
1236.076429499999
 21
1032.4441469999983
  0
CIRCLE
  8
_0-0_1
  6
CONTINUOUS
 62
   18
 10
1236.076429499999
 20
1032.4441469999983
 40
1.7000000000000002
  0
LINE
  8
_0-0_1
  6
CONTINUOUS
 62
   18
 10
1235.0505195000005
 20
1034.7239519999966
 11
1246.3355255000006
 21
1009.6460999999981
  0
LINE
  8
_0-0_1
  6
CONTINUOUS
 62
   18
 10
1516.5265474999997
 20
1010.8308219999963
 11
1544.0970115
 21
1022.6574659999969
  0
LINE
  8
_0-0_1
  6
CONTINUOUS
 62
   18
 10
1544.0970115
 20
1022.6574659999969
 11
1538.1836894999997
 21
1036.4426979999989
  0
LINE
  8
_0-0_1
  6
CONTINUOUS
 62
   18
 10
1538.1836894999997
 20
1036.4426979999989
 11
1510.6132254999993
 21
1024.6160539999983
  0
LINE
  8
_0-0_1
  6
CONTINUOUS
 62
   18
 10
1510.6132254999993
 20
1024.6160539999983
 11
1516.5265474999997
 21
1010.8308219999963
  0
LINE
  8
_0-0_1
  6
CONTINUOUS
 62
   18
 10
1538.1836894999997
 20
1036.4426979999989
 11
1516.5265474999997
 21
1010.8308219999963
  0
LINE
  8
_0-0_1
  6
CONTINUOUS
 62
   18
 10
1771.5342115000003
 20
1125.3943349999972
 11
1799.2017135000006
 21
1136.9921509999986
  0
LINE
  8
_0-0_1
  6
CONTINUOUS
 62
   18
 10
1799.2017135000006
 20
1136.9921509999986
 11
1793.4028054999999
 21
1150.8259019999969
  0
LINE
  8
_0-0_1
  6
CONTINUOUS
 62
   18
 10
1793.4028054999999
 20
1150.8259019999969
 11
1765.7353034999996
 21
1139.2280859999992
  0
LINE
  8
_0-0_1
  6
CONTINUOUS
 62
   18
 10
1765.7353034999996
 20
1139.2280859999992
 11
1771.5342115000003
 21
1125.3943349999972
  0
LINE
  8
_0-0_1
  6
CONTINUOUS
 62
   18
 10
1793.4028054999999
 20
1150.8259019999969
 11
1771.5342115000003
 21
1125.3943349999972
  0
LINE
  8
_0-0_1
  6
CONTINUOUS
 62
   18
 10
2026.8530455
 20
1240.3390829999989
 11
2054.5205475000002
 21
1251.936899999997
  0
LINE
  8
_0-0_1
  6
CONTINUOUS
 62
   18
 10
2054.5205475000002
 20
1251.936899999997
 11
2048.7216394999996
 21
1265.7706509999989
  0
LINE
  8
_0-0_1
  6
CONTINUOUS
 62
   18
 10
2048.7216394999996
 20
1265.7706509999989
 11
2021.0541374999993
 21
1254.1728339999972
  0
LINE
  8
_0-0_1
  6
CONTINUOUS
 62
   18
 10
2021.0541374999993
 20
1254.1728339999972
 11
2026.8530455
 21
1240.3390829999989
  0
LINE
  8
_0-0_1
  6
CONTINUOUS
 62
   18
 10
2048.7216394999996
 20
1265.7706509999989
 11
2026.8530455
 21
1240.3390829999989
  0
LINE
  8
_0-0_1
  6
CONTINUOUS
 62
   18
 10
1263.2853544999998
 20
896.25973199999862
 11
1290.8558185000002
 21
908.08637699999599
  0
LINE
  8
_0-0_1
  6
CONTINUOUS
 62
   18
 10
1290.8558185000002
 20
908.08637699999599
 11
1284.9424964999998
 21
921.87160899999799
  0
LINE
  8
_0-0_1
  6
CONTINUOUS
 62
   18
 10
1284.9424964999998
 20
921.87160899999799
 11
1257.3720324999995
 21
910.04496399999698
  0
LINE
  8
_0-0_1
  6
CONTINUOUS
 62
   18
 10
1257.3720324999995
 20
910.04496399999698
 11
1263.2853544999998
 21
896.25973199999862
  0
LINE
  8
_0-0_1
  6
CONTINUOUS
 62
   18
 10
1284.9424964999998
 20
921.87160899999799
 11
1263.2853544999998
 21
896.25973199999862
  0
LINE
  8
_0-0_1
  6
CONTINUOUS
 62
   18
 10
1050.0384434999996
 20
799.60388599999715
 11
1033.6238405000004
 21
836.08073899999727
  0
LINE
  8
_0-0_1
  6
CONTINUOUS
 62
   18
 10
1079.2199115000003
 20
856.59897999999885
 11
1033.6238405000004
 21
836.08073899999727
  0
LINE
  8
_0-0_1
  6
CONTINUOUS
 62
   18
 10
1079.2199115000003
 20
856.59897999999885
 11
1095.6345144999996
 21
820.12212699999873
  0
LINE
  8
_0-0_1
  6
CONTINUOUS
 62
   18
 10
1079.2199115000003
 20
856.59897999999885
 11
1050.0384434999996
 21
799.60388599999715
  0
LINE
  8
_0-0_1
  6
CONTINUOUS
 62
   18
 10
1033.6238405000004
 20
836.08073899999727
 11
1095.6345144999996
 21
820.12212699999873
  0
LINE
  8
_0-0_1
  6
CONTINUOUS
 62
   18
 10
1058.5565454999996
 20
814.58192899999631
 11
1062.3065454999996
 21
821.0771199999981
  0
LINE
  8
_0-0_1
  6
CONTINUOUS
 62
   18
 10
1062.3065454999996
 20
821.0771199999981
 11
1062.3065454999996
 21
813.5771199999981
  0
LINE
  8
_0-0_1
  6
CONTINUOUS
 62
   18
 10
1062.3065454999996
 20
821.0771199999981
 11
1010.7601464999988
 21
628.70334099999673
  0
LINE
  8
_0-0_1
  6
CONTINUOUS
 62
   18
 10
1010.7601464999988
 20
628.70334099999673
 11
871.26014649999888
 21
628.70334099999673
  0
LINE
  8
_0-0_1
  6
CONTINUOUS
 62
   18
 10
1117.0874105000003
 20
748.08030099999814
 11
1753.9400425000003
 21
1034.6641149999959
  0
LINE
  8
_0-0_1
  6
CONTINUOUS
 62
   18
 10
1124.4739594999992
 20
731.66570699999647
 11
1754.341232499999
 21
1015.1061079999963
  0
LINE
  8
_0-0_1
  6
CONTINUOUS
 62
   18
 10
1126.9361425000006
 20
726.1941749999969
 11
1754.4749625000004
 21
1008.5867719999987
  0
LINE
  8
_0-0_1
  6
CONTINUOUS
 62
   18
 10
1650.6197014999998
 20
1120.0470909999967
 11
1652.5608444999998
 21
1112.8026469999968
  0
LINE
  8
_0-0_1
  6
CONTINUOUS
 62
   18
 10
1652.5608444999998
 20
1112.8026469999968
 11
1647.2575434999999
 21
1118.1059479999967
  0
LINE
  8
_0-0_1
  6
CONTINUOUS
 62
   18
 10
1652.5608444999998
 20
1112.8026469999968
 11
1594.0826345000005
 21
1214.0898779999989
  0
LINE
  8
_0-0_1
  6
CONTINUOUS
 62
   18
 10
1594.0826345000005
 20
1214.0898779999989
 11
1553.5826345000005
 21
1214.0898779999989
  0
LINE
  8
_0-0_1
  6
CONTINUOUS
 62
   18
 10
1606.6972695000004
 20
734.7151649999978
 11
1672.4355335
 21
734.7151649999978
  0
LINE
  8
_0-0_1
  6
CONTINUOUS
 62
   18
 10
1599.5240875
 20
764.58173899999747
 11
1820.4647165000006
 21
764.58173899999747
  0
LINE
  8
_0-0_1
  6
CONTINUOUS
 62
   18
 10
1589.9809955000001
 20
794.6770609999985
 11
1833.7981344999989
 21
794.6770609999985
  0
LINE
  8
_0-0_1
  6
CONTINUOUS
 62
   18
 10
1529.0894294999998
 20
1016.8515679999982
 11
1529.0894294999998
 21
1024.3515679999982
  0
LINE
  8
_0-0_1
  6
CONTINUOUS
 62
   18
 10
1529.0894294999998
 20
1024.3515679999982
 11
1532.8394294999998
 21
1017.8563779999968
  0
LINE
  8
_0-0_1
  6
CONTINUOUS
 62
   18
 10
1529.0894294999998
 20
1024.3515679999982
 11
1606.6972695000004
 21
734.7151649999978
  0
LINE
  8
_0-0_1
  6
CONTINUOUS
 62
   18
 10
1582.5971575000003
 20
824.65800899999886
 11
1787.4198704999999
 21
824.65800899999886
  0
TEXT
  8
_0-0_1
 62
    7
 10
1606.6972695000009
 20
737.21516499999768
 40
20
 41
1
 50
0
  1
　垂木
  0
TEXT
  8
_0-0_1
 62
    7
 10
1599.5240875
 20
767.0817389999977
 40
20
 41
1
 50
0
  1
　野地板：耐水合板ｔ＝１２
  0
TEXT
  8
_0-0_1
 62
    7
 10
1017.4480699954809
 20
1006.1536713258022
 40
20
 41
1
 50
24.227692999999988
  1
280
  0
TEXT
  8
_0-0_1
 62
    7
 10
1267.1462614993393
 20
1145.9101217943796
 40
20
 41
1
 50
24.227693000000002
  1
280
  0
TEXT
  8
_0-0_1
 62
    7
 10
1514.9810336636167
 20
1270.7592175463087
 40
20
 41
1
 50
24.227693000000016
  1
280
  0
TEXT
  8
_0-0_1
 62
    7
 10
1747.9084511112458
 20
1406.7888293357248
 40
20
 41
1
 50
24.227692999999974
  1
280
  0
TEXT
  8
_0-0_1
 62
    7
 10
950.36497377056276
 20
916.70954302591235
 40
20
 41
1
 50
24.227692999999988
  1
75
  0
TEXT
  8
_0-0_1
 62
    7
 10
1078.9409082016548
 20
972.61212321334358
 40
20
 41
1
 50
24.227692999999988
  1
205
  0
TEXT
  8
_0-0_1
 62
    7
 10
1200.0631652744219
 20
1022.9244453820314
 40
20
 41
1
 50
24.227693000000013
  1
60
  0
TEXT
  8
_0-0_1
 62
    7
 10
845.3594466130038
 20
637.71871544266367
 40
20
 41
1
 50
0
  1
　瓦座：40x50
  0
TEXT
  8
_0-0_1
 62
    7
 10
1001.0545850771568
 20
589.10466519147485
 40
20
 41
1
 50
0
  1
鼻隠し
  0
TEXT
  8
_0-0_1
 62
    7
 10
1589.025898225186
 20
797.97007201902579
 40
20
 41
1
 50
0
  1
　下葺材：ルーフィング
  0
TEXT
  8
_0-0_1
 62
    7
 10
1543.8024446886948
 20
1221.3164577060136
 40
20
 41
1
 50
0
  1
桟　瓦
  0
TEXT
  8
_0-0_1
 62
    7
 10
1579.5880178498951
 20
832.14834957796029
 40
20
 41
1
 50
0
  1
　瓦桟：１５ｘ３０以上
  0
ENDSEC
  0
EOF
