  0
SECTION
  2
HEADER
  9
$ACADVER
  1
AC1009
  9
$INSBASE
 10
0
 20
0
 30
0
  9
$EXTMIN
 10
0
 20
0
  9
$EXTMAX
 10
2970
 20
2100
  9
$LIMMIN
 10
0
 20
0
  9
$LIMMAX
 10
2970
 20
2100
  9
$LTSCALE
 40
10
  0
ENDSEC
  0
SECTION
  2
TABLES
  0
TABLE
  2
LTYPE
 70
     9
  0
LTYPE
  2
CONTINUOUS
 70
    64
  3
実線
 72
    65
 73
     0
 40
0.0
  0
LTYPE
  2
DASHED1
 70
    64
  3
--  --  --  --  --  --  --  --  
 72
    65
 73
     2
 40
2.5
 49
1.25
 49
-1.25
  0
LTYPE
  2
DASHED2
 70
    64
  3
----    ----    ----    ----    
 72
    65
 73
     2
 40
5.0
 49
2.5
 49
-2.5
  0
LTYPE
  2
DASHED3
 70
    64
  3
------  ------  ------  ------  
 72
    65
 73
     2
 40
5.0
 49
3.75
 49
-1.25
  0
LTYPE
  2
CENTER1
 70
    64
  3
----- - ----- - ----- - ----- - 
 72
    65
 73
     4
 40
10.0
 49
6.25
 49
-1.25
 49
1.25
 49
-1.25
  0
LTYPE
  2
CENTER2
 70
    64
  3
----------  --  ----------  --  
 72
    65
 73
     4
 40
20.0
 49
12.5
 49
-2.5
 49
2.5
 49
-2.5
  0
LTYPE
  2
PHANTOM1
 70
    64
  3
--- - - --- - - --- - - --- - - 
 72
    65
 73
     6
 40
10.0
 49
3.25
 49
-1.25
 49
1.25
 49
-1.25
 49
1.25
 49
-1.25
  0
LTYPE
  2
PHANTOM2
 70
    64
  3
--------  -  -  --------  -  -  
 72
    65
 73
     6
 40
20.0
 49
10.0
 49
-2.5
 49
1.25
 49
-2.5
 49
1.25
 49
-2.5
  0
LTYPE
  2
DOT
 70
    64
  3
-   -   -   -   -   -   -   -   
 72
    65
 73
     2
 40
2.5
 49
0.625
 49
-1.875
  0
LTYPE
  2
DUMMY
 70
    64
  3
ダミー
 72
    65
 73
     0
 40
0.0
  0
LTYPE
  2
RAND1
 70
    64
  3
ランダム線1
 72
    65
 73
     4
 40
10.0
 49
1.0
 49
-2.0
 49
3.0
 49
-4.0
  0
LTYPE
  2
RAND2
 70
    64
  3
ランダム線2
 72
    65
 73
     4
 40
14.0
 49
2.0
 49
-3.0
 49
4.0
 49
-5.0
  0
LTYPE
  2
RAND3
 70
    64
  3
ランダム線3
 72
    65
 73
     4
 40
18.0
 49
3.0
 49
-4.0
 49
5.0
 49
-6.0
  0
LTYPE
  2
RAND4
 70
    64
  3
ランダム線4
 72
    65
 73
     4
 40
22.0
 49
4.0
 49
-5.0
 49
6.0
 49
-7.0
  0
LTYPE
  2
RAND5
 70
    64
  3
ランダム線5
 72
    65
 73
     4
 40
26.0
 49
5.0
 49
-6.0
 49
7.0
 49
-8.0
  0
LTYPE
  2
LONG1
 70
    64
  3
----------  --  ----------  --  
 72
    65
 73
     4
 40
40.0
 49
32.5
 49
-2.5
 49
2.5
 49
-2.5
  0
LTYPE
  2
LONG2
 70
    64
  3
--------  -  -  --------  -  -  
 72
    65
 73
     6
 40
40.0
 49
30.0
 49
-2.5
 49
1.25
 49
-2.5
 49
1.25
 49
-2.5
  0
LTYPE
  2
LONG3
 70
    64
  3
+++++++++++++++..+++++++++++++++
 72
    65
 73
     2
 40
40.0
 49
37.5
 49
-2.5
  0
LTYPE
  2
LONG4
 70
    64
  3
+++++++++++++++..+++++++++++++++
 72
    65
 73
     2
 40
80.0
 49
75.0
 49
-5.0
  0
LTYPE
  2
LONG5
 70
    64
  3
----------  --  ----------  --  
 72
    65
 73
     4
 40
60.0
 49
37.5
 49
-7.5
 49
7.5
 49
-7.5
  0
LTYPE
  2
dashed
 70
   64
  3
-------   -------------   ------
 72
   65
 73
    2
 40
7.5
 49
6
 49
-1.5
  0
LTYPE
  2
dashed_spaced
 70
   64
  3
----        --------        ----
 72
   65
 73
    2
 40
12
 49
6
 49
-6
  0
LTYPE
  2
long_dashed_dotted
 70
   64
  3
------------- --- --------------
 72
   65
 73
    4
 40
15.25
 49
12
 49
-1.5
 49
0.25
 49
-1.5
  0
LTYPE
  2
long_dashed_double-dotted
 70
   64
  3
----------- --- --- ------------
 72
   65
 73
    6
 40
17
 49
12
 49
-1.5
 49
0.25
 49
-1.5
 49
0.25
 49
-1.5
  0
LTYPE
  2
long_dashed_triplicate-dotted
 70
   64
  3
--------- --- --- --- ----------
 72
   65
 73
    8
 40
18.75
 49
12
 49
-1.5
 49
0.25
 49
-1.5
 49
0.25
 49
-1.5
 49
0.25
 49
-1.5
  0
LTYPE
  2
dotted
 70
   64
  3
   -       -       -       -    
 72
   65
 73
    2
 40
1.75
 49
0.25
 49
-1.5
  0
LTYPE
  2
chain
 70
   64
  3
-------------- -- --------------
 72
   65
 73
    4
 40
18.5
 49
12
 49
-1.5
 49
3.5
 49
-1.5
  0
LTYPE
  2
chain_double_dash
 70
   64
  3
------------ -- -- -------------
 72
   65
 73
    6
 40
23.5
 49
12
 49
-1.5
 49
3.5
 49
-1.5
 49
3.5
 49
-1.5
  0
LTYPE
  2
dashed_dotted
 70
   64
  3
-----------     -     ----------
 72
   65
 73
    4
 40
9.25
 49
6
 49
-1.5
 49
0.25
 49
-1.5
  0
LTYPE
  2
double-dashed_dotted
 70
   64
  3
------   -----------   -   -----
 72
   65
 73
    6
 40
16.75
 49
6
 49
-1.5
 49
6
 49
-1.5
 49
0.25
 49
-1.5
  0
LTYPE
  2
dashed_double-dotted
 70
   64
  3
---------    -    -    ---------
 72
   65
 73
    6
 40
11
 49
6
 49
-1.5
 49
0.25
 49
-1.5
 49
0.25
 49
-1.5
  0
LTYPE
  2
double-dashed_double-dotted
 70
   64
  3
-----   ---------   -   -   ----
 72
   65
 73
    8
 40
18.5
 49
6
 49
-1.5
 49
6
 49
-1.5
 49
0.25
 49
-1.5
 49
0.25
 49
-1.5
  0
LTYPE
  2
dashed_triplicate-dotted
 70
   64
  3
-------    -    -    -    ------
 72
   65
 73
    8
 40
12.75
 49
6
 49
-1.5
 49
0.25
 49
-1.5
 49
0.25
 49
-1.5
 49
0.25
 49
-1.5
  0
LTYPE
  2
double-dashed_triplicate-dotted
 70
   64
  3
-----  ---------  -  -  -  -----
 72
   65
 73
   10
 40
20.25
 49
6
 49
-1.5
 49
6
 49
-1.5
 49
0.25
 49
-1.5
 49
0.25
 49
-1.5
 49
0.25
 49
-1.5
  0
LTYPE
  2
undefined
 70
   64
  3
--------------------------------
 72
   65
 73
    0
 40
0
  0
LTYPE
  2
HIDDEN
 70
   64
  3
----        --------        ----
 72
   65
 73
    2
 40
2
 49
1
 49
-1
  0
LTYPE
  2
DASHED
 70
   64
  3
-------   -------------   ------
 72
   65
 73
    2
 40
10
 49
8
 49
-2
  0
LTYPE
  2
CENTER
 70
   64
  3
------------   ---   -----------
 72
   65
 73
    4
 40
20
 49
14
 49
-2
 49
2
 49
-2
  0
LTYPE
  2
PHANTOM
 70
   64
  3
---------   ---   ---   --------
 72
   65
 73
    6
 40
20
 49
10
 49
-2
 49
2
 49
-2
 49
2
 49
-2
  0
ENDTAB
  0
TABLE
  2
STYLE
  5
3
100
AcDbSymbolTable
 70
     1
  0
STYLE
  5
10
100
AcDbSymbolTableRecord
100
AcDbTextStyleTableRecord
  2
STANDARD
 70
     0
 40
0.0
 41
1.0
 50
0.0
 71
     0
 42
0.2
  3
txt
  4
bigfont.shx
  0
STYLE
  5
26
100
AcDbSymbolTableRecord
100
AcDbTextStyleTableRecord
  2
TATEGAKI
 70
    68
 40
0.0
 41
1.0
 50
0.0
 71
     0
 42
1.0
  3
txt
  4
bigfont.shx
  0
ENDTAB
  0
TABLE
  2
LAYER
 70
    2
  0
LAYER
  2
_0-0_1
 70
   64
 62
    7
  6
CONTINUOUS
  0
LAYER
  2
ADD_LINE
 70
   64
 62
    7
  6
CONTINUOUS
  0
ENDTAB
  0
ENDSEC
  0
SECTION
  2
BLOCKS
  0
ENDSEC
  0
SECTION
  2
ENTITIES
  0
LINE
  8
_0-0_1
  6
CONTINUOUS
 62
    3
 10
1060.8854650000003
 20
777.66458349999812
 11
1142.9584649999997
 21
814.59758349999902
  0
LINE
  8
_0-0_1
  6
CONTINUOUS
 62
    3
 10
1074.543197
 20
783.81085149999853
 11
1118.473465
 21
686.24458349999986
  0
LINE
  8
_0-0_1
  6
CONTINUOUS
 62
    3
 10
1118.473465
 20
686.24458349999986
 11
1140.3594650000005
 21
696.09358349999809
  0
LINE
  8
_0-0_1
  6
CONTINUOUS
 62
    3
 10
1140.3594650000005
 20
696.09358349999809
 11
1096.4504649999999
 21
793.66958349999913
  0
LINE
  8
_0-0_1
  6
CONTINUOUS
 62
    4
 10
1213.6586809999999
 20
943.75314749999961
 11
1219.2626419999997
 21
945.52341649999653
  0
ARC
  8
_0-0_1
  6
CONTINUOUS
 62
    4
 10
1236.0474199999999
 20
947.23694649999743
 40
16.872017
 50
103.35714900000002
 51
185.82903500000003
  0
LINE
  8
_0-0_1
  6
CONTINUOUS
 62
    4
 10
1237.6935800000001
 20
947.05146049999894
 11
1543.868074
 21
1043.770766499998
  0
LINE
  8
_0-0_1
  6
CONTINUOUS
 62
    4
 10
1537.7890980000002
 20
1063.0143634999986
 11
1514.4041139999999
 21
1055.627140499997
  0
LINE
  8
_0-0_1
  6
CONTINUOUS
 62
    4
 10
1232.149641
 20
963.65255749999778
 11
1511.994796
 21
1052.0545304999978
  0
ARC
  8
_0-0_1
  6
CONTINUOUS
 62
    4
 10
1517.6255639999999
 20
1050.5745624999981
 40
5.8220140000000011
 50
113.701938
 51
165.27368200000001
  0
LINE
  8
_0-0_1
  6
CONTINUOUS
 62
    4
 10
1213.6492870000002
 20
943.78288549999706
 11
1219.5323900000003
 21
925.15934349999952
  0
ARC
  8
_0-0_1
  6
CONTINUOUS
 62
    4
 10
1241.5913579999997
 20
930.63584949999859
 40
16.872017
 50
103.35714900000002
 51
192.69455200000002
  0
LINE
  8
_0-0_1
  6
CONTINUOUS
 62
    4
 10
1545.0240290000002
 20
1024.6597034999977
 11
1543.2625239999998
 21
1030.2359225
  0
LINE
  8
_0-0_1
  6
CONTINUOUS
 62
    4
 10
1537.7890980000002
 20
1063.0143634999986
 11
1549.4622870000003
 21
1026.0617314999981
  0
LINE
  8
_0-0_1
  6
CONTINUOUS
 62
    4
 10
1545.0240290000002
 20
1024.6597034999977
 11
1549.4622870000003
 21
1026.0617314999981
  0
LINE
  8
_0-0_1
  6
CONTINUOUS
 62
    4
 10
1225.13177
 20
926.9281654999977
 11
1219.5323900000003
 21
925.15934349999952
  0
LINE
  8
_0-0_1
  6
CONTINUOUS
 62
    4
 10
1224.7612799999997
 20
929.6226444999993
 11
1543.2625239999998
 21
1030.2359225
  0
LINE
  8
_0-0_1
  6
CONTINUOUS
 62
    4
 10
1468.1794120000004
 20
1060.8622714999983
 11
1473.7978469999998
 21
1062.5860514999986
  0
ARC
  8
_0-0_1
  6
CONTINUOUS
 62
    4
 10
1490.5962460000001
 20
1064.160459499999
 40
16.872017
 50
102.88244700000001
 51
185.354333
  0
LINE
  8
_0-0_1
  6
CONTINUOUS
 62
    4
 10
1492.240812
 20
1063.9613414999985
 11
1799.2061190000004
 21
1158.1406654999992
  0
LINE
  8
_0-0_1
  6
CONTINUOUS
 62
    4
 10
1793.2867859999997
 20
1177.433966499997
 11
1769.8414009999997
 21
1170.240741499998
  0
LINE
  8
_0-0_1
  6
CONTINUOUS
 62
    4
 10
1486.8346039999997
 20
1080.6078004999981
 11
1767.4025670000001
 21
1166.6882164999988
  0
ARC
  8
_0-0_1
  6
CONTINUOUS
 62
    4
 10
1773.0208789999997
 20
1165.1616474999973
 40
5.8220140000000011
 50
113.22723600000002
 51
164.79898000000003
  0
LINE
  8
_0-0_1
  6
CONTINUOUS
 62
    4
 10
1468.1702649999997
 20
1060.8920865
 11
1473.8988680000002
 21
1042.2204414999978
  0
ARC
  8
_0-0_1
  6
CONTINUOUS
 62
    4
 10
1496.0024530000001
 20
1047.5140004999994
 40
16.872017
 50
102.88244700000001
 51
192.21985000000001
  0
LINE
  8
_0-0_1
  6
CONTINUOUS
 62
    4
 10
1800.2036989999997
 20
1139.0206814999983
 11
1798.4884540000003
 21
1144.611303499998
  0
LINE
  8
_0-0_1
  6
CONTINUOUS
 62
    4
 10
1793.2867859999997
 20
1177.433966499997
 11
1804.653421
 21
1140.3858904999979
  0
LINE
  8
_0-0_1
  6
CONTINUOUS
 62
    4
 10
1800.2036989999997
 20
1139.0206814999983
 11
1804.653421
 21
1140.3858904999979
  0
LINE
  8
_0-0_1
  6
CONTINUOUS
 62
    4
 10
1479.5127110000003
 20
1043.9428114999973
 11
1473.8988680000002
 21
1042.2204414999978
  0
LINE
  8
_0-0_1
  6
CONTINUOUS
 62
    4
 10
1479.1645580000004
 20
1046.6402684999994
 11
1798.4884540000003
 21
1144.611303499998
  0
LINE
  8
_0-0_1
  6
CONTINUOUS
 62
    4
 10
1723.4982460000001
 20
1175.8070195
 11
1729.1166810000004
 21
1177.5307994999966
  0
ARC
  8
_0-0_1
  6
CONTINUOUS
 62
    4
 10
1745.9150799999998
 20
1179.1052084999974
 40
16.872017
 50
102.88244700000001
 51
185.354333
  0
LINE
  8
_0-0_1
  6
CONTINUOUS
 62
    4
 10
1747.5596459999997
 20
1178.9060894999966
 11
2054.5249530000001
 21
1273.0854144999976
  0
LINE
  8
_0-0_1
  6
CONTINUOUS
 62
    4
 10
2048.6056200000003
 20
1292.3787144999988
 11
2025.1602350000003
 21
1285.1854905
  0
LINE
  8
_0-0_1
  6
CONTINUOUS
 62
    4
 10
1742.1534380000003
 20
1195.5525484999998
 11
2022.7214009999998
 21
1281.6329644999969
  0
ARC
  8
_0-0_1
  6
CONTINUOUS
 62
    4
 10
2028.3397130000003
 20
1280.1063954999991
 40
5.8220140000000011
 50
113.22723600000002
 51
164.79898000000003
  0
LINE
  8
_0-0_1
  6
CONTINUOUS
 62
    4
 10
1723.4890990000004
 20
1175.8368344999981
 11
1729.2177019999999
 21
1157.1651904999999
  0
ARC
  8
_0-0_1
  6
CONTINUOUS
 62
    4
 10
1751.3212869999998
 20
1162.4587494999978
 40
16.872017
 50
102.88244700000001
 51
192.21985000000001
  0
LINE
  8
_0-0_1
  6
CONTINUOUS
 62
    4
 10
2055.5225330000003
 20
1253.9654304999967
 11
2053.807288
 21
1259.5560514999997
  0
LINE
  8
_0-0_1
  6
CONTINUOUS
 62
    4
 10
2048.6056200000003
 20
1292.3787144999988
 11
2059.9722549999997
 21
1255.3306384999996
  0
LINE
  8
_0-0_1
  6
CONTINUOUS
 62
    4
 10
2055.5225330000003
 20
1253.9654304999967
 11
2059.9722549999997
 21
1255.3306384999996
  0
LINE
  8
_0-0_1
  6
CONTINUOUS
 62
    4
 10
1734.831545
 20
1158.8875604999994
 11
1729.2177019999999
 21
1157.1651904999999
  0
LINE
  8
_0-0_1
  6
CONTINUOUS
 62
    4
 10
1734.4833920000001
 20
1161.5850164999974
 11
2053.807288
 21
1259.5560514999997
  0
LINE
  8
_0-0_1
  6
CONTINUOUS
 62
    4
 10
1978.8170799999998
 20
1290.7517684999984
 11
1984.4355150000001
 21
1292.4755474999984
  0
ARC
  8
_0-0_1
  6
CONTINUOUS
 62
    4
 10
2001.2339140000004
 20
1294.0499564999991
 40
16.872017
 50
102.88244700000001
 51
185.354333
  0
LINE
  8
_0-0_1
  6
CONTINUOUS
 62
    4
 10
2002.8784800000003
 20
1293.8508384999986
 11
2082.448163
 21
1318.2634304999992
  0
LINE
  8
_0-0_1
  6
CONTINUOUS
 62
    4
 10
1997.472272
 20
1310.4972974999982
 11
2074.7704979999999
 21
1334.2129894999998
  0
LINE
  8
_0-0_1
  6
CONTINUOUS
 62
    4
 10
1978.807933
 20
1290.7815834999965
 11
1984.536537
 21
1272.109938499998
  0
ARC
  8
_0-0_1
  6
CONTINUOUS
 62
    4
 10
2006.6401210000004
 20
1277.4034974999995
 40
16.872017
 50
102.88244700000001
 51
192.21985000000001
  0
LINE
  8
_0-0_1
  6
CONTINUOUS
 62
    4
 10
1990.1503789999997
 20
1273.8323084999975
 11
1984.536537
 21
1272.109938499998
  0
LINE
  8
_0-0_1
  6
CONTINUOUS
 62
    4
 10
1989.8022259999998
 20
1276.5297654999995
 11
2088.0303919999997
 21
1306.6669244999975
  0
LINE
  8
_0-0_1
  6
CONTINUOUS
 62
    4
 10
960.41748799999993
 20
829.18205849999867
 11
966.02144899999985
 21
830.95232749999923
  0
ARC
  8
_0-0_1
  6
CONTINUOUS
 62
    4
 10
982.80622700000004
 20
832.66585749999649
 40
16.872017
 50
103.35714900000002
 51
185.82903500000003
  0
LINE
  8
_0-0_1
  6
CONTINUOUS
 62
    4
 10
984.45238700000027
 20
832.48037049999766
 11
1290.6268810000001
 21
929.19967749999705
  0
LINE
  8
_0-0_1
  6
CONTINUOUS
 62
    4
 10
1284.5479050000004
 20
948.44327449999764
 11
1261.1629210000001
 21
941.0560504999994
  0
LINE
  8
_0-0_1
  6
CONTINUOUS
 62
    4
 10
978.90844800000013
 20
849.08146749999651
 11
1258.7536030000001
 21
937.48344149999684
  0
ARC
  8
_0-0_1
  6
CONTINUOUS
 62
    4
 10
1264.3843710000001
 20
936.00347249999686
 40
5.8220140000000011
 50
113.701938
 51
165.27368200000001
  0
LINE
  8
_0-0_1
  6
CONTINUOUS
 62
    4
 10
960.40809400000035
 20
829.21179549999943
 11
966.29119600000013
 21
810.58825349999825
  0
ARC
  8
_0-0_1
  6
CONTINUOUS
 62
    4
 10
988.35016499999983
 20
816.06476049999765
 40
16.872017
 50
103.35714900000002
 51
192.69455200000002
  0
LINE
  8
_0-0_1
  6
CONTINUOUS
 62
    4
 10
1291.7828360000003
 20
910.08861449999677
 11
1290.0213309999999
 21
915.66483349999908
  0
LINE
  8
_0-0_1
  6
CONTINUOUS
 62
    4
 10
1284.5479050000004
 20
948.44327449999764
 11
1296.2210940000004
 21
911.49064249999719
  0
LINE
  8
_0-0_1
  6
CONTINUOUS
 62
    4
 10
1291.7828360000003
 20
910.08861449999677
 11
1296.2210940000004
 21
911.49064249999719
  0
LINE
  8
_0-0_1
  6
CONTINUOUS
 62
    4
 10
971.89057700000012
 20
812.35707550000006
 11
966.29119600000013
 21
810.58825349999825
  0
LINE
  8
_0-0_1
  6
CONTINUOUS
 62
    4
 10
971.52008699999988
 20
815.05155549999836
 11
1290.0213309999999
 21
915.66483349999908
  0
LINE
  8
_0-0_1
  6
CONTINUOUS
 62
    3
 10
1052.677764
 20
795.90357349999977
 11
1060.8854650000003
 21
777.66458349999812
  0
LINE
  8
_0-0_1
  6
CONTINUOUS
 62
    3
 10
1142.9582369999998
 20
814.59809049999967
 11
1134.7509399999999
 21
832.83651949999694
  0
LINE
  8
_0-0_1
  6
CONTINUOUS
 62
    3
 10
1134.7509399999999
 20
832.83651949999694
 11
1052.677764
 21
795.90357349999977
  0
LINE
  8
_0-0_1
  6
CONTINUOUS
 62
    3
 10
1107.3930499999997
 20
820.5254634999983
 11
1092.6196890000001
 21
853.35453249999773
  0
LINE
  8
_0-0_1
  6
CONTINUOUS
 62
    3
 10
1070.916193
 20
804.11087049999696
 11
1056.1428320000005
 21
836.93993950000004
  0
LINE
  8
_0-0_1
  6
CONTINUOUS
 62
    3
 10
1056.1428320000005
 20
836.93993950000004
 11
1092.6196890000001
 21
853.35453249999773
  0
LINE
  8
_0-0_1
  6
CONTINUOUS
 62
   18
 10
1096.4504649999999
 20
793.66958349999913
 11
2116.4305809999996
 21
1252.660843499998
  0
LINE
  8
_0-0_1
  6
CONTINUOUS
 62
   18
 10
1096.4504649999999
 20
793.66958349999913
 11
1121.0723550000002
 21
738.95429749999676
  0
LINE
  8
_0-0_1
  6
CONTINUOUS
 62
   18
 10
1121.0723550000002
 20
738.95429749999676
 11
1130.5104449999999
 21
717.97996949999651
  0
LINE
  8
_0-0_1
  6
CONTINUOUS
 62
   18
 10
1136.8022259999998
 20
828.27666949999912
 11
2110.2751230000003
 21
1266.3396714999981
  0
LINE
  8
_0-0_1
  6
CONTINUOUS
 62
   18
 10
1114.5971890000001
 20
694.8535404999966
 11
1121.7373520000001
 21
687.71337749999645
  0
LINE
  8
_0-0_1
  6
CONTINUOUS
 62
   18
 10
1105.9099109999997
 20
714.14742049999768
 11
1129.052181
 21
691.00515049999728
  0
LINE
  8
_0-0_1
  6
CONTINUOUS
 62
   18
 10
1097.2226330000003
 20
733.44130049999876
 11
1136.3670089999996
 21
694.29692349999812
  0
LINE
  8
_0-0_1
  6
CONTINUOUS
 62
   18
 10
1088.535355
 20
752.73518049999984
 11
1136.4179180000001
 21
704.85261649999666
  0
LINE
  8
_0-0_1
  6
CONTINUOUS
 62
   18
 10
1079.8480760000002
 20
772.02906049999729
 11
1127.739861
 21
724.13727549999749
  0
LINE
  8
_0-0_1
  6
CONTINUOUS
 62
   18
 10
1077.3914370000002
 20
785.09230149999712
 11
1119.0618050000003
 21
743.42193349999798
  0
LINE
  8
_0-0_1
  6
CONTINUOUS
 62
   18
 10
1084.7063250000001
 20
788.38401449999947
 11
1110.3837480000002
 21
762.70659249999881
  0
LINE
  8
_0-0_1
  6
CONTINUOUS
 62
   18
 10
1092.0212140000003
 20
791.67572749999817
 11
1101.7056910000001
 21
781.9912504999993
  0
LINE
  8
_0-0_1
  6
CONTINUOUS
 62
   18
 10
1668.2254650000004
 20
985.17258349999975
 11
1675.6117610000001
 21
968.75860049999756
  0
LINE
  8
_0-0_1
  6
CONTINUOUS
 62
   18
 10
1702.8784800000003
 20
1000.7664474999983
 11
1710.2647749999996
 21
984.35246449999977
  0
LINE
  8
_0-0_1
  6
CONTINUOUS
 62
   18
 10
1394.6487440000001
 20
862.06296449999718
 11
1402.0350250000001
 21
845.64901349999855
  0
LINE
  8
_0-0_1
  6
CONTINUOUS
 62
   18
 10
1429.3017579999996
 20
877.65682849999939
 11
1436.6880389999997
 21
861.24287749999712
  0
LINE
  8
_0-0_1
  6
CONTINUOUS
 62
   18
 10
1155.7253469999996
 20
754.54821149999771
 11
1163.1117009999998
 21
738.13346949999686
  0
LINE
  8
_0-0_1
  6
CONTINUOUS
 62
   18
 10
1154.8194279999998
 20
754.14048749999711
 11
1128.6649029999999
 21
722.63240349999978
  0
LINE
  8
_0-0_1
  6
CONTINUOUS
 62
   18
 10
1429.3017579999996
 20
877.65682849999939
 11
1402.0350250000001
 21
845.64901349999855
  0
LINE
  8
_0-0_1
  6
CONTINUOUS
 62
   18
 10
1702.8784800000003
 20
1000.7664474999983
 11
1675.6117610000001
 21
968.75860049999756
  0
LINE
  8
_0-0_1
  6
CONTINUOUS
 62
   18
 10
906.70735400000012
 20
938.00646349999806
 11
928.25145599999985
 21
890.13056549999965
  0
CIRCLE
  8
_0-0_1
  6
CONTINUOUS
 62
   18
 10
907.73326300000008
 20
935.72665949999646
 40
1.7000000000000002
  0
LINE
  8
_0-0_1
  6
CONTINUOUS
 62
   18
 10
907.73326300000008
 20
935.72665949999646
 11
1163.0713889999997
 21
1050.628537499997
  0
CIRCLE
  8
_0-0_1
  6
CONTINUOUS
 62
   18
 10
1163.0713889999997
 20
1050.628537499997
 40
1.7000000000000002
  0
LINE
  8
_0-0_1
  6
CONTINUOUS
 62
   18
 10
1162.0454790000003
 20
1052.9083414999986
 11
1183.5895819999996
 21
1005.0324434999966
  0
LINE
  8
_0-0_1
  6
CONTINUOUS
 62
   18
 10
1153.8382019999999
 20
1071.146779499999
 11
1175.3823050000001
 21
1023.2708804999966
  0
CIRCLE
  8
_0-0_1
  6
CONTINUOUS
 62
   18
 10
1154.8641120000002
 20
1068.866974499997
 40
1.7000000000000002
  0
LINE
  8
_0-0_1
  6
CONTINUOUS
 62
   18
 10
1154.8641120000002
 20
1068.866974499997
 11
1410.2022379999999
 21
1183.7688524999976
  0
CIRCLE
  8
_0-0_1
  6
CONTINUOUS
 62
   18
 10
1410.2022379999999
 20
1183.7688524999976
 40
1.7000000000000002
  0
LINE
  8
_0-0_1
  6
CONTINUOUS
 62
   18
 10
1409.1763280000005
 20
1186.0486574999995
 11
1430.7204300000003
 21
1138.1727594999975
  0
LINE
  8
_0-0_1
  6
CONTINUOUS
 62
   18
 10
1400.969051
 20
1204.2870954999999
 11
1422.5131529999999
 21
1156.4111964999975
  0
CIRCLE
  8
_0-0_1
  6
CONTINUOUS
 62
   18
 10
1401.9949610000003
 20
1202.0072904999979
 40
1.7000000000000002
  0
LINE
  8
_0-0_1
  6
CONTINUOUS
 62
   18
 10
1401.9949610000003
 20
1202.0072904999979
 11
1657.3330859999996
 21
1316.9091684999985
  0
CIRCLE
  8
_0-0_1
  6
CONTINUOUS
 62
   18
 10
1657.3330859999996
 20
1316.9091684999985
 40
1.7000000000000002
  0
LINE
  8
_0-0_1
  6
CONTINUOUS
 62
   18
 10
1656.3071769999997
 20
1319.1889734999968
 11
1677.8512790000004
 21
1271.313074499998
  0
LINE
  8
_0-0_1
  6
CONTINUOUS
 62
   18
 10
1648.0999000000002
 20
1337.4274104999968
 11
1669.644002
 21
1289.5515124999984
  0
CIRCLE
  8
_0-0_1
  6
CONTINUOUS
 62
   18
 10
1649.1258090000001
 20
1335.1476064999988
 40
1.7000000000000002
  0
LINE
  8
_0-0_1
  6
CONTINUOUS
 62
   18
 10
1649.1258090000001
 20
1335.1476064999988
 11
1904.4639349999998
 21
1450.0494844999994
  0
CIRCLE
  8
_0-0_1
  6
CONTINUOUS
 62
   18
 10
1904.4639349999998
 20
1450.0494844999994
 40
1.7000000000000002
  0
LINE
  8
_0-0_1
  6
CONTINUOUS
 62
   18
 10
1903.4380250000004
 20
1452.3292884999973
 11
1924.9821279999996
 21
1404.4533904999989
  0
LINE
  8
_0-0_1
  6
CONTINUOUS
 62
   18
 10
1895.2307479999999
 20
1470.5677264999977
 11
1916.7748510000001
 21
1422.6918274999989
  0
CIRCLE
  8
_0-0_1
  6
CONTINUOUS
 62
   18
 10
1896.2566580000002
 20
1468.2879214999994
 40
1.7000000000000002
  0
LINE
  8
_0-0_1
  6
CONTINUOUS
 62
   18
 10
1896.2566580000002
 20
1468.2879214999994
 11
1989.9377430000004
 21
1510.4443074999981
  0
LINE
  8
_0-0_1
  6
CONTINUOUS
 62
   18
 10
929.13501100000019
 20
888.16710449999664
 11
940.42001700000037
 21
863.08925249999811
  0
CIRCLE
  8
_0-0_1
  6
CONTINUOUS
 62
   18
 10
930.16092099999969
 20
885.88729949999833
 40
1.7000000000000002
  0
LINE
  8
_0-0_1
  6
CONTINUOUS
 62
   18
 10
930.16092099999969
 20
885.88729949999833
 11
998.55546099999992
 21
916.6647684999989
  0
CIRCLE
  8
_0-0_1
  6
CONTINUOUS
 62
   18
 10
998.55546099999992
 20
916.6647684999989
 40
1.7000000000000002
  0
LINE
  8
_0-0_1
  6
CONTINUOUS
 62
   18
 10
997.52955199999997
 20
918.94457249999687
 11
1008.814558
 21
893.86672149999868
  0
CIRCLE
  8
_0-0_1
  6
CONTINUOUS
 62
   18
 10
998.55546099999992
 20
916.6647684999989
 40
1.7000000000000002
  0
LINE
  8
_0-0_1
  6
CONTINUOUS
 62
   18
 10
998.55546099999992
 20
916.6647684999989
 11
1185.4990470000002
 21
1000.7891774999989
  0
CIRCLE
  8
_0-0_1
  6
CONTINUOUS
 62
   18
 10
1185.4990470000002
 20
1000.7891774999989
 40
1.7000000000000002
  0
LINE
  8
_0-0_1
  6
CONTINUOUS
 62
   18
 10
1184.473137
 20
1003.0689824999972
 11
1195.758143
 21
977.99113049999869
  0
CIRCLE
  8
_0-0_1
  6
CONTINUOUS
 62
   18
 10
1185.4990470000002
 20
1000.7891774999989
 40
1.7000000000000002
  0
LINE
  8
_0-0_1
  6
CONTINUOUS
 62
   18
 10
1185.4990470000002
 20
1000.7891774999989
 11
1240.2143589999996
 21
1025.4110084999993
  0
CIRCLE
  8
_0-0_1
  6
CONTINUOUS
 62
   18
 10
1240.2143589999996
 20
1025.4110084999993
 40
1.7000000000000002
  0
LINE
  8
_0-0_1
  6
CONTINUOUS
 62
   18
 10
1239.1884499999996
 20
1027.6908134999976
 11
1250.4734550000003
 21
1002.6129614999991
  0
LINE
  8
_0-0_1
  6
CONTINUOUS
 62
   18
 10
1520.6644779999997
 20
1003.7976834999972
 11
1548.234942
 21
1015.6243274999979
  0
LINE
  8
_0-0_1
  6
CONTINUOUS
 62
   18
 10
1548.234942
 20
1015.6243274999979
 11
1542.3216199999997
 21
1029.4095594999999
  0
LINE
  8
_0-0_1
  6
CONTINUOUS
 62
   18
 10
1542.3216199999997
 20
1029.4095594999999
 11
1514.7511560000003
 21
1017.5829154999992
  0
LINE
  8
_0-0_1
  6
CONTINUOUS
 62
   18
 10
1514.7511560000003
 20
1017.5829154999992
 11
1520.6644779999997
 21
1003.7976834999972
  0
LINE
  8
_0-0_1
  6
CONTINUOUS
 62
   18
 10
1542.3216199999997
 20
1029.4095594999999
 11
1520.6644779999997
 21
1003.7976834999972
  0
LINE
  8
_0-0_1
  6
CONTINUOUS
 62
   18
 10
1775.6721420000003
 20
1118.3611964999982
 11
1803.3396430000003
 21
1129.9590134999999
  0
LINE
  8
_0-0_1
  6
CONTINUOUS
 62
   18
 10
1803.3396430000003
 20
1129.9590134999999
 11
1797.5407349999996
 21
1143.7927634999978
  0
LINE
  8
_0-0_1
  6
CONTINUOUS
 62
   18
 10
1797.5407349999996
 20
1143.7927634999978
 11
1769.8732339999997
 21
1132.1949474999965
  0
LINE
  8
_0-0_1
  6
CONTINUOUS
 62
   18
 10
1769.8732339999997
 20
1132.1949474999965
 11
1775.6721420000003
 21
1118.3611964999982
  0
LINE
  8
_0-0_1
  6
CONTINUOUS
 62
   18
 10
1797.5407349999996
 20
1143.7927634999978
 11
1775.6721420000003
 21
1118.3611964999982
  0
LINE
  8
_0-0_1
  6
CONTINUOUS
 62
   18
 10
2030.990976
 20
1233.3059444999999
 11
2058.6584780000003
 21
1244.9037614999979
  0
LINE
  8
_0-0_1
  6
CONTINUOUS
 62
   18
 10
2058.6584780000003
 20
1244.9037614999979
 11
2052.8595690000002
 21
1258.7375124999999
  0
LINE
  8
_0-0_1
  6
CONTINUOUS
 62
   18
 10
2052.8595690000002
 20
1258.7375124999999
 11
2025.1920680000003
 21
1247.1396954999982
  0
LINE
  8
_0-0_1
  6
CONTINUOUS
 62
   18
 10
2025.1920680000003
 20
1247.1396954999982
 11
2030.990976
 21
1233.3059444999999
  0
LINE
  8
_0-0_1
  6
CONTINUOUS
 62
   18
 10
2052.8595690000002
 20
1258.7375124999999
 11
2030.990976
 21
1233.3059444999999
  0
LINE
  8
_0-0_1
  6
CONTINUOUS
 62
   18
 10
1267.4232849999999
 20
889.22659449999992
 11
1294.9937490000002
 21
901.05323849999695
  0
LINE
  8
_0-0_1
  6
CONTINUOUS
 62
   18
 10
1294.9937490000002
 20
901.05323849999695
 11
1289.0804269999999
 21
914.83847049999895
  0
LINE
  8
_0-0_1
  6
CONTINUOUS
 62
   18
 10
1289.0804269999999
 20
914.83847049999895
 11
1261.5099630000004
 21
903.01182649999828
  0
LINE
  8
_0-0_1
  6
CONTINUOUS
 62
   18
 10
1261.5099630000004
 20
903.01182649999828
 11
1267.4232849999999
 21
889.22659449999992
  0
LINE
  8
_0-0_1
  6
CONTINUOUS
 62
   18
 10
1289.0804269999999
 20
914.83847049999895
 11
1267.4232849999999
 21
889.22659449999992
  0
LINE
  8
_0-0_1
  6
CONTINUOUS
 62
   18
 10
1142.9582369999998
 20
814.59809049999967
 11
1134.7509399999999
 21
832.83651949999694
  0
LINE
  8
_0-0_1
  6
CONTINUOUS
 62
   18
 10
1125.7215320000005
 20
806.84093249999933
 11
1140.0160939999996
 21
821.13549449999846
  0
LINE
  8
_0-0_1
  6
CONTINUOUS
 62
   18
 10
1106.436737
 20
798.16273949999959
 11
1136.5222659999999
 21
828.24826849999954
  0
LINE
  8
_0-0_1
  6
CONTINUOUS
 62
   18
 10
1087.1519429999998
 20
789.48454649999985
 11
1124.7181559999999
 21
827.05075949999809
  0
LINE
  8
_0-0_1
  6
CONTINUOUS
 62
   18
 10
1067.8671480000003
 20
780.80635349999648
 11
1107.7443359999997
 21
820.68354249999902
  0
LINE
  8
_0-0_1
  6
CONTINUOUS
 62
   18
 10
1058.7854310000002
 20
782.33123849999902
 11
1088.4595989999998
 21
812.00540649999675
  0
LINE
  8
_0-0_1
  6
CONTINUOUS
 62
   18
 10
1055.493684
 20
789.64609249999921
 11
1069.1748610000004
 21
803.32727049999812
  0
LINE
  8
_0-0_1
  6
CONTINUOUS
 62
   18
 10
1092.2610560000003
 20
853.1931474999983
 11
1070.916193
 21
804.11087049999696
  0
LINE
  8
_0-0_1
  6
CONTINUOUS
 62
   18
 10
1107.7443359999997
 20
820.68354249999902
 11
1056.1428320000005
 21
836.93993950000004
  0
LINE
  8
_0-0_1
  6
CONTINUOUS
 62
   18
 10
1109.3454659999998
 20
707.20455449999633
 11
1114.6487669999997
 21
712.50785549999989
  0
LINE
  8
_0-0_1
  6
CONTINUOUS
 62
   18
 10
1114.6487669999997
 20
712.50785549999989
 11
1112.7076239999997
 21
705.26341150000007
  0
LINE
  8
_0-0_1
  6
CONTINUOUS
 62
   18
 10
1114.6487669999997
 20
712.50785549999989
 11
1043.6623030000001
 21
589.55569249999826
  0
LINE
  8
_0-0_1
  6
CONTINUOUS
 62
   18
 10
1043.6623030000001
 20
589.55569249999826
 11
995.66230300000007
 21
589.55569249999826
  0
LINE
  8
_0-0_1
  6
CONTINUOUS
 62
   18
 10
1107.2159490000004
 20
805.74693849999676
 11
1112.5192500000003
 21
811.05023949999668
  0
LINE
  8
_0-0_1
  6
CONTINUOUS
 62
   18
 10
1112.5192500000003
 20
811.05023949999668
 11
1110.5781070000003
 21
803.80579549999675
  0
LINE
  8
_0-0_1
  6
CONTINUOUS
 62
   18
 10
1112.5192500000003
 20
811.05023949999668
 11
1004.7850319999998
 21
624.44910049999817
  0
LINE
  8
_0-0_1
  6
CONTINUOUS
 62
   18
 10
1004.7850319999998
 20
624.44910049999817
 11
857.78503199999977
 21
624.44910049999817
  0
LINE
  8
_0-0_1
  6
DASHED
 62
   18
 10
1134.7340889999996
 20
834.47381549999773
 11
1056.9311269999998
 21
799.46246549999705
  0
LINE
  8
_0-0_1
  6
DASHED
 62
   18
 10
1138.0362059999998
 20
831.02493849999883
 11
2109.4545879999996
 21
1268.163086499997
  0
LINE
  8
_0-0_1
  6
DASHED
 62
   18
 10
1134.7340889999996
 20
834.47381549999773
 11
1138.0362059999998
 21
831.02493849999883
  0
LINE
  8
_0-0_1
  6
CONTINUOUS
 62
   18
 10
1079.7513470000004
 20
836.13528849999784
 11
1081.692489
 21
828.89084449999791
  0
LINE
  8
_0-0_1
  6
CONTINUOUS
 62
   18
 10
1081.692489
 20
828.89084449999791
 11
1076.3891890000004
 21
834.19414549999783
  0
LINE
  8
_0-0_1
  6
CONTINUOUS
 62
   18
 10
1081.692489
 20
828.89084449999791
 11
973.56941900000038
 21
1016.165496499998
  0
LINE
  8
_0-0_1
  6
CONTINUOUS
 62
   18
 10
973.56941900000038
 20
1016.165496499998
 11
853.56941900000038
 21
1016.165496499998
  0
LINE
  8
_0-0_1
  6
CONTINUOUS
 62
   18
 10
1004.7236350000003
 20
752.3917494999987
 11
1029.8014750000002
 21
763.67678149999847
  0
CIRCLE
  8
_0-0_1
  6
CONTINUOUS
 62
   18
 10
1007.0034390000001
 20
753.41766149999967
 40
1.7000000000000002
  0
LINE
  8
_0-0_1
  6
CONTINUOUS
 62
   18
 10
1007.0034390000001
 20
753.41766149999967
 11
998.79586399999971
 21
771.65670749999845
  0
CIRCLE
  8
_0-0_1
  6
CONTINUOUS
 62
   18
 10
998.79586399999971
 20
771.65670749999845
 40
1.7000000000000002
  0
LINE
  8
_0-0_1
  6
CONTINUOUS
 62
   18
 10
996.51606100000026
 20
770.63079549999748
 11
1021.5938999999997
 21
781.91582849999759
  0
CIRCLE
  8
_0-0_1
  6
CONTINUOUS
 62
   18
 10
998.79586399999971
 20
771.65670749999845
 40
1.7000000000000002
  0
LINE
  8
_0-0_1
  6
CONTINUOUS
 62
   18
 10
998.79586399999971
 20
771.65670749999845
 11
984.02273100000002
 21
804.48587950000001
  0
CIRCLE
  8
_0-0_1
  6
CONTINUOUS
 62
   18
 10
984.02273100000002
 20
804.48587950000001
 40
1.7000000000000002
  0
LINE
  8
_0-0_1
  6
CONTINUOUS
 62
   18
 10
981.74292700000024
 20
803.45996749999904
 11
1006.8207659999998
 21
814.74500049999915
  0
LINE
  8
_0-0_1
  6
CONTINUOUS
 62
   18
 10
1121.0723550000002
 20
738.95429749999676
 11
1741.959863
 21
1018.353802499998
  0
LINE
  8
_0-0_1
  6
CONTINUOUS
 62
   18
 10
1128.4589219999998
 20
722.53971149999779
 11
1747.9439869999997
 21
1001.308117499997
  0
LINE
  8
_0-0_1
  6
CONTINUOUS
 62
   18
 10
1130.9211109999997
 20
717.06818349999958
 11
1749.9386949999998
 21
995.62622249999913
  0
LINE
  8
_0-0_1
  6
CONTINUOUS
 62
   18
 10
1596.596434
 20
1100.139584499997
 11
1598.5375770000001
 21
1092.8951404999971
  0
LINE
  8
_0-0_1
  6
CONTINUOUS
 62
   18
 10
1598.5375770000001
 20
1092.8951404999971
 11
1593.2342760000001
 21
1098.198441499997
  0
LINE
  8
_0-0_1
  6
CONTINUOUS
 62
   18
 10
1598.5375770000001
 20
1092.8951404999971
 11
1552.2727629999999
 21
1173.0281484999978
  0
LINE
  8
_0-0_1
  6
CONTINUOUS
 62
   18
 10
1552.2727629999999
 20
1173.0281484999978
 11
1511.7727629999999
 21
1173.0281484999978
  0
LINE
  8
_0-0_1
  6
CONTINUOUS
 62
   18
 10
1611.8948570000002
 20
722.86457449999943
 11
1677.6331209999998
 21
722.86457449999943
  0
LINE
  8
_0-0_1
  6
CONTINUOUS
 62
   18
 10
1604.7216760000001
 20
752.73114849999911
 11
1825.6623040000004
 21
752.73114849999911
  0
LINE
  8
_0-0_1
  6
CONTINUOUS
 62
   18
 10
1595.1785840000002
 20
782.8264704999965
 11
1838.995723
 21
782.8264704999965
  0
LINE
  8
_0-0_1
  6
CONTINUOUS
 62
   18
 10
1534.2870169999997
 20
1005.0009774999999
 11
1534.2870169999997
 21
1012.5009774999999
  0
LINE
  8
_0-0_1
  6
CONTINUOUS
 62
   18
 10
1534.2870169999997
 20
1012.5009774999999
 11
1538.0370169999997
 21
1006.0057864999981
  0
LINE
  8
_0-0_1
  6
CONTINUOUS
 62
   18
 10
1534.2870169999997
 20
1012.5009774999999
 11
1611.8948570000002
 21
722.86457449999943
  0
LINE
  8
_0-0_1
  6
CONTINUOUS
 62
   18
 10
1587.7947450000001
 20
812.80741749999652
 11
1792.6174579999997
 21
812.80741749999652
  0
TEXT
  8
_0-0_1
 62
    7
 10
1611.8948570000002
 20
725.36457449999943
 40
15
 41
1
 50
0
  1
　垂木
  0
TEXT
  8
_0-0_1
 62
    7
 10
1604.7216760000003
 20
755.23114849999911
 40
15
 41
1
 50
0
  1
　野地板：耐水合板ｔ＝１２
  0
TEXT
  8
_0-0_1
 62
    7
 10
1587.7947450000006
 20
815.30741749999652
 40
15
 41
1
 50
0
  1
　瓦桟：１５ｘ３０以上
  0
TEXT
  8
_0-0_1
 62
    7
 10
987.63336056218407
 20
775.08967321775367
 40
15.000000000000021
 41
0.4999999999999988
 50
114.22775500000009
  1
３６
  0
TEXT
  8
_0-0_1
 62
    7
 10
998.81387659967015
 20
747.13838312403823
 40
14.999999999999961
 41
0.500000000000001
 50
114.22775500000009
  1
２０
  0
TEXT
  8
_0-0_1
 62
    7
 10
954.09181244972524
 20
907.39244632800717
 40
14.999999999999989
 41
0.5
 50
24.227692999999977
  1
７５
  0
TEXT
  8
_0-0_1
 62
    7
 10
1078.9409082016548
 20
959.56818783627625
 40
15.000000000000018
 41
0.4999999999999995
 50
24.227693000000038
  1
２０５
  0
TEXT
  8
_0-0_1
 62
    7
 10
1203.7900039535841
 20
1022.9244453820314
 40
14.999999999999996
 41
0.5000000000000007
 50
24.227692999999984
  1
６０
  0
TEXT
  8
_0-0_1
 62
    7
 10
1023.0383280142237
 20
996.83657462789699
 40
14.999999999999986
 41
0.5000000000000005
 50
24.227693000000023
  1
２８０
  0
TEXT
  8
_0-0_1
 62
    7
 10
1269.0096808389203
 20
1134.7296057568935
 40
15.000000000000011
 41
0.4999999999999991
 50
24.227693000000002
  1
２８０
  0
TEXT
  8
_0-0_1
 62
    7
 10
1516.8444530031979
 20
1263.3055401879849
 40
14.999999999999982
 41
0.5000000000000006
 50
24.227692999999988
  1
２８０
  0
TEXT
  8
_0-0_1
 62
    7
 10
1760.9523864883136
 20
1399.3351519774005
 40
15.000000000000021
 41
0.4999999999999992
 50
24.227693000000041
  1
２８０
  0
TEXT
  8
_0-0_1
 62
    7
 10
841.22687641074117
 20
1022.003276727472
 40
15
 41
0.9999999999999996
 50
0
  1
瓦座：３６ｘ４０
  0
TEXT
  8
_0-0_1
 62
    7
 10
846.80426285091539
 20
631.58622591527671
 40
15
 41
1
 50
0
  1
広小舞：４５ｘ９０
  0
TEXT
  8
_0-0_1
 62
    7
 10
990.70083300741032
 20
595.89095269816175
 40
15
 41
1
 50
0
  1
鼻隠し
  0
TEXT
  8
_0-0_1
 62
    7
 10
1503.8203855034383
 20
1179.2855743403848
 40
15
 41
1
 50
0
  1
桟　瓦
  0
TEXT
  8
_0-0_1
 62
    7
 10
1594.3226678235628
 20
785.4570765038626
 40
15
 41
1
 50
0
  1
　下葺材：ルーフィング
  0
ENDSEC
  0
EOF
