  0
SECTION
  2
HEADER
  9
$ACADVER
  1
AC1009
  9
$INSBASE
 10
0
 20
0
 30
0
  9
$EXTMIN
 10
0
 20
0
  9
$EXTMAX
 10
2970
 20
2100
  9
$LIMMIN
 10
0
 20
0
  9
$LIMMAX
 10
2970
 20
2100
  9
$LTSCALE
 40
10
  0
ENDSEC
  0
SECTION
  2
TABLES
  0
TABLE
  2
LTYPE
 70
     9
  0
LTYPE
  2
CONTINUOUS
 70
    64
  3
実線
 72
    65
 73
     0
 40
0.0
  0
LTYPE
  2
DASHED1
 70
    64
  3
--  --  --  --  --  --  --  --  
 72
    65
 73
     2
 40
2.5
 49
1.25
 49
-1.25
  0
LTYPE
  2
DASHED2
 70
    64
  3
----    ----    ----    ----    
 72
    65
 73
     2
 40
5.0
 49
2.5
 49
-2.5
  0
LTYPE
  2
DASHED3
 70
    64
  3
------  ------  ------  ------  
 72
    65
 73
     2
 40
5.0
 49
3.75
 49
-1.25
  0
LTYPE
  2
CENTER1
 70
    64
  3
----- - ----- - ----- - ----- - 
 72
    65
 73
     4
 40
10.0
 49
6.25
 49
-1.25
 49
1.25
 49
-1.25
  0
LTYPE
  2
CENTER2
 70
    64
  3
----------  --  ----------  --  
 72
    65
 73
     4
 40
20.0
 49
12.5
 49
-2.5
 49
2.5
 49
-2.5
  0
LTYPE
  2
PHANTOM1
 70
    64
  3
--- - - --- - - --- - - --- - - 
 72
    65
 73
     6
 40
10.0
 49
3.25
 49
-1.25
 49
1.25
 49
-1.25
 49
1.25
 49
-1.25
  0
LTYPE
  2
PHANTOM2
 70
    64
  3
--------  -  -  --------  -  -  
 72
    65
 73
     6
 40
20.0
 49
10.0
 49
-2.5
 49
1.25
 49
-2.5
 49
1.25
 49
-2.5
  0
LTYPE
  2
DOT
 70
    64
  3
-   -   -   -   -   -   -   -   
 72
    65
 73
     2
 40
2.5
 49
0.625
 49
-1.875
  0
LTYPE
  2
DUMMY
 70
    64
  3
ダミー
 72
    65
 73
     0
 40
0.0
  0
LTYPE
  2
RAND1
 70
    64
  3
ランダム線1
 72
    65
 73
     4
 40
10.0
 49
1.0
 49
-2.0
 49
3.0
 49
-4.0
  0
LTYPE
  2
RAND2
 70
    64
  3
ランダム線2
 72
    65
 73
     4
 40
14.0
 49
2.0
 49
-3.0
 49
4.0
 49
-5.0
  0
LTYPE
  2
RAND3
 70
    64
  3
ランダム線3
 72
    65
 73
     4
 40
18.0
 49
3.0
 49
-4.0
 49
5.0
 49
-6.0
  0
LTYPE
  2
RAND4
 70
    64
  3
ランダム線4
 72
    65
 73
     4
 40
22.0
 49
4.0
 49
-5.0
 49
6.0
 49
-7.0
  0
LTYPE
  2
RAND5
 70
    64
  3
ランダム線5
 72
    65
 73
     4
 40
26.0
 49
5.0
 49
-6.0
 49
7.0
 49
-8.0
  0
LTYPE
  2
LONG1
 70
    64
  3
----------  --  ----------  --  
 72
    65
 73
     4
 40
40.0
 49
32.5
 49
-2.5
 49
2.5
 49
-2.5
  0
LTYPE
  2
LONG2
 70
    64
  3
--------  -  -  --------  -  -  
 72
    65
 73
     6
 40
40.0
 49
30.0
 49
-2.5
 49
1.25
 49
-2.5
 49
1.25
 49
-2.5
  0
LTYPE
  2
LONG3
 70
    64
  3
+++++++++++++++..+++++++++++++++
 72
    65
 73
     2
 40
40.0
 49
37.5
 49
-2.5
  0
LTYPE
  2
LONG4
 70
    64
  3
+++++++++++++++..+++++++++++++++
 72
    65
 73
     2
 40
80.0
 49
75.0
 49
-5.0
  0
LTYPE
  2
LONG5
 70
    64
  3
----------  --  ----------  --  
 72
    65
 73
     4
 40
60.0
 49
37.5
 49
-7.5
 49
7.5
 49
-7.5
  0
LTYPE
  2
dashed
 70
   64
  3
-------   -------------   ------
 72
   65
 73
    2
 40
7.5
 49
6
 49
-1.5
  0
LTYPE
  2
dashed_spaced
 70
   64
  3
----        --------        ----
 72
   65
 73
    2
 40
12
 49
6
 49
-6
  0
LTYPE
  2
long_dashed_dotted
 70
   64
  3
------------- --- --------------
 72
   65
 73
    4
 40
15.25
 49
12
 49
-1.5
 49
0.25
 49
-1.5
  0
LTYPE
  2
long_dashed_double-dotted
 70
   64
  3
----------- --- --- ------------
 72
   65
 73
    6
 40
17
 49
12
 49
-1.5
 49
0.25
 49
-1.5
 49
0.25
 49
-1.5
  0
LTYPE
  2
long_dashed_triplicate-dotted
 70
   64
  3
--------- --- --- --- ----------
 72
   65
 73
    8
 40
18.75
 49
12
 49
-1.5
 49
0.25
 49
-1.5
 49
0.25
 49
-1.5
 49
0.25
 49
-1.5
  0
LTYPE
  2
dotted
 70
   64
  3
   -       -       -       -    
 72
   65
 73
    2
 40
1.75
 49
0.25
 49
-1.5
  0
LTYPE
  2
chain
 70
   64
  3
-------------- -- --------------
 72
   65
 73
    4
 40
18.5
 49
12
 49
-1.5
 49
3.5
 49
-1.5
  0
LTYPE
  2
chain_double_dash
 70
   64
  3
------------ -- -- -------------
 72
   65
 73
    6
 40
23.5
 49
12
 49
-1.5
 49
3.5
 49
-1.5
 49
3.5
 49
-1.5
  0
LTYPE
  2
dashed_dotted
 70
   64
  3
-----------     -     ----------
 72
   65
 73
    4
 40
9.25
 49
6
 49
-1.5
 49
0.25
 49
-1.5
  0
LTYPE
  2
double-dashed_dotted
 70
   64
  3
------   -----------   -   -----
 72
   65
 73
    6
 40
16.75
 49
6
 49
-1.5
 49
6
 49
-1.5
 49
0.25
 49
-1.5
  0
LTYPE
  2
dashed_double-dotted
 70
   64
  3
---------    -    -    ---------
 72
   65
 73
    6
 40
11
 49
6
 49
-1.5
 49
0.25
 49
-1.5
 49
0.25
 49
-1.5
  0
LTYPE
  2
double-dashed_double-dotted
 70
   64
  3
-----   ---------   -   -   ----
 72
   65
 73
    8
 40
18.5
 49
6
 49
-1.5
 49
6
 49
-1.5
 49
0.25
 49
-1.5
 49
0.25
 49
-1.5
  0
LTYPE
  2
dashed_triplicate-dotted
 70
   64
  3
-------    -    -    -    ------
 72
   65
 73
    8
 40
12.75
 49
6
 49
-1.5
 49
0.25
 49
-1.5
 49
0.25
 49
-1.5
 49
0.25
 49
-1.5
  0
LTYPE
  2
double-dashed_triplicate-dotted
 70
   64
  3
-----  ---------  -  -  -  -----
 72
   65
 73
   10
 40
20.25
 49
6
 49
-1.5
 49
6
 49
-1.5
 49
0.25
 49
-1.5
 49
0.25
 49
-1.5
 49
0.25
 49
-1.5
  0
LTYPE
  2
undefined
 70
   64
  3
--------------------------------
 72
   65
 73
    0
 40
0
  0
LTYPE
  2
HIDDEN
 70
   64
  3
----        --------        ----
 72
   65
 73
    2
 40
10
 49
5
 49
-5
  0
LTYPE
  2
DASHED
 70
   64
  3
-------   -------------   ------
 72
   65
 73
    2
 40
50
 49
40
 49
-10
  0
LTYPE
  2
CENTER
 70
   64
  3
------------   ---   -----------
 72
   65
 73
    4
 40
100
 49
70
 49
-10
 49
10
 49
-10
  0
LTYPE
  2
PHANTOM
 70
   64
  3
---------   ---   ---   --------
 72
   65
 73
    6
 40
100
 49
50
 49
-10
 49
10
 49
-10
 49
10
 49
-10
  0
ENDTAB
  0
TABLE
  2
STYLE
  5
3
100
AcDbSymbolTable
 70
     1
  0
STYLE
  5
10
100
AcDbSymbolTableRecord
100
AcDbTextStyleTableRecord
  2
STANDARD
 70
     0
 40
0.0
 41
1.0
 50
0.0
 71
     0
 42
0.2
  3
txt
  4
bigfont.shx
  0
STYLE
  5
26
100
AcDbSymbolTableRecord
100
AcDbTextStyleTableRecord
  2
TATEGAKI
 70
    68
 40
0.0
 41
1.0
 50
0.0
 71
     0
 42
1.0
  3
txt
  4
bigfont.shx
  0
ENDTAB
  0
TABLE
  2
LAYER
 70
    2
  0
LAYER
  2
_0-0_LAYER001
 70
   64
 62
    7
  6
CONTINUOUS
  0
LAYER
  2
ADD_LINE
 70
   64
 62
    7
  6
CONTINUOUS
  0
ENDTAB
  0
ENDSEC
  0
SECTION
  2
BLOCKS
  0
ENDSEC
  0
SECTION
  2
ENTITIES
  0
LINE
  8
_0-0_LAYER001
  6
CONTINUOUS
 62
    4
 10
642.32556700000032
 20
840.04421749999983
 11
727.19784600000048
 21
866.85503349999999
  0
LINE
  8
_0-0_LAYER001
  6
CONTINUOUS
 62
    4
 10
721.11887000000081
 20
886.09862950000002
 11
697.73388600000044
 21
878.71140649999984
  0
LINE
  8
_0-0_LAYER001
  6
CONTINUOUS
 62
    4
 10
635.09484900000064
 20
856.11246749999987
 11
695.32456800000045
 21
875.13879750000001
  0
ARC
  8
_0-0_LAYER001
  6
CONTINUOUS
 62
    4
 10
700.95533600000056
 20
873.6588284999998
 40
5.8220139999999994
 50
113.701938
 51
165.27368200000001
  0
LINE
  8
_0-0_LAYER001
  6
CONTINUOUS
 62
    4
 10
728.35380100000066
 20
847.74397049999993
 11
726.59229600000072
 21
853.32018849999986
  0
LINE
  8
_0-0_LAYER001
  6
CONTINUOUS
 62
    4
 10
721.11887000000081
 20
886.09862950000002
 11
732.79205900000034
 21
849.14599849999991
  0
LINE
  8
_0-0_LAYER001
  6
CONTINUOUS
 62
    4
 10
728.35380100000066
 20
847.74397049999993
 11
732.79205900000034
 21
849.14599849999991
  0
LINE
  8
_0-0_LAYER001
  6
CONTINUOUS
 62
    4
 10
647.58283200000062
 20
828.3614134999998
 11
726.59229600000072
 21
853.32018849999986
  0
LINE
  8
_0-0_LAYER001
  6
CONTINUOUS
 62
    4
 10
651.50918400000035
 20
883.94653749999998
 11
657.12761900000032
 21
885.67031750000001
  0
ARC
  8
_0-0_LAYER001
  6
CONTINUOUS
 62
    4
 10
673.92601800000068
 20
887.24472649999984
 40
16.872017
 50
102.88244700000001
 51
185.354333
  0
LINE
  8
_0-0_LAYER001
  6
CONTINUOUS
 62
    4
 10
675.57058400000062
 20
887.04560749999996
 11
982.53589100000056
 21
981.22493250000002
  0
LINE
  8
_0-0_LAYER001
  6
CONTINUOUS
 62
    4
 10
976.61655800000062
 20
1000.5182324999998
 11
953.17117300000064
 21
993.32500849999997
  0
LINE
  8
_0-0_LAYER001
  6
CONTINUOUS
 62
    4
 10
670.16437600000074
 20
903.69206650000001
 11
950.73233900000048
 21
989.77248250000002
  0
ARC
  8
_0-0_LAYER001
  6
CONTINUOUS
 62
    4
 10
956.35065200000054
 20
988.24591349999992
 40
5.8220139999999994
 50
113.22723600000002
 51
164.79898000000003
  0
LINE
  8
_0-0_LAYER001
  6
CONTINUOUS
 62
    4
 10
651.5000370000007
 20
883.97635249999985
 11
657.22864100000061
 21
865.30470849999983
  0
ARC
  8
_0-0_LAYER001
  6
CONTINUOUS
 62
    4
 10
679.33222500000056
 20
870.59826750000002
 40
16.872017
 50
102.88244700000001
 51
192.21985000000001
  0
LINE
  8
_0-0_LAYER001
  6
CONTINUOUS
 62
    4
 10
983.53347100000065
 20
962.10494849999986
 11
981.81822600000032
 21
967.69556949999992
  0
LINE
  8
_0-0_LAYER001
  6
CONTINUOUS
 62
    4
 10
976.61655800000062
 20
1000.5182324999998
 11
987.9831930000006
 21
963.4701564999998
  0
LINE
  8
_0-0_LAYER001
  6
CONTINUOUS
 62
    4
 10
983.53347100000065
 20
962.10494849999986
 11
987.9831930000006
 21
963.4701564999998
  0
LINE
  8
_0-0_LAYER001
  6
CONTINUOUS
 62
    4
 10
662.8424840000007
 20
867.02707850000002
 11
657.22864100000061
 21
865.30470849999983
  0
LINE
  8
_0-0_LAYER001
  6
CONTINUOUS
 62
    4
 10
662.49433000000056
 20
869.72453449999989
 11
981.81822600000032
 21
967.69556949999992
  0
LINE
  8
_0-0_LAYER001
  6
CONTINUOUS
 62
    4
 10
906.82801800000061
 20
998.89128649999998
 11
912.44645300000047
 21
1000.6150654999999
  0
ARC
  8
_0-0_LAYER001
  6
CONTINUOUS
 62
    4
 10
929.24485200000072
 20
1002.1894745
 40
16.872017
 50
102.88244700000001
 51
185.354333
  0
LINE
  8
_0-0_LAYER001
  6
CONTINUOUS
 62
    4
 10
930.88941800000066
 20
1001.9903565
 11
1237.8547260000005
 21
1096.1696804999999
  0
LINE
  8
_0-0_LAYER001
  6
CONTINUOUS
 62
    4
 10
1231.9353920000003
 20
1115.4629805
 11
1208.4900070000003
 21
1108.2697564999999
  0
LINE
  8
_0-0_LAYER001
  6
CONTINUOUS
 62
    4
 10
925.48321000000044
 20
1018.6368155
 11
1206.0511730000003
 21
1104.7172304999999
  0
ARC
  8
_0-0_LAYER001
  6
CONTINUOUS
 62
    4
 10
1211.6694860000007
 20
1103.1906624999999
 40
5.8220139999999994
 50
113.22723600000002
 51
164.79898000000003
  0
LINE
  8
_0-0_LAYER001
  6
CONTINUOUS
 62
    4
 10
906.8188710000004
 20
998.92110049999997
 11
912.5474750000003
 21
980.24945649999995
  0
ARC
  8
_0-0_LAYER001
  6
CONTINUOUS
 62
    4
 10
934.65105900000071
 20
985.54301549999991
 40
16.872017
 50
102.88244700000001
 51
192.21985000000001
  0
LINE
  8
_0-0_LAYER001
  6
CONTINUOUS
 62
    4
 10
1238.8523050000003
 20
1077.0496965
 11
1237.1370600000005
 21
1082.6403174999998
  0
LINE
  8
_0-0_LAYER001
  6
CONTINUOUS
 62
    4
 10
1231.9353920000003
 20
1115.4629805
 11
1243.3020270000006
 21
1078.4149054999998
  0
LINE
  8
_0-0_LAYER001
  6
CONTINUOUS
 62
    4
 10
1238.8523050000003
 20
1077.0496965
 11
1243.3020270000006
 21
1078.4149054999998
  0
LINE
  8
_0-0_LAYER001
  6
CONTINUOUS
 62
    4
 10
918.16131800000039
 20
981.97182649999991
 11
912.5474750000003
 21
980.24945649999995
  0
LINE
  8
_0-0_LAYER001
  6
CONTINUOUS
 62
    4
 10
917.8131640000006
 20
984.66928250000001
 11
1237.1370600000005
 21
1082.6403174999998
  0
LINE
  8
_0-0_LAYER001
  6
CONTINUOUS
 62
    4
 10
1162.1468520000003
 20
1113.8360344999999
 11
1167.7652870000006
 21
1115.5598135
  0
ARC
  8
_0-0_LAYER001
  6
CONTINUOUS
 62
    4
 10
1184.5636860000004
 20
1117.1342224999999
 40
16.872017
 50
102.88244700000001
 51
185.354333
  0
LINE
  8
_0-0_LAYER001
  6
CONTINUOUS
 62
    4
 10
1186.2082520000004
 20
1116.9351044999999
 11
1493.1735600000002
 21
1211.1144284999998
  0
LINE
  8
_0-0_LAYER001
  6
CONTINUOUS
 62
    4
 10
1487.2542260000009
 20
1230.4077295
 11
1463.8088410000005
 21
1223.2145045
  0
LINE
  8
_0-0_LAYER001
  6
CONTINUOUS
 62
    4
 10
1180.8020440000005
 20
1133.5815634999999
 11
1461.3700070000004
 21
1219.6619794999999
  0
ARC
  8
_0-0_LAYER001
  6
CONTINUOUS
 62
    4
 10
1466.9883200000004
 20
1218.1354104999998
 40
5.8220139999999994
 50
113.22723600000002
 51
164.79898000000003
  0
LINE
  8
_0-0_LAYER001
  6
CONTINUOUS
 62
    4
 10
1162.1377050000006
 20
1113.8658495
 11
1167.8663090000005
 21
1095.1942044999998
  0
ARC
  8
_0-0_LAYER001
  6
CONTINUOUS
 62
    4
 10
1189.9698930000004
 20
1100.4877634999998
 40
16.872017
 50
102.88244700000001
 51
192.21985000000001
  0
LINE
  8
_0-0_LAYER001
  6
CONTINUOUS
 62
    4
 10
1494.1711390000009
 20
1191.9944444999999
 11
1492.4558940000006
 21
1197.5850664999998
  0
LINE
  8
_0-0_LAYER001
  6
CONTINUOUS
 62
    4
 10
1487.2542260000009
 20
1230.4077295
 11
1498.6208610000003
 21
1193.3596534999999
  0
LINE
  8
_0-0_LAYER001
  6
CONTINUOUS
 62
    4
 10
1494.1711390000009
 20
1191.9944444999999
 11
1498.6208610000003
 21
1193.3596534999999
  0
LINE
  8
_0-0_LAYER001
  6
CONTINUOUS
 62
    4
 10
1173.4801520000005
 20
1096.9165745
 11
1167.8663090000005
 21
1095.1942044999998
  0
LINE
  8
_0-0_LAYER001
  6
CONTINUOUS
 62
    4
 10
1173.1319980000003
 20
1099.6140315
 11
1492.4558940000006
 21
1197.5850664999998
  0
LINE
  8
_0-0_LAYER001
  6
CONTINUOUS
 62
    4
 10
2391.0838510000003
 20
840.04421749999983
 11
2306.2115720000002
 21
866.85503349999999
  0
LINE
  8
_0-0_LAYER001
  6
CONTINUOUS
 62
    4
 10
2312.2905470000005
 20
886.09862950000002
 11
2335.6755320000002
 21
878.71140649999984
  0
LINE
  8
_0-0_LAYER001
  6
CONTINUOUS
 62
    4
 10
2398.3145690000001
 20
856.11246749999987
 11
2338.0848490000008
 21
875.13879750000001
  0
ARC
  8
_0-0_LAYER001
  6
CONTINUOUS
 62
    4
 10
2332.4540820000002
 20
873.6588284999998
 40
5.8220139999999994
 50
14.726318000000001
 51
66.298061999999987
  0
LINE
  8
_0-0_LAYER001
  6
CONTINUOUS
 62
    4
 10
2305.0556170000009
 20
847.74397049999993
 11
2306.8171220000004
 21
853.32018849999986
  0
LINE
  8
_0-0_LAYER001
  6
CONTINUOUS
 62
    4
 10
2312.2905470000005
 20
886.09862950000002
 11
2300.6173590000008
 21
849.14599849999991
  0
LINE
  8
_0-0_LAYER001
  6
CONTINUOUS
 62
    4
 10
2305.0556170000009
 20
847.74397049999993
 11
2300.6173590000008
 21
849.14599849999991
  0
LINE
  8
_0-0_LAYER001
  6
CONTINUOUS
 62
    4
 10
2385.8265850000007
 20
828.3614134999998
 11
2306.8171220000004
 21
853.32018849999986
  0
LINE
  8
_0-0_LAYER001
  6
CONTINUOUS
 62
    4
 10
2381.9002340000006
 20
883.94653749999998
 11
2376.2817980000009
 21
885.67031750000001
  0
ARC
  8
_0-0_LAYER001
  6
CONTINUOUS
 62
    4
 10
2359.4834000000001
 20
887.24472649999984
 40
16.872017
 50
354.645667
 51
77.117552999999987
  0
LINE
  8
_0-0_LAYER001
  6
CONTINUOUS
 62
    4
 10
2357.8388330000007
 20
887.04560749999996
 11
2050.8735260000003
 21
981.22493250000002
  0
LINE
  8
_0-0_LAYER001
  6
CONTINUOUS
 62
    4
 10
2056.7928600000005
 20
1000.5182324999998
 11
2080.2382450000005
 21
993.32500849999997
  0
LINE
  8
_0-0_LAYER001
  6
CONTINUOUS
 62
    4
 10
2363.2450410000001
 20
903.69206650000001
 11
2082.677079000001
 21
989.77248250000002
  0
ARC
  8
_0-0_LAYER001
  6
CONTINUOUS
 62
    4
 10
2077.0587660000001
 20
988.24591349999992
 40
5.8220139999999994
 50
15.201020000000003
 51
66.772764000000009
  0
LINE
  8
_0-0_LAYER001
  6
CONTINUOUS
 62
    4
 10
2381.9093810000004
 20
883.97635249999985
 11
2376.1807770000005
 21
865.30470849999983
  0
ARC
  8
_0-0_LAYER001
  6
CONTINUOUS
 62
    4
 10
2354.0771930000001
 20
870.59826750000002
 40
16.872017
 50
347.78015000000005
 51
77.117553000000029
  0
LINE
  8
_0-0_LAYER001
  6
CONTINUOUS
 62
    4
 10
2049.8759460000001
 20
962.10494849999986
 11
2051.5911920000008
 21
967.69556949999992
  0
LINE
  8
_0-0_LAYER001
  6
CONTINUOUS
 62
    4
 10
2056.7928600000005
 20
1000.5182324999998
 11
2045.4262250000002
 21
963.4701564999998
  0
LINE
  8
_0-0_LAYER001
  6
CONTINUOUS
 62
    4
 10
2049.8759460000001
 20
962.10494849999986
 11
2045.4262250000002
 21
963.4701564999998
  0
LINE
  8
_0-0_LAYER001
  6
CONTINUOUS
 62
    4
 10
2370.5669340000004
 20
867.02707850000002
 11
2376.1807770000005
 21
865.30470849999983
  0
LINE
  8
_0-0_LAYER001
  6
CONTINUOUS
 62
    4
 10
2370.9150870000003
 20
869.72453449999989
 11
2051.5911920000008
 21
967.69556949999992
  0
LINE
  8
_0-0_LAYER001
  6
CONTINUOUS
 62
    4
 10
2126.5814000000009
 20
998.89128649999998
 11
2120.9629640000003
 21
1000.6150654999999
  0
ARC
  8
_0-0_LAYER001
  6
CONTINUOUS
 62
    4
 10
2104.1645660000004
 20
1002.1894745
 40
16.872017
 50
354.645667
 51
77.117552999999987
  0
LINE
  8
_0-0_LAYER001
  6
CONTINUOUS
 62
    4
 10
2102.5199990000001
 20
1001.9903565
 11
1795.5546920000006
 21
1096.1696804999999
  0
LINE
  8
_0-0_LAYER001
  6
CONTINUOUS
 62
    4
 10
1801.4740260000008
 20
1115.4629805
 11
1824.9194110000008
 21
1108.2697564999999
  0
LINE
  8
_0-0_LAYER001
  6
CONTINUOUS
 62
    4
 10
2107.9262070000004
 20
1018.6368155
 11
1827.3582450000004
 21
1104.7172304999999
  0
ARC
  8
_0-0_LAYER001
  6
CONTINUOUS
 62
    4
 10
1821.7399320000004
 20
1103.1906624999999
 40
5.8220139999999994
 50
15.201020000000003
 51
66.772764000000009
  0
LINE
  8
_0-0_LAYER001
  6
CONTINUOUS
 62
    4
 10
2126.5905470000007
 20
998.92110049999997
 11
2120.8619430000008
 21
980.24945649999995
  0
ARC
  8
_0-0_LAYER001
  6
CONTINUOUS
 62
    4
 10
2098.7583590000004
 20
985.54301549999991
 40
16.872017
 50
347.78015000000005
 51
77.117553000000029
  0
LINE
  8
_0-0_LAYER001
  6
CONTINUOUS
 62
    4
 10
1794.5571120000004
 20
1077.0496965
 11
1796.2723580000002
 21
1082.6403174999998
  0
LINE
  8
_0-0_LAYER001
  6
CONTINUOUS
 62
    4
 10
1801.4740260000008
 20
1115.4629805
 11
1790.1073910000005
 21
1078.4149054999998
  0
LINE
  8
_0-0_LAYER001
  6
CONTINUOUS
 62
    4
 10
1794.5571120000004
 20
1077.0496965
 11
1790.1073910000005
 21
1078.4149054999998
  0
LINE
  8
_0-0_LAYER001
  6
CONTINUOUS
 62
    4
 10
2115.2481000000007
 20
981.97182649999991
 11
2120.8619430000008
 21
980.24945649999995
  0
LINE
  8
_0-0_LAYER001
  6
CONTINUOUS
 62
    4
 10
2115.5962530000006
 20
984.66928250000001
 11
1796.2723580000002
 21
1082.6403174999998
  0
LINE
  8
_0-0_LAYER001
  6
CONTINUOUS
 62
    4
 10
1871.2625650000009
 20
1113.8360344999999
 11
1865.6441300000006
 21
1115.5598135
  0
ARC
  8
_0-0_LAYER001
  6
CONTINUOUS
 62
    4
 10
1848.8457310000003
 20
1117.1342224999999
 40
16.872017
 50
354.645667
 51
77.117552999999987
  0
LINE
  8
_0-0_LAYER001
  6
CONTINUOUS
 62
    4
 10
1847.2011650000004
 20
1116.9351044999999
 11
1540.2358580000009
 21
1211.1144284999998
  0
LINE
  8
_0-0_LAYER001
  6
CONTINUOUS
 62
    4
 10
1546.1551910000007
 20
1230.4077295
 11
1569.6005770000002
 21
1223.2145045
  0
LINE
  8
_0-0_LAYER001
  6
CONTINUOUS
 62
    4
 10
1852.6073730000007
 20
1133.5815634999999
 11
1572.0394110000007
 21
1219.6619794999999
  0
ARC
  8
_0-0_LAYER001
  6
CONTINUOUS
 62
    4
 10
1566.4210980000007
 20
1218.1354104999998
 40
5.8220139999999994
 50
15.201020000000003
 51
66.772764000000009
  0
LINE
  8
_0-0_LAYER001
  6
CONTINUOUS
 62
    4
 10
1871.2717130000001
 20
1113.8658495
 11
1865.5431090000002
 21
1095.1942044999998
  0
ARC
  8
_0-0_LAYER001
  6
CONTINUOUS
 62
    4
 10
1843.4395250000007
 20
1100.4877634999998
 40
16.872017
 50
347.78015000000005
 51
77.117553000000029
  0
LINE
  8
_0-0_LAYER001
  6
CONTINUOUS
 62
    4
 10
1539.2382780000007
 20
1191.9944444999999
 11
1540.9535240000005
 21
1197.5850664999998
  0
LINE
  8
_0-0_LAYER001
  6
CONTINUOUS
 62
    4
 10
1546.1551910000007
 20
1230.4077295
 11
1534.7885570000008
 21
1193.3596534999999
  0
LINE
  8
_0-0_LAYER001
  6
CONTINUOUS
 62
    4
 10
1539.2382780000007
 20
1191.9944444999999
 11
1534.7885570000008
 21
1193.3596534999999
  0
LINE
  8
_0-0_LAYER001
  6
CONTINUOUS
 62
    4
 10
1859.9292660000001
 20
1096.9165745
 11
1865.5431090000002
 21
1095.1942044999998
  0
LINE
  8
_0-0_LAYER001
  6
CONTINUOUS
 62
    4
 10
1860.2774190000009
 20
1099.6140315
 11
1540.9535240000005
 21
1197.5850664999998
  0
LINE
  8
_0-0_LAYER001
  6
CONTINUOUS
 62
    1
 10
1447.8973620000006
 20
1215.5284674999998
 11
1450.1763080000005
 21
1217.8074134999999
  0
LINE
  8
_0-0_LAYER001
  6
CONTINUOUS
 62
    1
 10
1442.7969970000004
 20
1213.9636364999999
 11
1449.1957100000004
 21
1220.3623494999999
  0
LINE
  8
_0-0_LAYER001
  6
CONTINUOUS
 62
    1
 10
1441.2899090000005
 20
1215.9920824999999
 11
1448.2151130000007
 21
1222.9172864999998
  0
LINE
  8
_0-0_LAYER001
  6
CONTINUOUS
 62
    1
 10
1440.5930710000007
 20
1218.8307774999998
 11
1447.2345160000004
 21
1225.4722234999999
  0
LINE
  8
_0-0_LAYER001
  6
CONTINUOUS
 62
    1
 10
1439.6383260000007
 20
1221.4115664999999
 11
1446.2539180000003
 21
1228.0271594999999
  0
LINE
  8
_0-0_LAYER001
  6
CONTINUOUS
 62
    1
 10
1438.5255010000005
 20
1223.8342754999999
 11
1440.6781980000005
 21
1225.9869735
  0
LINE
  8
_0-0_LAYER001
  6
CONTINUOUS
 62
    1
 10
1449.9508820000005
 20
1230.1596704999999
 11
1451.4024980000004
 21
1216.6038704999999
  0
LINE
  8
_0-0_LAYER001
  6
CONTINUOUS
 62
    1
 10
1454.1147350000006
 20
1217.4360055
 11
1446.1004630000007
 21
1228.4269864999999
  0
LINE
  8
_0-0_LAYER001
  6
CONTINUOUS
 62
    1
 10
1585.5120550000001
 20
1215.5284674999998
 11
1583.2331100000001
 21
1217.8074134999999
  0
LINE
  8
_0-0_LAYER001
  6
CONTINUOUS
 62
    1
 10
1590.6124210000007
 20
1213.9636364999999
 11
1584.2137070000008
 21
1220.3623494999999
  0
LINE
  8
_0-0_LAYER001
  6
CONTINUOUS
 62
    1
 10
1592.1195080000007
 20
1215.9920824999999
 11
1585.1943040000006
 21
1222.9172864999998
  0
LINE
  8
_0-0_LAYER001
  6
CONTINUOUS
 62
    1
 10
1592.8163470000009
 20
1218.8307774999998
 11
1586.1749020000007
 21
1225.4722234999999
  0
LINE
  8
_0-0_LAYER001
  6
CONTINUOUS
 62
    1
 10
1593.7710920000009
 20
1221.4115664999999
 11
1587.1554990000004
 21
1228.0271594999999
  0
LINE
  8
_0-0_LAYER001
  6
CONTINUOUS
 62
    1
 10
1594.8839170000001
 20
1223.8342754999999
 11
1592.7312190000002
 21
1225.9869735
  0
LINE
  8
_0-0_LAYER001
  6
CONTINUOUS
 62
    1
 10
1583.4585360000001
 20
1230.1596704999999
 11
1582.0069200000007
 21
1216.6038704999999
  0
LINE
  8
_0-0_LAYER001
  6
CONTINUOUS
 62
    1
 10
1579.2946820000006
 20
1217.4360055
 11
1587.3089550000004
 21
1228.4269864999999
  0
LINE
  8
_0-0_LAYER001
  6
CONTINUOUS
 62
    1
 10
1446.1004630000007
 20
1228.4269864999999
 11
1450.7187480000007
 21
1216.3940904999999
  0
LINE
  8
_0-0_LAYER001
  6
CONTINUOUS
 62
    1
 10
1587.3089550000004
 20
1228.4269864999999
 11
1582.6906700000009
 21
1216.3940904999999
  0
LINE
  8
_0-0_LAYER001
  6
DASHED
 62
   18
 10
658.76083200000039
 20
803.52143149999984
 11
1516.0891610000008
 21
1189.3194624999999
  0
LINE
  8
_0-0_LAYER001
  6
DASHED
 62
   18
 10
2378.0643930000006
 20
801.98389249999991
 11
1517.3202570000003
 21
1189.3194624999999
  0
LINE
  8
_0-0_LAYER001
  6
CONTINUOUS
 62
   18
 10
1516.7047730000004
 20
1187.9515804999999
 11
2377.5262060000005
 21
800.58165149999991
  0
LINE
  8
_0-0_LAYER001
  6
CONTINUOUS
 62
   18
 10
1516.7047090000005
 20
1187.9515804999999
 11
659.37638000000061
 21
802.15354949999983
  0
LINE
  8
_0-0_LAYER001
  6
CONTINUOUS
 62
   18
 10
1516.7047090000005
 20
1108.9974064999999
 11
2351.6860980000001
 21
733.25550649999991
  0
LINE
  8
_0-0_LAYER001
  6
CONTINUOUS
 62
   18
 10
1516.7047090000005
 20
1108.9974064999999
 11
688.92265400000042
 21
736.49520949999987
  0
LINE
  8
_0-0_LAYER001
  6
CONTINUOUS
 62
   18
 10
1516.7047410000005
 20
1174.7925654999999
 11
2373.2195230000007
 21
789.36063149999995
  0
LINE
  8
_0-0_LAYER001
  6
CONTINUOUS
 62
   18
 10
1516.7047410000005
 20
1174.7925654999999
 11
664.30075900000065
 21
791.21049349999998
  0
LINE
  8
_0-0_LAYER001
  6
CONTINUOUS
 62
   18
 10
1516.7047090000005
 20
1187.9515804999999
 11
1516.7047090000005
 21
1108.9974064999999
  0
LINE
  8
_0-0_LAYER001
  6
CONTINUOUS
 62
   18
 10
1578.1024320000006
 20
1081.3684105
 11
1578.1024320000006
 21
966.20640049999997
  0
LINE
  8
_0-0_LAYER001
  6
CONTINUOUS
 62
   18
 10
1578.1024320000006
 20
966.20640049999997
 11
1458.1024320000006
 21
966.20640049999997
  0
LINE
  8
_0-0_LAYER001
  6
CONTINUOUS
 62
   18
 10
1458.1024320000006
 20
966.20640049999997
 11
1458.1024320000006
 21
1082.6263635
  0
LINE
  8
_0-0_LAYER001
  6
CONTINUOUS
 62
   18
 10
1578.1024320000006
 20
1081.3684105
 11
1458.1024320000006
 21
966.20640049999997
  0
LINE
  8
_0-0_LAYER001
  6
CONTINUOUS
 62
   18
 10
1578.1024320000006
 20
966.20640049999997
 11
1458.1024320000006
 21
1082.6263635
  0
LINE
  8
_0-0_LAYER001
  6
CONTINUOUS
 62
   18
 10
1922.2742760000001
 20
1057.8474815
 11
1916.9709750000002
 21
1052.5441804999998
  0
LINE
  8
_0-0_LAYER001
  6
CONTINUOUS
 62
   18
 10
1916.9709750000002
 20
1052.5441804999998
 11
1918.9121170000008
 21
1059.7886234999999
  0
LINE
  8
_0-0_LAYER001
  6
CONTINUOUS
 62
   18
 10
1916.9709750000002
 20
1052.5441804999998
 11
1978.5449760000001
 21
1159.1934784999999
  0
LINE
  8
_0-0_LAYER001
  6
CONTINUOUS
 62
   18
 10
1978.5449760000001
 20
1159.1934784999999
 11
2019.0449760000001
 21
1159.1934784999999
  0
LINE
  8
_0-0_LAYER001
  6
CONTINUOUS
 62
   18
 10
1596.6630190000005
 20
1228.8828334999998
 11
1591.3597180000006
 21
1223.5795335
  0
LINE
  8
_0-0_LAYER001
  6
CONTINUOUS
 62
   18
 10
1591.3597180000006
 20
1223.5795335
 11
1593.3008610000006
 21
1230.8239764999998
  0
LINE
  8
_0-0_LAYER001
  6
CONTINUOUS
 62
   18
 10
1591.3597180000006
 20
1223.5795335
 11
1633.9416300000003
 21
1297.3335674999998
  0
LINE
  8
_0-0_LAYER001
  6
CONTINUOUS
 62
   18
 10
1633.9416300000003
 20
1297.3335674999998
 11
1731.4416300000003
 21
1297.3335674999998
  0
LINE
  8
_0-0_LAYER001
  6
CONTINUOUS
 62
   18
 10
1487.5981160000001
 20
1162.5812584999999
 11
1485.1374280000009
 21
1165.3667954999999
  0
LINE
  8
_0-0_LAYER001
  6
CONTINUOUS
 62
   18
 10
1487.5981160000001
 20
1162.5812584999999
 11
1487.4586530000006
 21
1166.2948644999999
  0
LINE
  8
_0-0_LAYER001
  6
CONTINUOUS
 62
   18
 10
1483.1899850000009
 20
1168.1536454999998
 11
1486.8018410000004
 21
1170.3100084999999
  0
LINE
  8
_0-0_LAYER001
  6
CONTINUOUS
 62
   18
 10
1484.0588030000008
 20
1165.9824014999999
 11
1487.6704600000003
 21
1168.1387144999999
  0
LINE
  8
_0-0_LAYER001
  6
CONTINUOUS
 62
   18
 10
1456.2677990000007
 20
1249.3250074999999
 11
1450.4641180000003
 21
1247.0036074999998
  0
LINE
  8
_0-0_LAYER001
  6
CONTINUOUS
 62
   18
 10
1456.9634240000005
 20
1247.5836944999999
 11
1451.1609240000007
 21
1245.2630634999998
  0
LINE
  8
_0-0_LAYER001
  6
CONTINUOUS
 62
   18
 10
1450.4641180000003
 20
1247.0036074999998
 11
1451.1609240000007
 21
1245.2630634999998
  0
LINE
  8
_0-0_LAYER001
  6
CONTINUOUS
 62
   18
 10
1456.2677990000007
 20
1249.3250074999999
 11
1456.9634240000005
 21
1247.5836944999999
  0
LINE
  8
_0-0_LAYER001
  6
CONTINUOUS
 62
   18
 10
1453.3660060000007
 20
1248.1643445
 11
1454.0621870000004
 21
1246.4230074999998
  0
LINE
  8
_0-0_LAYER001
  6
CONTINUOUS
 62
   18
 10
1455.9209870000004
 20
1236.3281195
 11
1459.5328990000007
 21
1238.4843014999999
  0
LINE
  8
_0-0_LAYER001
  6
CONTINUOUS
 62
   18
 10
1457.0816930000005
 20
1233.4268384999998
 11
1460.6942370000006
 21
1235.5824324999999
  0
LINE
  8
_0-0_LAYER001
  6
CONTINUOUS
 62
   18
 10
1458.2429620000007
 20
1230.5249014999999
 11
1461.8547120000003
 21
1232.6812135
  0
LINE
  8
_0-0_LAYER001
  6
CONTINUOUS
 62
   18
 10
1459.4029490000007
 20
1227.6230634999999
 11
1463.0147990000005
 21
1229.7799514999999
  0
LINE
  8
_0-0_LAYER001
  6
CONTINUOUS
 62
   18
 10
1460.5636620000005
 20
1224.7224385
 11
1464.1754430000005
 21
1226.8786825
  0
LINE
  8
_0-0_LAYER001
  6
CONTINUOUS
 62
   18
 10
1461.7242370000004
 20
1221.8205134999998
 11
1465.3367740000003
 21
1223.9769074999999
  0
LINE
  8
_0-0_LAYER001
  6
CONTINUOUS
 62
   18
 10
1462.8854740000006
 20
1218.9193324999999
 11
1466.4967680000004
 21
1221.0749695
  0
LINE
  8
_0-0_LAYER001
  6
CONTINUOUS
 62
   18
 10
1464.0455560000005
 20
1216.0174445
 11
1467.6574120000005
 21
1218.1738074999998
  0
LINE
  8
_0-0_LAYER001
  6
CONTINUOUS
 62
   18
 10
1464.9143740000004
 20
1213.8462015
 11
1468.5260310000003
 21
1216.0025134999998
  0
LINE
  8
_0-0_LAYER001
  6
CONTINUOUS
 62
   18
 10
1455.9191810000007
 20
1245.1480385
 11
1487.4586530000006
 21
1166.2948644999999
  0
LINE
  8
_0-0_LAYER001
  6
CONTINUOUS
 62
   18
 10
1456.9634240000005
 20
1247.5836944999999
 11
1455.9191810000007
 21
1245.1480385
  0
LINE
  8
_0-0_LAYER001
  6
CONTINUOUS
 62
   18
 10
1453.5985180000007
 20
1244.2180194999999
 11
1485.1378500000001
 21
1165.3665794999999
  0
LINE
  8
_0-0_LAYER001
  6
CONTINUOUS
 62
   18
 10
1451.1609240000007
 20
1245.2630634999998
 11
1453.5985180000007
 21
1244.2180194999999
  0
LINE
  8
_0-0_LAYER001
  6
CONTINUOUS
 62
   18
 10
1466.0745370000004
 20
1210.9441425
 11
1469.6870750000007
 21
1213.1005364999999
  0
LINE
  8
_0-0_LAYER001
  6
CONTINUOUS
 62
   18
 10
1467.2357750000006
 20
1208.0429614999998
 11
1470.8470690000004
 21
1210.1985995
  0
LINE
  8
_0-0_LAYER001
  6
CONTINUOUS
 62
   18
 10
1468.3958560000005
 20
1205.1410744999998
 11
1472.0077120000005
 21
1207.2974365
  0
LINE
  8
_0-0_LAYER001
  6
CONTINUOUS
 62
   18
 10
1469.2646750000004
 20
1202.9698304999999
 11
1472.8763310000004
 21
1205.1261425
  0
LINE
  8
_0-0_LAYER001
  6
CONTINUOUS
 62
   18
 10
1470.4248380000004
 20
1200.0677724999998
 11
1474.0373750000003
 21
1202.2241664999999
  0
LINE
  8
_0-0_LAYER001
  6
CONTINUOUS
 62
   18
 10
1471.5860750000006
 20
1197.1665914999999
 11
1475.1973690000004
 21
1199.3222284999999
  0
LINE
  8
_0-0_LAYER001
  6
CONTINUOUS
 62
   18
 10
1472.7461560000006
 20
1194.2647035
 11
1476.3580130000005
 21
1196.4210664999998
  0
LINE
  8
_0-0_LAYER001
  6
CONTINUOUS
 62
   18
 10
1473.6149750000004
 20
1192.0934594999999
 11
1477.2266310000005
 21
1194.2497724999998
  0
LINE
  8
_0-0_LAYER001
  6
CONTINUOUS
 62
   18
 10
1474.7751380000004
 20
1189.1914015
 11
1478.3876750000009
 21
1191.3477954999998
  0
LINE
  8
_0-0_LAYER001
  6
CONTINUOUS
 62
   18
 10
1475.9363750000007
 20
1186.2902204999998
 11
1479.5476690000005
 21
1188.4458585
  0
LINE
  8
_0-0_LAYER001
  6
CONTINUOUS
 62
   18
 10
1477.0964570000006
 20
1183.3883334999998
 11
1480.7083130000001
 21
1185.5446955
  0
LINE
  8
_0-0_LAYER001
  6
CONTINUOUS
 62
   18
 10
1477.9652750000005
 20
1181.2170894999999
 11
1481.5769320000009
 21
1183.3734015
  0
LINE
  8
_0-0_LAYER001
  6
CONTINUOUS
 62
   18
 10
1479.1254380000009
 20
1178.3150314999998
 11
1482.7379760000003
 21
1180.4714245
  0
LINE
  8
_0-0_LAYER001
  6
CONTINUOUS
 62
   18
 10
1480.2866760000006
 20
1175.4138495
 11
1483.8979700000009
 21
1177.5694874999999
  0
LINE
  8
_0-0_LAYER001
  6
CONTINUOUS
 62
   18
 10
1481.4467570000006
 20
1172.5119625
 11
1485.0586130000002
 21
1174.6683244999999
  0
LINE
  8
_0-0_LAYER001
  6
CONTINUOUS
 62
   18
 10
1482.3155760000009
 20
1170.3407184999999
 11
1485.9272320000009
 21
1172.4970314999998
  0
LINE
  8
_0-0_LAYER001
  6
CONTINUOUS
 62
   18
 10
1457.6503920000005
 20
1220.4654204999999
 11
1516.7047090000005
 21
1247.0397985
  0
LINE
  8
_0-0_LAYER001
  6
CONTINUOUS
 62
   18
 10
1516.7047090000005
 20
1247.0397985
 11
1511.7803430000004
 21
1257.9828605
  0
LINE
  8
_0-0_LAYER001
  6
CONTINUOUS
 62
   18
 10
1457.6503920000005
 20
1220.4654204999999
 11
1452.7260260000007
 21
1231.4084825
  0
LINE
  8
_0-0_LAYER001
  6
CONTINUOUS
 62
   18
 10
1511.7803430000004
 20
1257.9828605
 11
1457.6503920000005
 21
1220.4654204999999
  0
LINE
  8
_0-0_LAYER001
  6
CONTINUOUS
 62
   18
 10
1575.7590260000006
 20
1220.4654204999999
 11
1516.7047090000005
 21
1247.0397985
  0
LINE
  8
_0-0_LAYER001
  6
CONTINUOUS
 62
   18
 10
1521.6290750000007
 20
1257.9828605
 11
1575.7590260000006
 21
1220.4654204999999
  0
LINE
  8
_0-0_LAYER001
  6
CONTINUOUS
 62
   18
 10
1575.7590260000006
 20
1220.4654204999999
 11
1580.6833920000008
 21
1231.4084825
  0
LINE
  8
_0-0_LAYER001
  6
CONTINUOUS
 62
   18
 10
1516.7047090000005
 20
1247.0397985
 11
1521.6290750000007
 21
1257.9828605
  0
LINE
  8
_0-0_LAYER001
  6
CONTINUOUS
 62
   18
 10
1577.1416180000006
 20
1249.3250074999999
 11
1582.9452990000009
 21
1247.0036074999998
  0
LINE
  8
_0-0_LAYER001
  6
CONTINUOUS
 62
   18
 10
1576.4459930000003
 20
1247.5836944999999
 11
1582.248493000001
 21
1245.2630634999998
  0
LINE
  8
_0-0_LAYER001
  6
CONTINUOUS
 62
   18
 10
1582.9452990000009
 20
1247.0036074999998
 11
1582.248493000001
 21
1245.2630634999998
  0
LINE
  8
_0-0_LAYER001
  6
CONTINUOUS
 62
   18
 10
1577.1416180000006
 20
1249.3250074999999
 11
1576.4459930000003
 21
1247.5836944999999
  0
LINE
  8
_0-0_LAYER001
  6
CONTINUOUS
 62
   18
 10
1580.0434120000009
 20
1248.1643445
 11
1579.3472310000006
 21
1246.4230074999998
  0
LINE
  8
_0-0_LAYER001
  6
CONTINUOUS
 62
   18
 10
1577.4884310000007
 20
1236.3281195
 11
1573.8765180000009
 21
1238.4843014999999
  0
LINE
  8
_0-0_LAYER001
  6
CONTINUOUS
 62
   18
 10
1576.3277240000007
 20
1233.4268384999998
 11
1572.7151810000005
 21
1235.5824324999999
  0
LINE
  8
_0-0_LAYER001
  6
CONTINUOUS
 62
   18
 10
1575.1664560000008
 20
1230.5249014999999
 11
1571.5547060000008
 21
1232.6812135
  0
LINE
  8
_0-0_LAYER001
  6
CONTINUOUS
 62
   18
 10
1574.0064680000005
 20
1227.6230634999999
 11
1570.3946180000003
 21
1229.7799514999999
  0
LINE
  8
_0-0_LAYER001
  6
CONTINUOUS
 62
   18
 10
1572.8457560000006
 20
1224.7224385
 11
1569.2339740000007
 21
1226.8786825
  0
LINE
  8
_0-0_LAYER001
  6
CONTINUOUS
 62
   18
 10
1571.6851810000007
 20
1221.8205134999998
 11
1568.0726430000004
 21
1223.9769074999999
  0
LINE
  8
_0-0_LAYER001
  6
CONTINUOUS
 62
   18
 10
1570.5239430000001
 20
1218.9193324999999
 11
1566.9126490000008
 21
1221.0749695
  0
LINE
  8
_0-0_LAYER001
  6
CONTINUOUS
 62
   18
 10
1569.3638620000002
 20
1216.0174445
 11
1565.7520060000006
 21
1218.1738074999998
  0
LINE
  8
_0-0_LAYER001
  6
CONTINUOUS
 62
   18
 10
1568.4950430000008
 20
1213.8462015
 11
1564.8833870000008
 21
1216.0025134999998
  0
LINE
  8
_0-0_LAYER001
  6
CONTINUOUS
 62
   18
 10
1577.4902370000009
 20
1245.1480385
 11
1545.9507640000002
 21
1166.2948644999999
  0
LINE
  8
_0-0_LAYER001
  6
CONTINUOUS
 62
   18
 10
1576.4459930000003
 20
1247.5836944999999
 11
1577.4902370000009
 21
1245.1480385
  0
LINE
  8
_0-0_LAYER001
  6
CONTINUOUS
 62
   18
 10
1579.8108990000001
 20
1244.2180194999999
 11
1548.2715670000007
 21
1165.3665794999999
  0
LINE
  8
_0-0_LAYER001
  6
CONTINUOUS
 62
   18
 10
1582.248493000001
 20
1245.2630634999998
 11
1579.8108990000001
 21
1244.2180194999999
  0
LINE
  8
_0-0_LAYER001
  6
CONTINUOUS
 62
   18
 10
1545.8113020000001
 20
1162.5812584999999
 11
1548.2719890000008
 21
1165.3667954999999
  0
LINE
  8
_0-0_LAYER001
  6
CONTINUOUS
 62
   18
 10
1545.8113020000001
 20
1162.5812584999999
 11
1545.9507640000002
 21
1166.2948644999999
  0
LINE
  8
_0-0_LAYER001
  6
CONTINUOUS
 62
   18
 10
1550.2194330000002
 20
1168.1536454999998
 11
1546.6075770000007
 21
1170.3100084999999
  0
LINE
  8
_0-0_LAYER001
  6
CONTINUOUS
 62
   18
 10
1549.3506140000009
 20
1165.9824014999999
 11
1545.7389580000008
 21
1168.1387144999999
  0
LINE
  8
_0-0_LAYER001
  6
CONTINUOUS
 62
   18
 10
1567.3348800000003
 20
1210.9441425
 11
1563.7223430000004
 21
1213.1005364999999
  0
LINE
  8
_0-0_LAYER001
  6
CONTINUOUS
 62
   18
 10
1566.1736430000001
 20
1208.0429614999998
 11
1562.5623490000007
 21
1210.1985995
  0
LINE
  8
_0-0_LAYER001
  6
CONTINUOUS
 62
   18
 10
1565.0135620000001
 20
1205.1410744999998
 11
1561.4017050000002
 21
1207.2974365
  0
LINE
  8
_0-0_LAYER001
  6
CONTINUOUS
 62
   18
 10
1564.1447430000007
 20
1202.9698304999999
 11
1560.5330870000007
 21
1205.1261425
  0
LINE
  8
_0-0_LAYER001
  6
CONTINUOUS
 62
   18
 10
1562.9845800000003
 20
1200.0677724999998
 11
1559.3720430000003
 21
1202.2241664999999
  0
LINE
  8
_0-0_LAYER001
  6
CONTINUOUS
 62
   18
 10
1561.8233430000009
 20
1197.1665914999999
 11
1558.2120490000007
 21
1199.3222284999999
  0
LINE
  8
_0-0_LAYER001
  6
CONTINUOUS
 62
   18
 10
1560.6632610000006
 20
1194.2647035
 11
1557.0514050000002
 21
1196.4210664999998
  0
LINE
  8
_0-0_LAYER001
  6
CONTINUOUS
 62
   18
 10
1559.7944430000007
 20
1192.0934594999999
 11
1556.1827860000003
 21
1194.2497724999998
  0
LINE
  8
_0-0_LAYER001
  6
CONTINUOUS
 62
   18
 10
1558.6342800000002
 20
1189.1914015
 11
1555.0217420000008
 21
1191.3477954999998
  0
LINE
  8
_0-0_LAYER001
  6
CONTINUOUS
 62
   18
 10
1557.4730420000005
 20
1186.2902204999998
 11
1553.8617480000003
 21
1188.4458585
  0
LINE
  8
_0-0_LAYER001
  6
CONTINUOUS
 62
   18
 10
1556.3129610000005
 20
1183.3883334999998
 11
1552.7011050000001
 21
1185.5446955
  0
LINE
  8
_0-0_LAYER001
  6
CONTINUOUS
 62
   18
 10
1555.4441420000003
 20
1181.2170894999999
 11
1551.8324860000002
 21
1183.3734015
  0
LINE
  8
_0-0_LAYER001
  6
CONTINUOUS
 62
   18
 10
1554.2839790000007
 20
1178.3150314999998
 11
1550.6714420000008
 21
1180.4714245
  0
LINE
  8
_0-0_LAYER001
  6
CONTINUOUS
 62
   18
 10
1553.1227420000005
 20
1175.4138495
 11
1549.5114480000002
 21
1177.5694874999999
  0
LINE
  8
_0-0_LAYER001
  6
CONTINUOUS
 62
   18
 10
1551.9626610000005
 20
1172.5119625
 11
1548.3508040000006
 21
1174.6683244999999
  0
LINE
  8
_0-0_LAYER001
  6
CONTINUOUS
 62
   18
 10
1551.0938420000002
 20
1170.3407184999999
 11
1547.4821860000002
 21
1172.4970314999998
  0
LINE
  8
_0-0_LAYER001
  6
CONTINUOUS
 62
   18
 10
1423.9180240000005
 20
1238.1834464999999
 11
1432.1253010000005
 21
1219.9450084999999
  0
LINE
  8
_0-0_LAYER001
  6
CONTINUOUS
 62
   18
 10
1609.6354350000001
 20
1238.1186275
 11
1601.4281580000006
 21
1219.8801904999998
  0
LINE
  8
_0-0_LAYER001
  6
CONTINUOUS
 62
   18
 10
1428.1111080000005
 20
1229.4689504999999
 11
1427.1352080000006
 21
1230.1586064999999
  0
LINE
  8
_0-0_LAYER001
  6
CONTINUOUS
 62
   18
 10
1428.6776020000007
 20
1226.5630564999999
 11
1427.1352080000006
 21
1230.1586064999999
  0
LINE
  8
_0-0_LAYER001
  6
CONTINUOUS
 62
   18
 10
1428.8503020000003
 20
1227.7457815
 11
1428.6776020000007
 21
1226.5630564999999
  0
LINE
  8
_0-0_LAYER001
  6
CONTINUOUS
 62
   18
 10
1435.9323080000004
 20
1230.7839564999999
 11
1439.3939960000007
 21
1233.2888384999999
  0
LINE
  8
_0-0_LAYER001
  6
CONTINUOUS
 62
   18
 10
1428.8503020000003
 20
1227.7457815
 11
1435.9323080000004
 21
1230.7839564999999
  0
LINE
  8
_0-0_LAYER001
  6
CONTINUOUS
 62
   18
 10
1439.3939960000007
 20
1233.2888384999999
 11
1434.7284580000005
 21
1232.3078504999999
  0
LINE
  8
_0-0_LAYER001
  6
CONTINUOUS
 62
   18
 10
1428.1111080000005
 20
1229.4689504999999
 11
1434.7284580000005
 21
1232.3078504999999
  0
LINE
  8
_0-0_LAYER001
  6
CONTINUOUS
 62
   18
 10
1605.2983100000001
 20
1229.4689504999999
 11
1606.2742100000005
 21
1230.1586064999999
  0
LINE
  8
_0-0_LAYER001
  6
CONTINUOUS
 62
   18
 10
1604.7318160000004
 20
1226.5630564999999
 11
1606.2742100000005
 21
1230.1586064999999
  0
LINE
  8
_0-0_LAYER001
  6
CONTINUOUS
 62
   18
 10
1604.5591160000004
 20
1227.7457815
 11
1604.7318160000004
 21
1226.5630564999999
  0
LINE
  8
_0-0_LAYER001
  6
CONTINUOUS
 62
   18
 10
1597.4771100000007
 20
1230.7839564999999
 11
1594.0154220000004
 21
1233.2888384999999
  0
LINE
  8
_0-0_LAYER001
  6
CONTINUOUS
 62
   18
 10
1604.5591160000004
 20
1227.7457815
 11
1597.4771100000007
 21
1230.7839564999999
  0
LINE
  8
_0-0_LAYER001
  6
CONTINUOUS
 62
   18
 10
1594.0154220000004
 20
1233.2888384999999
 11
1598.6809600000006
 21
1232.3078504999999
  0
LINE
  8
_0-0_LAYER001
  6
CONTINUOUS
 62
   18
 10
1605.2983100000001
 20
1229.4689504999999
 11
1598.6809600000006
 21
1232.3078504999999
  0
LINE
  8
_0-0_LAYER001
  6
CONTINUOUS
 62
   18
 10
1535.1005390000009
 20
1279.1002584999999
 11
1529.7972380000001
 21
1273.7969584999998
  0
LINE
  8
_0-0_LAYER001
  6
CONTINUOUS
 62
   18
 10
1529.7972380000001
 20
1273.7969584999998
 11
1531.7383810000001
 21
1281.0414014999997
  0
LINE
  8
_0-0_LAYER001
  6
CONTINUOUS
 62
   18
 10
1529.7972380000001
 20
1273.7969584999998
 11
1612.9008980000008
 21
1417.7367194999999
  0
LINE
  8
_0-0_LAYER001
  6
CONTINUOUS
 62
   18
 10
1612.9008980000008
 20
1417.7367194999999
 11
1846.9008980000008
 21
1417.7367194999999
  0
LINE
  8
_0-0_LAYER001
  6
CONTINUOUS
 62
   18
 10
703.99425000000065
 20
826.88194950000002
 11
731.56471400000055
 21
838.70859350000001
  0
LINE
  8
_0-0_LAYER001
  6
CONTINUOUS
 62
   18
 10
731.56471400000055
 20
838.70859350000001
 11
725.65139200000067
 21
852.49382549999996
  0
LINE
  8
_0-0_LAYER001
  6
CONTINUOUS
 62
   18
 10
725.65139200000067
 20
852.49382549999996
 11
698.08092800000043
 21
840.66718149999997
  0
LINE
  8
_0-0_LAYER001
  6
CONTINUOUS
 62
   18
 10
698.08092800000043
 20
840.66718149999997
 11
703.99425000000065
 21
826.88194950000002
  0
LINE
  8
_0-0_LAYER001
  6
CONTINUOUS
 62
   18
 10
725.65139200000067
 20
852.49382549999996
 11
703.99425000000065
 21
826.88194950000002
  0
LINE
  8
_0-0_LAYER001
  6
CONTINUOUS
 62
   18
 10
959.0019140000004
 20
941.44546249999985
 11
986.66941600000064
 21
953.04327949999993
  0
LINE
  8
_0-0_LAYER001
  6
CONTINUOUS
 62
   18
 10
986.66941600000064
 20
953.04327949999993
 11
980.87050800000043
 21
966.87703049999982
  0
LINE
  8
_0-0_LAYER001
  6
CONTINUOUS
 62
   18
 10
980.87050800000043
 20
966.87703049999982
 11
953.20300600000064
 21
955.27921349999997
  0
LINE
  8
_0-0_LAYER001
  6
CONTINUOUS
 62
   18
 10
953.20300600000064
 20
955.27921349999997
 11
959.0019140000004
 21
941.44546249999985
  0
LINE
  8
_0-0_LAYER001
  6
CONTINUOUS
 62
   18
 10
980.87050800000043
 20
966.87703049999982
 11
959.0019140000004
 21
941.44546249999985
  0
LINE
  8
_0-0_LAYER001
  6
CONTINUOUS
 62
   18
 10
1214.3207480000005
 20
1056.3902114999999
 11
1241.9882500000003
 21
1067.9880274999998
  0
LINE
  8
_0-0_LAYER001
  6
CONTINUOUS
 62
   18
 10
1241.9882500000003
 20
1067.9880274999998
 11
1236.1893420000006
 21
1081.8217784999999
  0
LINE
  8
_0-0_LAYER001
  6
CONTINUOUS
 62
   18
 10
1236.1893420000006
 20
1081.8217784999999
 11
1208.5218400000003
 21
1070.2239625
  0
LINE
  8
_0-0_LAYER001
  6
CONTINUOUS
 62
   18
 10
1208.5218400000003
 20
1070.2239625
 11
1214.3207480000005
 21
1056.3902114999999
  0
LINE
  8
_0-0_LAYER001
  6
CONTINUOUS
 62
   18
 10
1236.1893420000006
 20
1081.8217784999999
 11
1214.3207480000005
 21
1056.3902114999999
  0
LINE
  8
_0-0_LAYER001
  6
CONTINUOUS
 62
   18
 10
1469.6395820000007
 20
1171.3349595
 11
1497.3070840000009
 21
1182.9327764999998
  0
LINE
  8
_0-0_LAYER001
  6
CONTINUOUS
 62
   18
 10
1497.3070840000009
 20
1182.9327764999998
 11
1491.5081760000003
 21
1196.7665264999998
  0
LINE
  8
_0-0_LAYER001
  6
CONTINUOUS
 62
   18
 10
1491.5081760000003
 20
1196.7665264999998
 11
1463.8406740000005
 21
1185.1687104999999
  0
LINE
  8
_0-0_LAYER001
  6
CONTINUOUS
 62
   18
 10
1463.8406740000005
 20
1185.1687104999999
 11
1469.6395820000007
 21
1171.3349595
  0
LINE
  8
_0-0_LAYER001
  6
CONTINUOUS
 62
   18
 10
1491.5081760000003
 20
1196.7665264999998
 11
1469.6395820000007
 21
1171.3349595
  0
LINE
  8
_0-0_LAYER001
  6
CONTINUOUS
 62
   18
 10
571.68543100000034
 20
997.02218249999987
 11
593.53201000000024
 21
1006.8531194999998
  0
CIRCLE
  8
_0-0_LAYER001
  6
CONTINUOUS
 62
   18
 10
593.53201000000024
 20
1006.8531194999998
 40
1.6999999999999997
  0
LINE
  8
_0-0_LAYER001
  6
CONTINUOUS
 62
   18
 10
592.50610000000052
 20
1009.1329234999998
 11
614.05020200000035
 21
961.25702549999983
  0
LINE
  8
_0-0_LAYER001
  6
CONTINUOUS
 62
   18
 10
584.29882300000054
 20
1027.3713614999999
 11
605.84292500000049
 21
979.4954624999998
  0
CIRCLE
  8
_0-0_LAYER001
  6
CONTINUOUS
 62
   18
 10
585.32473300000038
 20
1025.0915565
 40
1.6999999999999997
  0
LINE
  8
_0-0_LAYER001
  6
CONTINUOUS
 62
   18
 10
585.32473300000038
 20
1025.0915565
 11
840.66285900000048
 21
1139.9934344999999
  0
CIRCLE
  8
_0-0_LAYER001
  6
CONTINUOUS
 62
   18
 10
840.66285900000048
 20
1139.9934344999999
 40
1.6999999999999997
  0
LINE
  8
_0-0_LAYER001
  6
CONTINUOUS
 62
   18
 10
839.63694900000064
 20
1142.2732394999998
 11
861.18105100000048
 21
1094.3973404999999
  0
LINE
  8
_0-0_LAYER001
  6
CONTINUOUS
 62
   18
 10
831.42967200000066
 20
1160.5116774999999
 11
852.9737740000005
 21
1112.6357785
  0
CIRCLE
  8
_0-0_LAYER001
  6
CONTINUOUS
 62
   18
 10
832.45558200000062
 20
1158.2318725
 40
1.6999999999999997
  0
LINE
  8
_0-0_LAYER001
  6
CONTINUOUS
 62
   18
 10
832.45558200000062
 20
1158.2318725
 11
1087.7937070000007
 21
1273.1337504999999
  0
CIRCLE
  8
_0-0_LAYER001
  6
CONTINUOUS
 62
   18
 10
1087.7937070000007
 20
1273.1337504999999
 40
1.6999999999999997
  0
LINE
  8
_0-0_LAYER001
  6
CONTINUOUS
 62
   18
 10
1086.7677980000003
 20
1275.4135554999998
 11
1108.3119000000006
 21
1227.5376564999999
  0
LINE
  8
_0-0_LAYER001
  6
CONTINUOUS
 62
   18
 10
1078.5605210000003
 20
1293.6519924999998
 11
1100.1046230000006
 21
1245.7760945
  0
CIRCLE
  8
_0-0_LAYER001
  6
CONTINUOUS
 62
   18
 10
1079.5864300000003
 20
1291.3721874999999
 40
1.6999999999999997
  0
LINE
  8
_0-0_LAYER001
  6
CONTINUOUS
 62
   18
 10
1079.5864300000003
 20
1291.3721874999999
 11
1334.9245560000004
 21
1406.2740664999999
  0
CIRCLE
  8
_0-0_LAYER001
  6
CONTINUOUS
 62
   18
 10
1334.9245560000004
 20
1406.2740664999999
 40
1.6999999999999997
  0
LINE
  8
_0-0_LAYER001
  6
CONTINUOUS
 62
   18
 10
1333.8986460000006
 20
1408.5538704999999
 11
1355.4427480000004
 21
1360.6779724999999
  0
LINE
  8
_0-0_LAYER001
  6
CONTINUOUS
 62
   18
 10
2329.4151680000004
 20
826.88194950000002
 11
2301.8447040000001
 21
838.70859350000001
  0
LINE
  8
_0-0_LAYER001
  6
CONTINUOUS
 62
   18
 10
2301.8447040000001
 20
838.70859350000001
 11
2307.7580260000004
 21
852.49382549999996
  0
LINE
  8
_0-0_LAYER001
  6
CONTINUOUS
 62
   18
 10
2307.7580260000004
 20
852.49382549999996
 11
2335.3284900000008
 21
840.66718149999997
  0
LINE
  8
_0-0_LAYER001
  6
CONTINUOUS
 62
   18
 10
2335.3284900000008
 20
840.66718149999997
 11
2329.4151680000004
 21
826.88194950000002
  0
LINE
  8
_0-0_LAYER001
  6
CONTINUOUS
 62
   18
 10
2307.7580260000004
 20
852.49382549999996
 11
2329.4151680000004
 21
826.88194950000002
  0
LINE
  8
_0-0_LAYER001
  6
CONTINUOUS
 62
   18
 10
2074.4075040000007
 20
941.44546249999985
 11
2046.7400020000005
 21
953.04327949999993
  0
LINE
  8
_0-0_LAYER001
  6
CONTINUOUS
 62
   18
 10
2046.7400020000005
 20
953.04327949999993
 11
2052.5389100000002
 21
966.87703049999982
  0
LINE
  8
_0-0_LAYER001
  6
CONTINUOUS
 62
   18
 10
2052.5389100000002
 20
966.87703049999982
 11
2080.2064120000005
 21
955.27921349999997
  0
LINE
  8
_0-0_LAYER001
  6
CONTINUOUS
 62
   18
 10
2080.2064120000005
 20
955.27921349999997
 11
2074.4075040000007
 21
941.44546249999985
  0
LINE
  8
_0-0_LAYER001
  6
CONTINUOUS
 62
   18
 10
2052.5389100000002
 20
966.87703049999982
 11
2074.4075040000007
 21
941.44546249999985
  0
LINE
  8
_0-0_LAYER001
  6
CONTINUOUS
 62
   18
 10
1819.0886700000001
 20
1056.3902114999999
 11
1791.4211680000008
 21
1067.9880274999998
  0
LINE
  8
_0-0_LAYER001
  6
CONTINUOUS
 62
   18
 10
1791.4211680000008
 20
1067.9880274999998
 11
1797.2200760000005
 21
1081.8217784999999
  0
LINE
  8
_0-0_LAYER001
  6
CONTINUOUS
 62
   18
 10
1797.2200760000005
 20
1081.8217784999999
 11
1824.8875780000008
 21
1070.2239625
  0
LINE
  8
_0-0_LAYER001
  6
CONTINUOUS
 62
   18
 10
1824.8875780000008
 20
1070.2239625
 11
1819.0886700000001
 21
1056.3902114999999
  0
LINE
  8
_0-0_LAYER001
  6
CONTINUOUS
 62
   18
 10
1797.2200760000005
 20
1081.8217784999999
 11
1819.0886700000001
 21
1056.3902114999999
  0
LINE
  8
_0-0_LAYER001
  6
CONTINUOUS
 62
   18
 10
1563.7698360000004
 20
1171.3349595
 11
1536.1023340000002
 21
1182.9327764999998
  0
LINE
  8
_0-0_LAYER001
  6
CONTINUOUS
 62
   18
 10
1536.1023340000002
 20
1182.9327764999998
 11
1541.9012420000008
 21
1196.7665264999998
  0
LINE
  8
_0-0_LAYER001
  6
CONTINUOUS
 62
   18
 10
1541.9012420000008
 20
1196.7665264999998
 11
1569.5687440000002
 21
1185.1687104999999
  0
LINE
  8
_0-0_LAYER001
  6
CONTINUOUS
 62
   18
 10
1569.5687440000002
 20
1185.1687104999999
 11
1563.7698360000004
 21
1171.3349595
  0
LINE
  8
_0-0_LAYER001
  6
CONTINUOUS
 62
   18
 10
1541.9012420000008
 20
1196.7665264999998
 11
1563.7698360000004
 21
1171.3349595
  0
ARC
  8
_0-0_LAYER001
  6
CONTINUOUS
 62
   18
 10
1416.5085840000006
 20
1211.6827125
 40
25.186166999999998
 50
4.3726130000000003
 51
31.357462000000005
  0
ARC
  8
_0-0_LAYER001
  6
CONTINUOUS
 62
   18
 10
1616.9008340000009
 20
1211.6827125
 40
25.186166999999998
 50
148.642538
 51
175.627387
  0
LINE
  8
_0-0_LAYER001
  6
CONTINUOUS
 62
   18
 10
1433.2307710000005
 20
1222.6356395
 11
1515.3037400000003
 21
1259.5683855
  0
LINE
  8
_0-0_LAYER001
  6
CONTINUOUS
 62
   18
 10
1515.3037400000003
 20
1259.5683855
 11
1509.1482820000001
 21
1273.2472134999998
  0
LINE
  8
_0-0_LAYER001
  6
CONTINUOUS
 62
   18
 10
1509.1482820000001
 20
1273.2472134999998
 11
1427.0753130000007
 21
1236.3144674999999
  0
LINE
  8
_0-0_LAYER001
  6
CONTINUOUS
 62
   18
 10
1427.0753130000007
 20
1236.3144674999999
 11
1433.2307710000005
 21
1222.6356395
  0
LINE
  8
_0-0_LAYER001
  6
CONTINUOUS
 62
   18
 10
1433.2307710000005
 20
1222.6356395
 11
1509.1482820000001
 21
1273.2472134999998
  0
LINE
  8
_0-0_LAYER001
  6
CONTINUOUS
 62
   18
 10
1600.2781070000001
 20
1222.5908824999999
 11
1518.2051380000003
 21
1259.5236284999999
  0
LINE
  8
_0-0_LAYER001
  6
CONTINUOUS
 62
   18
 10
1518.2051380000003
 20
1259.5236284999999
 11
1524.3605950000001
 21
1273.2024564999999
  0
LINE
  8
_0-0_LAYER001
  6
CONTINUOUS
 62
   18
 10
1524.3605950000001
 20
1273.2024564999999
 11
1606.4335640000008
 21
1236.2697105
  0
LINE
  8
_0-0_LAYER001
  6
CONTINUOUS
 62
   18
 10
1606.4335640000008
 20
1236.2697105
 11
1600.2781070000001
 21
1222.5908824999999
  0
LINE
  8
_0-0_LAYER001
  6
CONTINUOUS
 62
   18
 10
1600.2781070000001
 20
1222.5908824999999
 11
1524.3605950000001
 21
1273.2024564999999
  0
LINE
  8
_0-0_LAYER001
  6
CONTINUOUS
 62
   18
 10
1449.9508820000005
 20
1230.1596704999999
 11
1454.7584830000005
 21
1217.6335124999998
  0
LINE
  8
_0-0_LAYER001
  6
CONTINUOUS
 62
   18
 10
1583.4585360000001
 20
1230.1596704999999
 11
1578.6509340000002
 21
1217.6335124999998
  0
LINE
  8
_0-0_LAYER001
  6
CONTINUOUS
 62
   18
 10
1406.6938430000005
 20
1208.5008805
 11
1416.3998590000006
 21
1207.8447414999998
  0
LINE
  8
_0-0_LAYER001
  6
CONTINUOUS
 62
   18
 10
1432.1253010000005
 20
1219.9450084999999
 11
1406.6938430000005
 21
1208.5008805
  0
LINE
  8
_0-0_LAYER001
  6
CONTINUOUS
 62
   18
 10
1626.7155750000002
 20
1208.5008805
 11
1617.0095580000007
 21
1207.8447414999998
  0
LINE
  8
_0-0_LAYER001
  6
CONTINUOUS
 62
   18
 10
1601.4281580000006
 20
1219.8801904999998
 11
1626.7155750000002
 21
1208.5008805
  0
LINE
  8
_0-0_LAYER001
  6
CONTINUOUS
 62
   18
 10
1516.7047090000005
 20
1279.9373535
 11
1423.9180240000005
 21
1238.1834464999999
  0
LINE
  8
_0-0_LAYER001
  6
CONTINUOUS
 62
   18
 10
1516.7047090000005
 20
1279.9373535
 11
1609.6354350000001
 21
1238.1186275
  0
LINE
  8
_0-0_LAYER001
  6
CONTINUOUS
 62
   18
 10
1571.6868410000006
 20
1251.1364994999999
 11
1566.3835400000007
 21
1245.8331985
  0
LINE
  8
_0-0_LAYER001
  6
CONTINUOUS
 62
   18
 10
1566.3835400000007
 20
1245.8331985
 11
1568.3246830000007
 21
1253.0776424999999
  0
LINE
  8
_0-0_LAYER001
  6
CONTINUOUS
 62
   18
 10
1566.3835400000007
 20
1245.8331985
 11
1627.8121500000007
 21
1352.2306735000002
  0
LINE
  8
_0-0_LAYER001
  6
CONTINUOUS
 62
   18
 10
1627.8121500000007
 20
1352.2306735000002
 11
1774.8121500000007
 21
1352.2306735000002
  0
LINE
  8
_0-0_LAYER001
  6
CONTINUOUS
 62
   18
 10
1487.0285600000007
 20
1095.6431304999999
 11
1547.8969000000006
 21
1095.6431304999999
  0
LINE
  8
_0-0_LAYER001
  6
CONTINUOUS
 62
   18
 10
1045.0684830000005
 20
664.76328049999984
 11
1109.7036200000007
 21
664.76328049999984
  0
LINE
  8
_0-0_LAYER001
  6
CONTINUOUS
 62
   18
 10
1037.8953020000004
 20
694.62985349999997
 11
1258.8359300000006
 21
694.62985349999997
  0
LINE
  8
_0-0_LAYER001
  6
CONTINUOUS
 62
   18
 10
1028.3522090000006
 20
724.72517549999998
 11
1269.9655680000005
 21
724.72517549999998
  0
LINE
  8
_0-0_LAYER001
  6
CONTINUOUS
 62
   18
 10
967.46064300000035
 20
946.89968249999993
 11
967.46064300000035
 21
954.39968249999993
  0
LINE
  8
_0-0_LAYER001
  6
CONTINUOUS
 62
   18
 10
967.46064300000035
 20
954.39968249999993
 11
971.21064300000035
 21
947.90449249999983
  0
LINE
  8
_0-0_LAYER001
  6
CONTINUOUS
 62
   18
 10
967.46064300000035
 20
954.39968249999993
 11
1045.0684830000005
 21
664.76328049999984
  0
LINE
  8
_0-0_LAYER001
  6
CONTINUOUS
 62
   18
 10
1020.9683710000004
 20
754.70612349999988
 11
1225.7910840000004
 21
754.70612349999988
  0
TEXT
  8
_0-0_LAYER001
 62
    7
 10
1612.6419012472375
 20
1419.3489392166098
 40
20
 41
1
 50
0
  1
棟
  0
TEXT
  8
_0-0_LAYER001
 62
    7
 10
1633.9416300000005
 20
1299.8335674999996
 40
20
 41
1
 50
0
  1
弾性シール材
  0
TEXT
  8
_0-0_LAYER001
 62
    7
 10
1045.0684830000002
 20
667.26328049999961
 40
20
 41
1
 50
0
  1
　垂木
  0
TEXT
  8
_0-0_LAYER001
 62
    7
 10
1977.0715561185984
 20
1162.7033019622138
 40
20
 41
1
 50
0
  1
桟　瓦
  0
TEXT
  8
_0-0_LAYER001
 62
    7
 10
696.30682336682435
 20
1091.9345494403137
 40
20
 41
1
 50
24.227692999999988
  1
280
  0
TEXT
  8
_0-0_LAYER001
 62
    7
 10
942.93064943208628
 20
1221.6246648711842
 40
20
 41
1
 50
24.227693000000002
  1
280
  0
TEXT
  8
_0-0_LAYER001
 62
    7
 10
1193.8066104295083
 20
1355.5669152342148
 40
20
 41
1
 50
24.227693000000002
  1
280
  0
TEXT
  8
_0-0_LAYER001
 62
    7
 10
1038.0954428202924
 20
697.58383490971619
 40
20
 41
1
 50
0
  1
　野地板：耐水合板ｔ＝１２
  0
TEXT
  8
_0-0_LAYER001
 62
    7
 10
1022.7730008598452
 20
758.87360275150468
 40
20
 41
1
 50
0
  1
　瓦桟：１５ｘ３０以上
  0
TEXT
  8
_0-0_LAYER001
 62
    7
 10
1028.3522090000004
 20
727.22517549999964
 40
20
 41
1
 50
0
  1
　下葺材：ルーフィング
  0
TEXT
  8
_0-0_LAYER001
 62
    7
 10
1633.1169389509887
 20
1359.0025795356837
 40
20
 41
1
 50
0
  1
笠木：15x90
  0
TEXT
  8
_0-0_LAYER001
 62
    7
 10
1629.4008980000003
 20
1420.2367194999997
 40
20
 41
1
 50
0
  1
押え：カラー鋼板0.35ｍｍ以上
  0
ENDSEC
  0
EOF
