  0
SECTION
  2
HEADER
  9
$ACADVER
  1
AC1009
  9
$INSBASE
 10
0
 20
0
 30
0
  9
$EXTMIN
 10
0
 20
0
  9
$EXTMAX
 10
2970
 20
2100
  9
$LIMMIN
 10
0
 20
0
  9
$LIMMAX
 10
2970
 20
2100
  9
$LTSCALE
 40
10
  0
ENDSEC
  0
SECTION
  2
TABLES
  0
TABLE
  2
LTYPE
 70
     9
  0
LTYPE
  2
CONTINUOUS
 70
    64
  3
実線
 72
    65
 73
     0
 40
0.0
  0
LTYPE
  2
DASHED1
 70
    64
  3
--  --  --  --  --  --  --  --  
 72
    65
 73
     2
 40
2.5
 49
1.25
 49
-1.25
  0
LTYPE
  2
DASHED2
 70
    64
  3
----    ----    ----    ----    
 72
    65
 73
     2
 40
5.0
 49
2.5
 49
-2.5
  0
LTYPE
  2
DASHED3
 70
    64
  3
------  ------  ------  ------  
 72
    65
 73
     2
 40
5.0
 49
3.75
 49
-1.25
  0
LTYPE
  2
CENTER1
 70
    64
  3
----- - ----- - ----- - ----- - 
 72
    65
 73
     4
 40
10.0
 49
6.25
 49
-1.25
 49
1.25
 49
-1.25
  0
LTYPE
  2
CENTER2
 70
    64
  3
----------  --  ----------  --  
 72
    65
 73
     4
 40
20.0
 49
12.5
 49
-2.5
 49
2.5
 49
-2.5
  0
LTYPE
  2
PHANTOM1
 70
    64
  3
--- - - --- - - --- - - --- - - 
 72
    65
 73
     6
 40
10.0
 49
3.25
 49
-1.25
 49
1.25
 49
-1.25
 49
1.25
 49
-1.25
  0
LTYPE
  2
PHANTOM2
 70
    64
  3
--------  -  -  --------  -  -  
 72
    65
 73
     6
 40
20.0
 49
10.0
 49
-2.5
 49
1.25
 49
-2.5
 49
1.25
 49
-2.5
  0
LTYPE
  2
DOT
 70
    64
  3
-   -   -   -   -   -   -   -   
 72
    65
 73
     2
 40
2.5
 49
0.625
 49
-1.875
  0
LTYPE
  2
DUMMY
 70
    64
  3
ダミー
 72
    65
 73
     0
 40
0.0
  0
LTYPE
  2
RAND1
 70
    64
  3
ランダム線1
 72
    65
 73
     4
 40
10.0
 49
1.0
 49
-2.0
 49
3.0
 49
-4.0
  0
LTYPE
  2
RAND2
 70
    64
  3
ランダム線2
 72
    65
 73
     4
 40
14.0
 49
2.0
 49
-3.0
 49
4.0
 49
-5.0
  0
LTYPE
  2
RAND3
 70
    64
  3
ランダム線3
 72
    65
 73
     4
 40
18.0
 49
3.0
 49
-4.0
 49
5.0
 49
-6.0
  0
LTYPE
  2
RAND4
 70
    64
  3
ランダム線4
 72
    65
 73
     4
 40
22.0
 49
4.0
 49
-5.0
 49
6.0
 49
-7.0
  0
LTYPE
  2
RAND5
 70
    64
  3
ランダム線5
 72
    65
 73
     4
 40
26.0
 49
5.0
 49
-6.0
 49
7.0
 49
-8.0
  0
LTYPE
  2
LONG1
 70
    64
  3
----------  --  ----------  --  
 72
    65
 73
     4
 40
40.0
 49
32.5
 49
-2.5
 49
2.5
 49
-2.5
  0
LTYPE
  2
LONG2
 70
    64
  3
--------  -  -  --------  -  -  
 72
    65
 73
     6
 40
40.0
 49
30.0
 49
-2.5
 49
1.25
 49
-2.5
 49
1.25
 49
-2.5
  0
LTYPE
  2
LONG3
 70
    64
  3
+++++++++++++++..+++++++++++++++
 72
    65
 73
     2
 40
40.0
 49
37.5
 49
-2.5
  0
LTYPE
  2
LONG4
 70
    64
  3
+++++++++++++++..+++++++++++++++
 72
    65
 73
     2
 40
80.0
 49
75.0
 49
-5.0
  0
LTYPE
  2
LONG5
 70
    64
  3
----------  --  ----------  --  
 72
    65
 73
     4
 40
60.0
 49
37.5
 49
-7.5
 49
7.5
 49
-7.5
  0
LTYPE
  2
dashed
 70
   64
  3
-------   -------------   ------
 72
   65
 73
    2
 40
7.5
 49
6
 49
-1.5
  0
LTYPE
  2
dashed_spaced
 70
   64
  3
----        --------        ----
 72
   65
 73
    2
 40
12
 49
6
 49
-6
  0
LTYPE
  2
long_dashed_dotted
 70
   64
  3
------------- --- --------------
 72
   65
 73
    4
 40
15.25
 49
12
 49
-1.5
 49
0.25
 49
-1.5
  0
LTYPE
  2
long_dashed_double-dotted
 70
   64
  3
----------- --- --- ------------
 72
   65
 73
    6
 40
17
 49
12
 49
-1.5
 49
0.25
 49
-1.5
 49
0.25
 49
-1.5
  0
LTYPE
  2
long_dashed_triplicate-dotted
 70
   64
  3
--------- --- --- --- ----------
 72
   65
 73
    8
 40
18.75
 49
12
 49
-1.5
 49
0.25
 49
-1.5
 49
0.25
 49
-1.5
 49
0.25
 49
-1.5
  0
LTYPE
  2
dotted
 70
   64
  3
   -       -       -       -    
 72
   65
 73
    2
 40
1.75
 49
0.25
 49
-1.5
  0
LTYPE
  2
chain
 70
   64
  3
-------------- -- --------------
 72
   65
 73
    4
 40
18.5
 49
12
 49
-1.5
 49
3.5
 49
-1.5
  0
LTYPE
  2
chain_double_dash
 70
   64
  3
------------ -- -- -------------
 72
   65
 73
    6
 40
23.5
 49
12
 49
-1.5
 49
3.5
 49
-1.5
 49
3.5
 49
-1.5
  0
LTYPE
  2
dashed_dotted
 70
   64
  3
-----------     -     ----------
 72
   65
 73
    4
 40
9.25
 49
6
 49
-1.5
 49
0.25
 49
-1.5
  0
LTYPE
  2
double-dashed_dotted
 70
   64
  3
------   -----------   -   -----
 72
   65
 73
    6
 40
16.75
 49
6
 49
-1.5
 49
6
 49
-1.5
 49
0.25
 49
-1.5
  0
LTYPE
  2
dashed_double-dotted
 70
   64
  3
---------    -    -    ---------
 72
   65
 73
    6
 40
11
 49
6
 49
-1.5
 49
0.25
 49
-1.5
 49
0.25
 49
-1.5
  0
LTYPE
  2
double-dashed_double-dotted
 70
   64
  3
-----   ---------   -   -   ----
 72
   65
 73
    8
 40
18.5
 49
6
 49
-1.5
 49
6
 49
-1.5
 49
0.25
 49
-1.5
 49
0.25
 49
-1.5
  0
LTYPE
  2
dashed_triplicate-dotted
 70
   64
  3
-------    -    -    -    ------
 72
   65
 73
    8
 40
12.75
 49
6
 49
-1.5
 49
0.25
 49
-1.5
 49
0.25
 49
-1.5
 49
0.25
 49
-1.5
  0
LTYPE
  2
double-dashed_triplicate-dotted
 70
   64
  3
-----  ---------  -  -  -  -----
 72
   65
 73
   10
 40
20.25
 49
6
 49
-1.5
 49
6
 49
-1.5
 49
0.25
 49
-1.5
 49
0.25
 49
-1.5
 49
0.25
 49
-1.5
  0
LTYPE
  2
undefined
 70
   64
  3
--------------------------------
 72
   65
 73
    0
 40
0
  0
LTYPE
  2
HIDDEN
 70
   64
  3
----        --------        ----
 72
   65
 73
    2
 40
10
 49
5
 49
-5
  0
LTYPE
  2
DASHED
 70
   64
  3
-------   -------------   ------
 72
   65
 73
    2
 40
50
 49
40
 49
-10
  0
LTYPE
  2
CENTER
 70
   64
  3
------------   ---   -----------
 72
   65
 73
    4
 40
100
 49
70
 49
-10
 49
10
 49
-10
  0
LTYPE
  2
PHANTOM
 70
   64
  3
---------   ---   ---   --------
 72
   65
 73
    6
 40
100
 49
50
 49
-10
 49
10
 49
-10
 49
10
 49
-10
  0
ENDTAB
  0
TABLE
  2
STYLE
  5
3
100
AcDbSymbolTable
 70
     1
  0
STYLE
  5
10
100
AcDbSymbolTableRecord
100
AcDbTextStyleTableRecord
  2
STANDARD
 70
     0
 40
0.0
 41
1.0
 50
0.0
 71
     0
 42
0.2
  3
txt
  4
bigfont.shx
  0
STYLE
  5
26
100
AcDbSymbolTableRecord
100
AcDbTextStyleTableRecord
  2
TATEGAKI
 70
    68
 40
0.0
 41
1.0
 50
0.0
 71
     0
 42
1.0
  3
txt
  4
bigfont.shx
  0
ENDTAB
  0
TABLE
  2
LAYER
 70
    2
  0
LAYER
  2
_0-0_LAYER001
 70
   64
 62
    7
  6
CONTINUOUS
  0
LAYER
  2
ADD_LINE
 70
   64
 62
    7
  6
CONTINUOUS
  0
ENDTAB
  0
ENDSEC
  0
SECTION
  2
BLOCKS
  0
ENDSEC
  0
SECTION
  2
ENTITIES
  0
LINE
  8
_0-0_LAYER001
  6
CONTINUOUS
 62
    4
 10
1758.6794449999998
 20
1134.9404869999998
 11
1900.9284049999997
 21
1134.9404869999998
  0
ARC
  8
_0-0_LAYER001
  6
CONTINUOUS
 62
    4
 10
1758.6794449999998
 20
1130.102087
 40
4.8384
 50
90
 51
180
  0
LINE
  8
_0-0_LAYER001
  6
CONTINUOUS
 62
    4
 10
1753.8410449999992
 20
1108.8131269999999
 11
1753.8410449999992
 21
1130.102087
  0
LINE
  8
_0-0_LAYER001
  6
CONTINUOUS
 62
    4
 10
1753.8410449999992
 20
1108.8131269999999
 11
1761.5824849999999
 21
1108.8131269999999
  0
LINE
  8
_0-0_LAYER001
  6
CONTINUOUS
 62
    4
 10
1761.5824849999999
 20
1110.7484869999998
 11
1761.5824849999999
 21
1108.8131269999999
  0
LINE
  8
_0-0_LAYER001
  6
CONTINUOUS
 62
    4
 10
1884.4778449999994
 20
1110.7484869999998
 11
1761.5824849999999
 21
1110.7484869999998
  0
LINE
  8
_0-0_LAYER001
  6
CONTINUOUS
 62
    4
 10
1900.9284049999997
 20
1047.8873139999998
 11
1900.9284049999997
 21
1134.9404869999998
  0
ARC
  8
_0-0_LAYER001
  6
CONTINUOUS
 62
    4
 10
1896.090005
 20
1047.8873139999998
 40
4.8384
 50
270
 51
0
  0
LINE
  8
_0-0_LAYER001
  6
CONTINUOUS
 62
    4
 10
1884.4778449999994
 20
1043.048914
 11
1896.090005
 21
1043.048914
  0
LINE
  8
_0-0_LAYER001
  6
CONTINUOUS
 62
    4
 10
1884.4778449999994
 20
1110.7484869999998
 11
1884.4778449999994
 21
1043.048914
  0
LINE
  8
_0-0_LAYER001
  6
CONTINUOUS
 62
    4
 10
1834.4797369999997
 20
1108.7516869999999
 11
1834.4797369999997
 21
1086.786887
  0
LINE
  8
_0-0_LAYER001
  6
CONTINUOUS
 62
    3
 10
1812.4810449999995
 20
1054.8380869999999
 11
1882.4810449999995
 21
1054.8380869999999
  0
LINE
  8
_0-0_LAYER001
  6
CONTINUOUS
 62
    3
 10
1882.4810449999995
 20
1054.8380869999999
 11
1882.4810449999995
 21
1094.8380869999999
  0
LINE
  8
_0-0_LAYER001
  6
CONTINUOUS
 62
    3
 10
1861.5146449999993
 20
962.10103000000004
 11
1861.5146449999993
 21
982.06902999999988
  0
LINE
  8
_0-0_LAYER001
  6
CONTINUOUS
 62
    3
 10
1861.5146449999993
 20
982.06902999999988
 11
1871.4986449999997
 21
982.06902999999988
  0
LINE
  8
_0-0_LAYER001
  6
CONTINUOUS
 62
    3
 10
1871.4986449999997
 20
982.06902999999988
 11
1871.4986449999997
 21
992.05303000000004
  0
LINE
  8
_0-0_LAYER001
  6
CONTINUOUS
 62
    3
 10
1871.4986449999997
 20
992.05303000000004
 11
1861.5146449999993
 21
992.05303000000004
  0
LINE
  8
_0-0_LAYER001
  6
CONTINUOUS
 62
    3
 10
1861.5146449999993
 20
992.05303000000004
 11
1861.5146449999993
 21
1012.0210299999999
  0
LINE
  8
_0-0_LAYER001
  6
CONTINUOUS
 62
    3
 10
1861.5146449999993
 20
1012.0210299999999
 11
1871.4986449999997
 21
1012.0210299999999
  0
LINE
  8
_0-0_LAYER001
  6
CONTINUOUS
 62
    3
 10
1871.4986449999997
 20
1012.0210299999999
 11
1871.4986449999997
 21
1022.00503
  0
LINE
  8
_0-0_LAYER001
  6
CONTINUOUS
 62
    3
 10
1871.4986449999997
 20
1022.00503
 11
1861.5146449999993
 21
1022.00503
  0
LINE
  8
_0-0_LAYER001
  6
CONTINUOUS
 62
    3
 10
1861.5146449999993
 20
1022.00503
 11
1861.5146449999993
 21
1054.8380869999999
  0
LINE
  8
_0-0_LAYER001
  6
CONTINUOUS
 62
    3
 10
1861.5146449999993
 20
953.48880099999997
 11
1871.4986449999997
 21
953.48880099999997
  0
LINE
  8
_0-0_LAYER001
  6
CONTINUOUS
 62
    3
 10
1871.4986449999997
 20
953.48880099999997
 11
1871.4986449999997
 21
963.47280099999989
  0
LINE
  8
_0-0_LAYER001
  6
CONTINUOUS
 62
    3
 10
1871.4986449999997
 20
963.47280099999989
 11
1861.5146449999993
 21
963.47280099999989
  0
LINE
  8
_0-0_LAYER001
  6
CONTINUOUS
 62
    3
 10
1861.5146449999993
 20
963.47280099999989
 11
1861.5146449999993
 21
978.448801
  0
LINE
  8
_0-0_LAYER001
  6
HIDDEN
 62
    1
 10
1878.4504399999996
 20
1086.4304869999999
 11
1874.1941709999992
 21
1087.57095
  0
LINE
  8
_0-0_LAYER001
  6
HIDDEN
 62
    1
 10
1880.8935329999995
 20
1134.1004869999999
 11
1880.8935329999995
 21
1134.9404869999998
  0
LINE
  8
_0-0_LAYER001
  6
HIDDEN
 62
    1
 10
1880.8935329999995
 20
1134.9404869999998
 11
1872.5310409999993
 21
1134.9404869999998
  0
LINE
  8
_0-0_LAYER001
  6
HIDDEN
 62
    1
 10
1872.5310409999993
 20
1134.1004869999999
 11
1872.5310409999993
 21
1134.9404869999998
  0
LINE
  8
_0-0_LAYER001
  6
HIDDEN
 62
    1
 10
1880.8935329999995
 20
1134.1004869999999
 11
1872.5310409999993
 21
1134.1004869999999
  0
LINE
  8
_0-0_LAYER001
  6
HIDDEN
 62
    1
 10
1875.4541709999994
 20
1134.1004869999999
 11
1875.4541709999994
 21
1087.060487
  0
LINE
  8
_0-0_LAYER001
  6
HIDDEN
 62
    1
 10
1876.7141709999996
 20
1079.500487
 11
1875.4541709999994
 21
1087.060487
  0
LINE
  8
_0-0_LAYER001
  6
HIDDEN
 62
    1
 10
1877.9741709999998
 20
1087.060487
 11
1877.9741709999998
 21
1134.1004869999999
  0
LINE
  8
_0-0_LAYER001
  6
HIDDEN
 62
    1
 10
1876.7141709999996
 20
1079.500487
 11
1877.9741709999998
 21
1087.060487
  0
LINE
  8
_0-0_LAYER001
  6
HIDDEN
 62
    1
 10
1878.814171
 20
1114.8930249999999
 11
1874.6141709999993
 21
1116.0184119999999
  0
LINE
  8
_0-0_LAYER001
  6
HIDDEN
 62
    1
 10
1878.814171
 20
1113.213025
 11
1874.6141709999993
 21
1114.3384119999998
  0
LINE
  8
_0-0_LAYER001
  6
HIDDEN
 62
    1
 10
1878.814171
 20
1111.533025
 11
1874.6141709999993
 21
1112.658412
  0
LINE
  8
_0-0_LAYER001
  6
HIDDEN
 62
    1
 10
1878.814171
 20
1109.8530249999999
 11
1874.6141709999993
 21
1110.9784119999999
  0
LINE
  8
_0-0_LAYER001
  6
HIDDEN
 62
    1
 10
1878.814171
 20
1108.1730249999998
 11
1874.6141709999993
 21
1109.2984119999999
  0
LINE
  8
_0-0_LAYER001
  6
HIDDEN
 62
    1
 10
1878.814171
 20
1106.493025
 11
1874.6141709999993
 21
1107.618412
  0
LINE
  8
_0-0_LAYER001
  6
HIDDEN
 62
    1
 10
1878.814171
 20
1104.8130249999999
 11
1874.6141709999993
 21
1105.938412
  0
LINE
  8
_0-0_LAYER001
  6
HIDDEN
 62
    1
 10
1878.814171
 20
1103.1330249999999
 11
1874.6141709999993
 21
1104.2584119999999
  0
LINE
  8
_0-0_LAYER001
  6
HIDDEN
 62
    1
 10
1878.814171
 20
1101.453025
 11
1874.6141709999993
 21
1102.5784119999998
  0
LINE
  8
_0-0_LAYER001
  6
HIDDEN
 62
    1
 10
1878.814171
 20
1099.773025
 11
1874.6141709999993
 21
1100.898412
  0
LINE
  8
_0-0_LAYER001
  6
HIDDEN
 62
    1
 10
1878.814171
 20
1098.0930249999999
 11
1874.6141709999993
 21
1099.2184119999999
  0
LINE
  8
_0-0_LAYER001
  6
HIDDEN
 62
    1
 10
1878.814171
 20
1096.4130249999998
 11
1874.6141709999993
 21
1097.5384119999999
  0
LINE
  8
_0-0_LAYER001
  6
HIDDEN
 62
    1
 10
1878.814171
 20
1094.733025
 11
1874.6141709999993
 21
1095.858412
  0
LINE
  8
_0-0_LAYER001
  6
HIDDEN
 62
    1
 10
1878.814171
 20
1093.0530249999999
 11
1874.6141709999993
 21
1094.178412
  0
LINE
  8
_0-0_LAYER001
  6
HIDDEN
 62
    1
 10
1878.814171
 20
1091.3730249999999
 11
1874.6141709999993
 21
1092.4984119999999
  0
LINE
  8
_0-0_LAYER001
  6
HIDDEN
 62
    1
 10
1878.814171
 20
1089.693025
 11
1874.6141709999993
 21
1090.8184119999999
  0
LINE
  8
_0-0_LAYER001
  6
HIDDEN
 62
    1
 10
1878.814171
 20
1088.013025
 11
1874.6141709999993
 21
1089.138412
  0
LINE
  8
_0-0_LAYER001
  6
HIDDEN
 62
    1
 10
1852.4184049999994
 20
1067.2663239999999
 11
1853.5588689999995
 21
1071.522594
  0
LINE
  8
_0-0_LAYER001
  6
HIDDEN
 62
    1
 10
1900.0884049999995
 20
1064.823232
 11
1900.9284049999997
 21
1064.823232
  0
LINE
  8
_0-0_LAYER001
  6
HIDDEN
 62
    1
 10
1900.9284049999997
 20
1064.823232
 11
1900.9284049999997
 21
1073.1857239999999
  0
LINE
  8
_0-0_LAYER001
  6
HIDDEN
 62
    1
 10
1900.0884049999995
 20
1073.1857239999999
 11
1900.9284049999997
 21
1073.1857239999999
  0
LINE
  8
_0-0_LAYER001
  6
HIDDEN
 62
    1
 10
1900.0884049999995
 20
1064.823232
 11
1900.0884049999995
 21
1073.1857239999999
  0
LINE
  8
_0-0_LAYER001
  6
HIDDEN
 62
    1
 10
1900.0884049999995
 20
1070.262594
 11
1853.0484049999995
 21
1070.262594
  0
LINE
  8
_0-0_LAYER001
  6
HIDDEN
 62
    1
 10
1845.4884050000001
 20
1069.002594
 11
1853.0484049999995
 21
1070.262594
  0
LINE
  8
_0-0_LAYER001
  6
HIDDEN
 62
    1
 10
1853.0484049999995
 20
1067.7425939999998
 11
1900.0884049999995
 21
1067.7425939999998
  0
LINE
  8
_0-0_LAYER001
  6
HIDDEN
 62
    1
 10
1845.4884050000001
 20
1069.002594
 11
1853.0484049999995
 21
1067.7425939999998
  0
LINE
  8
_0-0_LAYER001
  6
HIDDEN
 62
    1
 10
1880.8809439999995
 20
1066.9025939999999
 11
1882.0063299999993
 21
1071.102594
  0
LINE
  8
_0-0_LAYER001
  6
HIDDEN
 62
    1
 10
1879.2009439999993
 20
1066.9025939999999
 11
1880.3263299999999
 21
1071.102594
  0
LINE
  8
_0-0_LAYER001
  6
HIDDEN
 62
    1
 10
1877.5209439999999
 20
1066.9025939999999
 11
1878.6463299999996
 21
1071.102594
  0
LINE
  8
_0-0_LAYER001
  6
HIDDEN
 62
    1
 10
1875.8409439999996
 20
1066.9025939999999
 11
1876.9663299999993
 21
1071.102594
  0
LINE
  8
_0-0_LAYER001
  6
HIDDEN
 62
    1
 10
1874.1609439999993
 20
1066.9025939999999
 11
1875.2863299999999
 21
1071.102594
  0
LINE
  8
_0-0_LAYER001
  6
HIDDEN
 62
    1
 10
1872.4809439999999
 20
1066.9025939999999
 11
1873.6063299999996
 21
1071.102594
  0
LINE
  8
_0-0_LAYER001
  6
HIDDEN
 62
    1
 10
1870.8009439999996
 20
1066.9025939999999
 11
1871.9263299999993
 21
1071.102594
  0
LINE
  8
_0-0_LAYER001
  6
HIDDEN
 62
    1
 10
1869.1209439999993
 20
1066.9025939999999
 11
1870.2463299999999
 21
1071.102594
  0
LINE
  8
_0-0_LAYER001
  6
HIDDEN
 62
    1
 10
1867.4409439999999
 20
1066.9025939999999
 11
1868.5663299999997
 21
1071.102594
  0
LINE
  8
_0-0_LAYER001
  6
HIDDEN
 62
    1
 10
1865.7609439999997
 20
1066.9025939999999
 11
1866.8863299999994
 21
1071.102594
  0
LINE
  8
_0-0_LAYER001
  6
HIDDEN
 62
    1
 10
1864.0809439999994
 20
1066.9025939999999
 11
1865.20633
 21
1071.102594
  0
LINE
  8
_0-0_LAYER001
  6
HIDDEN
 62
    1
 10
1862.400944
 20
1066.9025939999999
 11
1863.5263299999997
 21
1071.102594
  0
LINE
  8
_0-0_LAYER001
  6
HIDDEN
 62
    1
 10
1860.7209439999997
 20
1066.9025939999999
 11
1861.8463299999994
 21
1071.102594
  0
LINE
  8
_0-0_LAYER001
  6
HIDDEN
 62
    1
 10
1859.0409439999994
 20
1066.9025939999999
 11
1860.16633
 21
1071.102594
  0
LINE
  8
_0-0_LAYER001
  6
HIDDEN
 62
    1
 10
1857.360944
 20
1066.9025939999999
 11
1858.4863299999997
 21
1071.102594
  0
LINE
  8
_0-0_LAYER001
  6
HIDDEN
 62
    1
 10
1855.6809439999997
 20
1066.9025939999999
 11
1856.8063299999994
 21
1071.102594
  0
LINE
  8
_0-0_LAYER001
  6
HIDDEN
 62
    1
 10
1854.0009439999994
 20
1066.9025939999999
 11
1855.1263300000001
 21
1071.102594
  0
LINE
  8
_0-0_LAYER001
  6
CONTINUOUS
 62
    3
 10
1882.4810449999995
 20
1094.8380869999999
 11
1832.4810449999995
 21
1066.266658
  0
LINE
  8
_0-0_LAYER001
  6
CONTINUOUS
 62
    3
 10
1832.4810449999995
 20
1066.266658
 11
1832.4810449999995
 21
1054.8380869999999
  0
LINE
  8
_0-0_LAYER001
  6
CONTINUOUS
 62
    3
 10
1882.4810449999995
 20
877.74566099999993
 11
1876.9144809999998
 21
874.57248499999992
  0
LINE
  8
_0-0_LAYER001
  6
CONTINUOUS
 62
    3
 10
1876.9144809999998
 20
874.57248499999992
 11
1876.9144809999998
 21
850.15033500000004
  0
LINE
  8
_0-0_LAYER001
  6
CONTINUOUS
 62
    3
 10
1876.9144809999998
 20
850.15033500000004
 11
1861.5146449999993
 21
850.15033500000004
  0
LINE
  8
_0-0_LAYER001
  6
CONTINUOUS
 62
    3
 10
1861.5146449999993
 20
850.15033500000004
 11
1861.5146449999993
 21
869.80027299999983
  0
LINE
  8
_0-0_LAYER001
  6
CONTINUOUS
 62
    3
 10
1861.5146449999993
 20
869.80027299999983
 11
1866.5066459999998
 21
869.80027299999983
  0
LINE
  8
_0-0_LAYER001
  6
CONTINUOUS
 62
    3
 10
1866.5066459999998
 20
869.80027299999983
 11
1866.5066459999998
 21
879.78427299999998
  0
LINE
  8
_0-0_LAYER001
  6
CONTINUOUS
 62
    3
 10
1866.5066459999998
 20
879.78427299999998
 11
1861.5146449999993
 21
879.78427299999998
  0
LINE
  8
_0-0_LAYER001
  6
CONTINUOUS
 62
    3
 10
1882.4810449999995
 20
1054.8380869999999
 11
1882.4810449999995
 21
877.74566099999993
  0
LINE
  8
_0-0_LAYER001
  6
CONTINUOUS
 62
    3
 10
1861.5146449999993
 20
879.78427299999998
 11
1861.5146449999993
 21
953.48880099999997
  0
LINE
  8
_0-0_LAYER001
  6
CONTINUOUS
 62
    4
 10
1614.4378219999999
 20
1086.786887
 11
1608.749503
 21
1071.186029
  0
LINE
  8
_0-0_LAYER001
  6
CONTINUOUS
 62
    4
 10
1590.7181499999997
 20
1088.7836869999999
 11
1553.5146449999993
 21
1088.7836869999999
  0
LINE
  8
_0-0_LAYER001
  6
CONTINUOUS
 62
    4
 10
1590.7181499999997
 20
1088.7836869999999
 11
1597.4442449999997
 21
1070.5279369999998
  0
LINE
  8
_0-0_LAYER001
  6
CONTINUOUS
 62
    4
 10
1834.4797369999997
 20
1086.786887
 11
1796.1050679999998
 21
1086.786887
  0
LINE
  8
_0-0_LAYER001
  6
CONTINUOUS
 62
    4
 10
1788.1178679999994
 20
1086.786887
 11
1741.1930679999996
 21
1086.786887
  0
LINE
  8
_0-0_LAYER001
  6
CONTINUOUS
 62
    4
 10
1733.205868
 20
1086.786887
 11
1680.2906679999996
 21
1086.786887
  0
LINE
  8
_0-0_LAYER001
  6
CONTINUOUS
 62
    4
 10
1672.3034680000001
 20
1086.786887
 11
1614.4378219999999
 21
1086.786887
  0
LINE
  8
_0-0_LAYER001
  6
CONTINUOUS
 62
    4
 10
1819.0890449999997
 20
1108.7516869999999
 11
1819.0890449999997
 21
1105.7564869999999
  0
LINE
  8
_0-0_LAYER001
  6
CONTINUOUS
 62
    4
 10
1664.3370449999993
 20
1105.7564869999999
 11
1819.0890449999997
 21
1105.7564869999999
  0
LINE
  8
_0-0_LAYER001
  6
CONTINUOUS
 62
    4
 10
1593.4506449999999
 20
1105.7564869999999
 11
1664.3370449999993
 21
1105.7564869999999
  0
LINE
  8
_0-0_LAYER001
  6
CONTINUOUS
 62
    4
 10
1593.4506449999999
 20
1108.7516869999999
 11
1593.4506449999999
 21
1105.7564869999999
  0
LINE
  8
_0-0_LAYER001
  6
CONTINUOUS
 62
    4
 10
1593.4506449999999
 20
1108.7516869999999
 11
1553.5146449999993
 21
1108.7516869999999
  0
LINE
  8
_0-0_LAYER001
  6
CONTINUOUS
 62
    4
 10
1672.3034680000001
 20
1086.786887
 11
1672.3034680000001
 21
1075.8044869999999
  0
LINE
  8
_0-0_LAYER001
  6
CONTINUOUS
 62
    4
 10
1680.2906679999996
 20
1075.8044869999999
 11
1672.3034680000001
 21
1075.8044869999999
  0
LINE
  8
_0-0_LAYER001
  6
CONTINUOUS
 62
    4
 10
1680.2906679999996
 20
1086.786887
 11
1680.2906679999996
 21
1075.8044869999999
  0
LINE
  8
_0-0_LAYER001
  6
CONTINUOUS
 62
    4
 10
1733.205868
 20
1086.786887
 11
1733.205868
 21
1075.8044869999999
  0
LINE
  8
_0-0_LAYER001
  6
CONTINUOUS
 62
    4
 10
1741.1930679999996
 20
1075.8044869999999
 11
1733.205868
 21
1075.8044869999999
  0
LINE
  8
_0-0_LAYER001
  6
CONTINUOUS
 62
    4
 10
1741.1930679999996
 20
1086.786887
 11
1741.1930679999996
 21
1075.8044869999999
  0
LINE
  8
_0-0_LAYER001
  6
CONTINUOUS
 62
    4
 10
1788.1178679999994
 20
1086.786887
 11
1788.1178679999994
 21
1075.8044869999999
  0
LINE
  8
_0-0_LAYER001
  6
CONTINUOUS
 62
    4
 10
1796.1050679999998
 20
1075.8044869999999
 11
1788.1178679999994
 21
1075.8044869999999
  0
LINE
  8
_0-0_LAYER001
  6
CONTINUOUS
 62
    4
 10
1796.1050679999998
 20
1075.8044869999999
 11
1796.1050679999998
 21
1086.786887
  0
LINE
  8
_0-0_LAYER001
  6
CONTINUOUS
 62
    4
 10
1553.5146449999993
 20
1108.7516869999999
 11
1553.5146449999993
 21
1088.7836869999999
  0
ARC
  8
_0-0_LAYER001
  6
CONTINUOUS
 62
    4
 10
1602.9089049999993
 20
1072.809287
 40
5.9904000000000002
 50
199.47122100000004
 51
344.27761299999997
  0
LINE
  8
_0-0_LAYER001
  6
CONTINUOUS
 62
    4
 10
1834.4797369999997
 20
1108.7516869999999
 11
1819.0890449999997
 21
1108.7516869999999
  0
ARC
  8
_0-0_LAYER001
  6
CONTINUOUS
 62
    4
 10
1539.5704509999996
 20
1072.809287
 40
5.9904000000000002
 50
199.47122100000004
 51
344.27761299999997
  0
LINE
  8
_0-0_LAYER001
  6
CONTINUOUS
 62
    4
 10
1528.0410679999995
 20
1086.786887
 11
1534.0314679999992
 21
1070.5279369999998
  0
LINE
  8
_0-0_LAYER001
  6
CONTINUOUS
 62
    4
 10
1306.4378219999994
 20
1086.786887
 11
1300.7495029999995
 21
1071.186029
  0
LINE
  8
_0-0_LAYER001
  6
CONTINUOUS
 62
    4
 10
1546.6566559999992
 20
1074.8060869999999
 11
1545.3367259999995
 21
1071.186029
  0
LINE
  8
_0-0_LAYER001
  6
CONTINUOUS
 62
    4
 10
1282.7181499999997
 20
1088.7836869999999
 11
1245.5146449999997
 21
1088.7836869999999
  0
LINE
  8
_0-0_LAYER001
  6
CONTINUOUS
 62
    4
 10
1282.7181499999997
 20
1088.7836869999999
 11
1289.4442449999997
 21
1070.5279369999998
  0
LINE
  8
_0-0_LAYER001
  6
CONTINUOUS
 62
    4
 10
1528.0410679999995
 20
1086.786887
 11
1488.1050679999998
 21
1086.786887
  0
LINE
  8
_0-0_LAYER001
  6
CONTINUOUS
 62
    4
 10
1480.1178679999998
 20
1086.786887
 11
1433.1930679999996
 21
1086.786887
  0
LINE
  8
_0-0_LAYER001
  6
CONTINUOUS
 62
    4
 10
1425.2058679999996
 20
1086.786887
 11
1372.2906679999996
 21
1086.786887
  0
LINE
  8
_0-0_LAYER001
  6
CONTINUOUS
 62
    4
 10
1364.3034679999996
 20
1086.786887
 11
1306.4378219999994
 21
1086.786887
  0
LINE
  8
_0-0_LAYER001
  6
CONTINUOUS
 62
    4
 10
1511.0890449999997
 20
1108.7516869999999
 11
1511.0890449999997
 21
1105.7564869999999
  0
LINE
  8
_0-0_LAYER001
  6
CONTINUOUS
 62
    4
 10
1356.3370449999998
 20
1105.7564869999999
 11
1511.0890449999997
 21
1105.7564869999999
  0
LINE
  8
_0-0_LAYER001
  6
CONTINUOUS
 62
    4
 10
1285.4506449999994
 20
1105.7564869999999
 11
1356.3370449999998
 21
1105.7564869999999
  0
LINE
  8
_0-0_LAYER001
  6
CONTINUOUS
 62
    4
 10
1285.4506449999994
 20
1108.7516869999999
 11
1285.4506449999994
 21
1105.7564869999999
  0
LINE
  8
_0-0_LAYER001
  6
CONTINUOUS
 62
    4
 10
1285.4506449999994
 20
1108.7516869999999
 11
1245.5146449999997
 21
1108.7516869999999
  0
LINE
  8
_0-0_LAYER001
  6
CONTINUOUS
 62
    4
 10
1364.3034679999996
 20
1086.786887
 11
1364.3034679999996
 21
1075.8044869999999
  0
LINE
  8
_0-0_LAYER001
  6
CONTINUOUS
 62
    4
 10
1372.2906679999996
 20
1075.8044869999999
 11
1364.3034679999996
 21
1075.8044869999999
  0
LINE
  8
_0-0_LAYER001
  6
CONTINUOUS
 62
    4
 10
1372.2906679999996
 20
1086.786887
 11
1372.2906679999996
 21
1075.8044869999999
  0
LINE
  8
_0-0_LAYER001
  6
CONTINUOUS
 62
    4
 10
1425.2058679999996
 20
1086.786887
 11
1425.2058679999996
 21
1075.8044869999999
  0
LINE
  8
_0-0_LAYER001
  6
CONTINUOUS
 62
    4
 10
1433.1930679999996
 20
1075.8044869999999
 11
1425.2058679999996
 21
1075.8044869999999
  0
LINE
  8
_0-0_LAYER001
  6
CONTINUOUS
 62
    4
 10
1433.1930679999996
 20
1086.786887
 11
1433.1930679999996
 21
1075.8044869999999
  0
LINE
  8
_0-0_LAYER001
  6
CONTINUOUS
 62
    4
 10
1480.1178679999998
 20
1086.786887
 11
1480.1178679999998
 21
1075.8044869999999
  0
LINE
  8
_0-0_LAYER001
  6
CONTINUOUS
 62
    4
 10
1488.1050679999998
 20
1075.8044869999999
 11
1480.1178679999998
 21
1075.8044869999999
  0
LINE
  8
_0-0_LAYER001
  6
CONTINUOUS
 62
    4
 10
1488.1050679999998
 20
1075.8044869999999
 11
1488.1050679999998
 21
1086.786887
  0
LINE
  8
_0-0_LAYER001
  6
CONTINUOUS
 62
    4
 10
1245.5146449999997
 20
1108.7516869999999
 11
1245.5146449999997
 21
1088.7836869999999
  0
ARC
  8
_0-0_LAYER001
  6
CONTINUOUS
 62
    4
 10
1294.9089049999998
 20
1072.809287
 40
5.9904000000000002
 50
199.47122100000004
 51
344.27761299999997
  0
LINE
  8
_0-0_LAYER001
  6
CONTINUOUS
 62
    4
 10
1551.5146449999993
 20
1108.7516869999999
 11
1511.0890449999997
 21
1108.7516869999999
  0
LINE
  8
_0-0_LAYER001
  6
CONTINUOUS
 62
    4
 10
1551.5146449999993
 20
1108.7516869999999
 11
1551.5146449999993
 21
1086.786887
  0
LINE
  8
_0-0_LAYER001
  6
CONTINUOUS
 62
    4
 10
1551.5146449999993
 20
1108.7516869999999
 11
1551.5146449999993
 21
1088.7836869999999
  0
LINE
  8
_0-0_LAYER001
  6
CONTINUOUS
 62
    4
 10
1590.5146449999993
 20
1074.8060869999999
 11
1546.6566559999992
 21
1074.8060869999999
  0
LINE
  8
_0-0_LAYER001
  6
CONTINUOUS
 62
    4
 10
1590.5146449999993
 20
1074.8060869999999
 11
1590.5146449999993
 21
1086.786887
  0
LINE
  8
_0-0_LAYER001
  6
CONTINUOUS
 62
    4
 10
1590.5146449999993
 20
1086.786887
 11
1551.5146449999993
 21
1086.786887
  0
ARC
  8
_0-0_LAYER001
  6
CONTINUOUS
 62
    4
 10
1231.5704509999996
 20
1072.809287
 40
5.9904000000000002
 50
199.47122100000004
 51
344.27761299999997
  0
LINE
  8
_0-0_LAYER001
  6
CONTINUOUS
 62
    4
 10
1220.0410679999995
 20
1086.786887
 11
1226.0314679999997
 21
1070.5279369999998
  0
LINE
  8
_0-0_LAYER001
  6
CONTINUOUS
 62
    4
 10
998.43782199999941
 20
1086.786887
 11
992.74950299999955
 21
1071.186029
  0
LINE
  8
_0-0_LAYER001
  6
CONTINUOUS
 62
    4
 10
1238.6566559999997
 20
1074.8060869999999
 11
1237.3367259999995
 21
1071.186029
  0
LINE
  8
_0-0_LAYER001
  6
CONTINUOUS
 62
    4
 10
974.7181499999997
 20
1088.7836869999999
 11
937.51464499999975
 21
1088.7836869999999
  0
LINE
  8
_0-0_LAYER001
  6
CONTINUOUS
 62
    4
 10
974.7181499999997
 20
1088.7836869999999
 11
981.44424499999968
 21
1070.5279369999998
  0
LINE
  8
_0-0_LAYER001
  6
CONTINUOUS
 62
    4
 10
1220.0410679999995
 20
1086.786887
 11
1180.1050679999998
 21
1086.786887
  0
LINE
  8
_0-0_LAYER001
  6
CONTINUOUS
 62
    4
 10
1172.1178679999998
 20
1086.786887
 11
1125.1930679999996
 21
1086.786887
  0
LINE
  8
_0-0_LAYER001
  6
CONTINUOUS
 62
    4
 10
1117.2058679999996
 20
1086.786887
 11
1064.2906679999996
 21
1086.786887
  0
LINE
  8
_0-0_LAYER001
  6
CONTINUOUS
 62
    4
 10
1056.3034679999996
 20
1086.786887
 11
998.43782199999941
 21
1086.786887
  0
LINE
  8
_0-0_LAYER001
  6
CONTINUOUS
 62
    4
 10
1203.0890449999997
 20
1108.7516869999999
 11
1203.0890449999997
 21
1105.7564869999999
  0
LINE
  8
_0-0_LAYER001
  6
CONTINUOUS
 62
    4
 10
1048.3370449999998
 20
1105.7564869999999
 11
1203.0890449999997
 21
1105.7564869999999
  0
LINE
  8
_0-0_LAYER001
  6
CONTINUOUS
 62
    4
 10
977.45064499999944
 20
1105.7564869999999
 11
1048.3370449999998
 21
1105.7564869999999
  0
LINE
  8
_0-0_LAYER001
  6
CONTINUOUS
 62
    4
 10
977.45064499999944
 20
1108.7516869999999
 11
977.45064499999944
 21
1105.7564869999999
  0
LINE
  8
_0-0_LAYER001
  6
CONTINUOUS
 62
    4
 10
977.45064499999944
 20
1108.7516869999999
 11
937.51464499999975
 21
1108.7516869999999
  0
LINE
  8
_0-0_LAYER001
  6
CONTINUOUS
 62
    4
 10
1056.3034679999996
 20
1086.786887
 11
1056.3034679999996
 21
1075.8044869999999
  0
LINE
  8
_0-0_LAYER001
  6
CONTINUOUS
 62
    4
 10
1064.2906679999996
 20
1075.8044869999999
 11
1056.3034679999996
 21
1075.8044869999999
  0
LINE
  8
_0-0_LAYER001
  6
CONTINUOUS
 62
    4
 10
1064.2906679999996
 20
1086.786887
 11
1064.2906679999996
 21
1075.8044869999999
  0
LINE
  8
_0-0_LAYER001
  6
CONTINUOUS
 62
    4
 10
1117.2058679999996
 20
1086.786887
 11
1117.2058679999996
 21
1075.8044869999999
  0
LINE
  8
_0-0_LAYER001
  6
CONTINUOUS
 62
    4
 10
1125.1930679999996
 20
1075.8044869999999
 11
1117.2058679999996
 21
1075.8044869999999
  0
LINE
  8
_0-0_LAYER001
  6
CONTINUOUS
 62
    4
 10
1125.1930679999996
 20
1086.786887
 11
1125.1930679999996
 21
1075.8044869999999
  0
LINE
  8
_0-0_LAYER001
  6
CONTINUOUS
 62
    4
 10
1172.1178679999998
 20
1086.786887
 11
1172.1178679999998
 21
1075.8044869999999
  0
LINE
  8
_0-0_LAYER001
  6
CONTINUOUS
 62
    4
 10
1180.1050679999998
 20
1075.8044869999999
 11
1172.1178679999998
 21
1075.8044869999999
  0
LINE
  8
_0-0_LAYER001
  6
CONTINUOUS
 62
    4
 10
1180.1050679999998
 20
1075.8044869999999
 11
1180.1050679999998
 21
1086.786887
  0
LINE
  8
_0-0_LAYER001
  6
CONTINUOUS
 62
    4
 10
937.51464499999975
 20
1108.7516869999999
 11
937.51464499999975
 21
1088.7836869999999
  0
ARC
  8
_0-0_LAYER001
  6
CONTINUOUS
 62
    4
 10
986.90890499999978
 20
1072.809287
 40
5.9904000000000002
 50
199.47122100000004
 51
344.27761299999997
  0
LINE
  8
_0-0_LAYER001
  6
CONTINUOUS
 62
    4
 10
1243.5146449999997
 20
1108.7516869999999
 11
1203.0890449999997
 21
1108.7516869999999
  0
LINE
  8
_0-0_LAYER001
  6
CONTINUOUS
 62
    4
 10
1243.5146449999997
 20
1108.7516869999999
 11
1243.5146449999997
 21
1086.786887
  0
LINE
  8
_0-0_LAYER001
  6
CONTINUOUS
 62
    4
 10
1243.5146449999997
 20
1108.7516869999999
 11
1243.5146449999997
 21
1088.7836869999999
  0
LINE
  8
_0-0_LAYER001
  6
CONTINUOUS
 62
    4
 10
1282.5146449999997
 20
1074.8060869999999
 11
1238.6566559999997
 21
1074.8060869999999
  0
LINE
  8
_0-0_LAYER001
  6
CONTINUOUS
 62
    4
 10
1282.5146449999997
 20
1074.8060869999999
 11
1282.5146449999997
 21
1086.786887
  0
LINE
  8
_0-0_LAYER001
  6
CONTINUOUS
 62
    4
 10
1282.5146449999997
 20
1086.786887
 11
1243.5146449999997
 21
1086.786887
  0
ARC
  8
_0-0_LAYER001
  6
CONTINUOUS
 62
    4
 10
923.57045099999959
 20
1072.809287
 40
5.9904000000000002
 50
199.47122100000004
 51
344.27761299999997
  0
LINE
  8
_0-0_LAYER001
  6
CONTINUOUS
 62
    4
 10
912.04106799999954
 20
1086.786887
 11
918.03146799999968
 21
1070.5279369999998
  0
LINE
  8
_0-0_LAYER001
  6
CONTINUOUS
 62
    4
 10
930.65665599999966
 20
1074.8060869999999
 11
929.33672599999954
 21
1071.186029
  0
LINE
  8
_0-0_LAYER001
  6
CONTINUOUS
 62
    4
 10
912.04106799999954
 20
1086.786887
 11
872.10506799999985
 21
1086.786887
  0
LINE
  8
_0-0_LAYER001
  6
CONTINUOUS
 62
    4
 10
864.11786799999982
 20
1086.786887
 11
817.19306799999958
 21
1086.786887
  0
LINE
  8
_0-0_LAYER001
  6
CONTINUOUS
 62
    4
 10
809.20586799999955
 20
1086.786887
 11
770.88940299999967
 21
1086.786887
  0
LINE
  8
_0-0_LAYER001
  6
CONTINUOUS
 62
    4
 10
895.08904499999971
 20
1108.7516869999999
 11
895.08904499999971
 21
1105.7564869999999
  0
LINE
  8
_0-0_LAYER001
  6
CONTINUOUS
 62
    4
 10
770.88940299999967
 20
1105.7564869999999
 11
895.08904499999971
 21
1105.7564869999999
  0
LINE
  8
_0-0_LAYER001
  6
CONTINUOUS
 62
    4
 10
809.20586799999955
 20
1086.786887
 11
809.20586799999955
 21
1075.8044869999999
  0
LINE
  8
_0-0_LAYER001
  6
CONTINUOUS
 62
    4
 10
817.19306799999958
 20
1075.8044869999999
 11
809.20586799999955
 21
1075.8044869999999
  0
LINE
  8
_0-0_LAYER001
  6
CONTINUOUS
 62
    4
 10
817.19306799999958
 20
1086.786887
 11
817.19306799999958
 21
1075.8044869999999
  0
LINE
  8
_0-0_LAYER001
  6
CONTINUOUS
 62
    4
 10
864.11786799999982
 20
1086.786887
 11
864.11786799999982
 21
1075.8044869999999
  0
LINE
  8
_0-0_LAYER001
  6
CONTINUOUS
 62
    4
 10
872.10506799999985
 20
1075.8044869999999
 11
864.11786799999982
 21
1075.8044869999999
  0
LINE
  8
_0-0_LAYER001
  6
CONTINUOUS
 62
    4
 10
872.10506799999985
 20
1075.8044869999999
 11
872.10506799999985
 21
1086.786887
  0
LINE
  8
_0-0_LAYER001
  6
CONTINUOUS
 62
    4
 10
935.51464499999975
 20
1108.7516869999999
 11
895.08904499999971
 21
1108.7516869999999
  0
LINE
  8
_0-0_LAYER001
  6
CONTINUOUS
 62
    4
 10
935.51464499999975
 20
1108.7516869999999
 11
935.51464499999975
 21
1086.786887
  0
LINE
  8
_0-0_LAYER001
  6
CONTINUOUS
 62
    4
 10
935.51464499999975
 20
1108.7516869999999
 11
935.51464499999975
 21
1088.7836869999999
  0
LINE
  8
_0-0_LAYER001
  6
CONTINUOUS
 62
    4
 10
974.51464499999975
 20
1074.8060869999999
 11
930.65665599999966
 21
1074.8060869999999
  0
LINE
  8
_0-0_LAYER001
  6
CONTINUOUS
 62
    4
 10
974.51464499999975
 20
1074.8060869999999
 11
974.51464499999975
 21
1086.786887
  0
LINE
  8
_0-0_LAYER001
  6
CONTINUOUS
 62
    4
 10
974.51464499999975
 20
1086.786887
 11
935.51464499999975
 21
1086.786887
  0
LINE
  8
_0-0_LAYER001
  6
CONTINUOUS
 62
   18
 10
1769.0128699999996
 20
1042.857287
 11
1815.2637580000001
 21
1042.857287
  0
LINE
  8
_0-0_LAYER001
  6
CONTINUOUS
 62
   18
 10
1815.2637580000001
 20
1042.857287
 11
1815.2637580000001
 21
921.657287
  0
LINE
  8
_0-0_LAYER001
  6
CONTINUOUS
 62
   18
 10
1815.2637580000001
 20
921.657287
 11
1769.0128699999996
 21
921.657287
  0
LINE
  8
_0-0_LAYER001
  6
CONTINUOUS
 62
   18
 10
1769.0128699999996
 20
921.657287
 11
1769.0128699999996
 21
1042.857287
  0
LINE
  8
_0-0_LAYER001
  6
CONTINUOUS
 62
   18
 10
1861.5146449999993
 20
1042.857287
 11
770.88940299999967
 21
1042.857287
  0
LINE
  8
_0-0_LAYER001
  6
CONTINUOUS
 62
   18
 10
1861.5146449999993
 20
1054.857287
 11
770.88940299999967
 21
1054.857287
  0
LINE
  8
_0-0_LAYER001
  6
CONTINUOUS
 62
   18
 10
1771.8970319999999
 20
1058.807687
 11
770.88940299999967
 21
1058.807687
  0
LINE
  8
_0-0_LAYER001
  6
CONTINUOUS
 62
   18
 10
1771.8970319999999
 20
1073.807687
 11
770.88940299999967
 21
1073.807687
  0
LINE
  8
_0-0_LAYER001
  6
CONTINUOUS
 62
   18
 10
1771.8970319999999
 20
1058.807687
 11
1771.8970319999999
 21
1073.807687
  0
LINE
  8
_0-0_LAYER001
  6
CONTINUOUS
 62
   18
 10
1772.4810449999995
 20
1057.857287
 11
1772.4810449999995
 21
1065.452423
  0
LINE
  8
_0-0_LAYER001
  6
CONTINUOUS
 62
   18
 10
1869.2969699999994
 20
1090.759583
 11
1863.3770509999995
 21
1090.4448009999999
  0
LINE
  8
_0-0_LAYER001
  6
CONTINUOUS
 62
   18
 10
1811.7179509999996
 20
1057.857287
 11
1772.4810449999995
 21
1057.857287
  0
LINE
  8
_0-0_LAYER001
  6
CONTINUOUS
 62
   18
 10
1869.2969699999994
 20
1090.759583
 11
1811.7179509999996
 21
1057.857287
  0
LINE
  8
_0-0_LAYER001
  6
DASHED
 62
   18
 10
1812.1162979999999
 20
1056.357287
 11
770.88940299999967
 21
1056.357287
  0
LINE
  8
_0-0_LAYER001
  6
DASHED
 62
   18
 10
1881.736836
 20
1096.140451
 11
1812.1162979999999
 21
1056.357287
  0
LINE
  8
_0-0_LAYER001
  6
CONTINUOUS
 62
   18
 10
1815.2637580000001
 20
1042.857287
 11
1769.0128699999996
 21
921.657287
  0
LINE
  8
_0-0_LAYER001
  6
CONTINUOUS
 62
   18
 10
1861.5146449999993
 20
1042.857287
 11
1815.2637580000001
 21
921.657287
  0
LINE
  8
_0-0_LAYER001
  6
CONTINUOUS
 62
   18
 10
1815.2637580000001
 20
1042.857287
 11
1861.5146449999993
 21
1042.857287
  0
LINE
  8
_0-0_LAYER001
  6
CONTINUOUS
 62
   18
 10
1861.5146449999993
 20
1042.857287
 11
1861.5146449999993
 21
915.657287
  0
LINE
  8
_0-0_LAYER001
  6
CONTINUOUS
 62
   18
 10
1861.5146449999993
 20
921.657287
 11
1815.2637580000001
 21
921.657287
  0
LINE
  8
_0-0_LAYER001
  6
CONTINUOUS
 62
   18
 10
1815.2637580000001
 20
921.657287
 11
1815.2637580000001
 21
1042.857287
  0
LINE
  8
_0-0_LAYER001
  6
CONTINUOUS
 62
   18
 10
1360.2637579999996
 20
1042.857287
 11
1360.2637579999996
 21
921.657287
  0
LINE
  8
_0-0_LAYER001
  6
CONTINUOUS
 62
   18
 10
1314.0128699999996
 20
921.657287
 11
1314.0128699999996
 21
1042.857287
  0
LINE
  8
_0-0_LAYER001
  6
CONTINUOUS
 62
   18
 10
1360.2637579999996
 20
1042.857287
 11
1314.0128699999996
 21
921.657287
  0
LINE
  8
_0-0_LAYER001
  6
CONTINUOUS
 62
   18
 10
1360.2637579999996
 20
921.657287
 11
1360.2637579999996
 21
1042.857287
  0
LINE
  8
_0-0_LAYER001
  6
CONTINUOUS
 62
   18
 10
905.2637579999996
 20
1042.857287
 11
905.2637579999996
 21
921.657287
  0
LINE
  8
_0-0_LAYER001
  6
CONTINUOUS
 62
   18
 10
859.01286999999957
 20
921.657287
 11
859.01286999999957
 21
1042.857287
  0
LINE
  8
_0-0_LAYER001
  6
CONTINUOUS
 62
   18
 10
905.2637579999996
 20
1042.857287
 11
859.01286999999957
 21
921.657287
  0
LINE
  8
_0-0_LAYER001
  6
CONTINUOUS
 62
   18
 10
905.2637579999996
 20
921.657287
 11
905.2637579999996
 21
1042.857287
  0
LINE
  8
_0-0_LAYER001
  6
CONTINUOUS
 62
   18
 10
2017.3789929999994
 20
1134.9404869999998
 11
1964.8789929999994
 21
1134.9404869999998
  0
CIRCLE
  8
_0-0_LAYER001
  6
CONTINUOUS
 62
   18
 10
2014.8789929999994
 20
1134.9404869999998
 40
1.6999999999999997
  0
LINE
  8
_0-0_LAYER001
  6
CONTINUOUS
 62
   18
 10
2014.8789929999994
 20
1134.9404869999998
 11
2014.8789929999994
 21
1043.048914
  0
CIRCLE
  8
_0-0_LAYER001
  6
CONTINUOUS
 62
   18
 10
2014.8789929999994
 20
1043.048914
 40
1.6999999999999997
  0
LINE
  8
_0-0_LAYER001
  6
CONTINUOUS
 62
   18
 10
2017.3789929999994
 20
1043.048914
 11
1964.8789929999994
 21
1043.048914
  0
LINE
  8
_0-0_LAYER001
  6
CONTINUOUS
 62
   18
 10
1796.5474589999994
 20
1052.5539859999999
 11
1801.8507599999994
 21
1057.857287
  0
LINE
  8
_0-0_LAYER001
  6
CONTINUOUS
 62
   18
 10
1801.8507599999994
 20
1057.857287
 11
1799.9096169999993
 21
1050.6128429999999
  0
LINE
  8
_0-0_LAYER001
  6
CONTINUOUS
 62
   18
 10
1801.8507599999994
 20
1057.857287
 11
1667.8899889999993
 21
825.83042499999988
  0
LINE
  8
_0-0_LAYER001
  6
CONTINUOUS
 62
   18
 10
1667.8899889999993
 20
825.83042499999988
 11
1450.3899889999998
 21
825.83042499999988
  0
LINE
  8
_0-0_LAYER001
  6
CONTINUOUS
 62
   18
 10
1884.4221869999992
 20
962.11329599999999
 11
1882.4810449999995
 21
969.35773999999992
  0
LINE
  8
_0-0_LAYER001
  6
CONTINUOUS
 62
   18
 10
1882.4810449999995
 20
969.35773999999992
 11
1887.784345
 21
964.054439
  0
LINE
  8
_0-0_LAYER001
  6
CONTINUOUS
 62
   18
 10
1882.4810449999995
 20
969.35773999999992
 11
1944.2054519999992
 21
862.44793000000004
  0
LINE
  8
_0-0_LAYER001
  6
CONTINUOUS
 62
   18
 10
1944.2054519999992
 20
862.44793000000004
 11
1992.2054519999992
 21
862.44793000000004
  0
LINE
  8
_0-0_LAYER001
  6
CONTINUOUS
 62
   18
 10
1880.7574709999999
 20
1129.6540399999999
 11
1875.4541709999994
 21
1124.350739
  0
LINE
  8
_0-0_LAYER001
  6
CONTINUOUS
 62
   18
 10
1875.4541709999994
 20
1124.350739
 11
1877.395313
 21
1131.5951829999999
  0
LINE
  8
_0-0_LAYER001
  6
CONTINUOUS
 62
   18
 10
1875.4541709999994
 20
1124.350739
 11
1924.5797549999997
 21
1209.438748
  0
LINE
  8
_0-0_LAYER001
  6
CONTINUOUS
 62
   18
 10
1924.5797549999997
 20
1209.438748
 11
1972.5797549999997
 21
1209.438748
  0
LINE
  8
_0-0_LAYER001
  6
CONTINUOUS
 62
   18
 10
1345.3073469999995
 20
1111.059788
 11
1340.0040459999996
 21
1105.7564869999999
  0
LINE
  8
_0-0_LAYER001
  6
CONTINUOUS
 62
   18
 10
1340.0040459999996
 20
1105.7564869999999
 11
1341.9451889999996
 21
1113.0009299999999
  0
LINE
  8
_0-0_LAYER001
  6
CONTINUOUS
 62
   18
 10
1340.0040459999996
 20
1105.7564869999999
 11
1384.9073949999997
 21
1183.5313679999999
  0
LINE
  8
_0-0_LAYER001
  6
CONTINUOUS
 62
   18
 10
1384.9073949999997
 20
1183.5313679999999
 11
1425.4073949999997
 21
1183.5313679999999
  0
LINE
  8
_0-0_LAYER001
  6
CONTINUOUS
 62
   18
 10
1753.8410449999992
 20
1253.6493799999998
 11
1753.8410449999992
 21
1201.1493799999998
  0
CIRCLE
  8
_0-0_LAYER001
  6
CONTINUOUS
 62
   18
 10
1753.8410449999992
 20
1251.1493799999998
 40
1.6999999999999997
  0
LINE
  8
_0-0_LAYER001
  6
CONTINUOUS
 62
   18
 10
1753.8410449999992
 20
1251.1493799999998
 11
1900.9284049999997
 21
1251.1493799999998
  0
CIRCLE
  8
_0-0_LAYER001
  6
CONTINUOUS
 62
   18
 10
1900.9284049999997
 20
1251.1493799999998
 40
1.6999999999999997
  0
LINE
  8
_0-0_LAYER001
  6
CONTINUOUS
 62
   18
 10
1900.9284049999997
 20
1253.6493799999998
 11
1900.9284049999997
 21
1201.1493799999998
  0
LINE
  8
_0-0_LAYER001
  6
CONTINUOUS
 62
   18
 10
1780.3216259999999
 20
1117.9929299999999
 11
1782.2627689999999
 21
1110.7484869999998
  0
LINE
  8
_0-0_LAYER001
  6
CONTINUOUS
 62
   18
 10
1782.2627689999999
 20
1110.7484869999998
 11
1776.959468
 21
1116.051788
  0
LINE
  8
_0-0_LAYER001
  6
CONTINUOUS
 62
   18
 10
1782.2627689999999
 20
1110.7484869999998
 11
1731.9375399999999
 21
1197.9143409999999
  0
LINE
  8
_0-0_LAYER001
  6
CONTINUOUS
 62
   18
 10
1731.9375399999999
 20
1197.9143409999999
 11
1634.4375399999999
 21
1197.9143409999999
  0
LINE
  8
_0-0_LAYER001
  6
CONTINUOUS
 62
   18
 10
1795.8480579999996
 20
1110.7505859999999
 11
1795.8480579999996
 21
1105.7585859999999
  0
LINE
  8
_0-0_LAYER001
  6
CONTINUOUS
 62
   18
 10
1772.5685149999999
 20
1110.7505859999999
 11
1772.5685149999999
 21
1105.7585859999999
  0
LINE
  8
_0-0_LAYER001
  6
CONTINUOUS
 62
   18
 10
1772.5685149999999
 20
1105.760685
 11
1795.8480579999996
 21
1105.760685
  0
LINE
  8
_0-0_LAYER001
  6
CONTINUOUS
 62
   18
 10
1772.5685149999999
 20
1107.007636
 11
1795.8480579999996
 21
1107.007636
  0
LINE
  8
_0-0_LAYER001
  6
CONTINUOUS
 62
   18
 10
1772.5685149999999
 20
1108.254586
 11
1795.8480579999996
 21
1108.254586
  0
LINE
  8
_0-0_LAYER001
  6
CONTINUOUS
 62
   18
 10
1772.5685149999999
 20
1109.501536
 11
1795.8480579999996
 21
1109.501536
  0
LINE
  8
_0-0_LAYER001
  6
CONTINUOUS
 62
   18
 10
1772.5685149999999
 20
1110.7484869999998
 11
1795.8480579999996
 21
1110.7484869999998
  0
ARC
  8
_0-0_LAYER001
  6
CONTINUOUS
 62
   18
 10
1882.4810449999995
 20
1094.8380869999999
 40
14.244633
 50
209.74488099999999
 51
270
  0
ARC
  8
_0-0_LAYER001
  6
CONTINUOUS
 62
   18
 10
1882.4810449999995
 20
1088.2992879999999
 40
17.809041000000001
 50
190.695078
 51
270
  0
ARC
  8
_0-0_LAYER001
  6
CONTINUOUS
 62
   18
 10
1882.4810449999995
 20
1088.128048
 40
41.995542
 50
201.74241000000004
 51
231.95053100000004
  0
ARC
  8
_0-0_LAYER001
  6
CONTINUOUS
 62
   18
 10
1882.4810449999995
 20
1075.798712
 40
53.368561
 50
200.46578199999999
 51
202.943735
  0
ARC
  8
_0-0_LAYER001
  6
CONTINUOUS
 62
   18
 10
1881.1932839999999
 20
1094.1022229999999
 40
32.541984999999997
 50
209.74488099999999
 51
272.25605100000001
  0
LINE
  8
_0-0_LAYER001
  6
CONTINUOUS
 62
   18
 10
1875.7709639999994
 20
1060.4981499999999
 11
1873.8298209999994
 21
1067.7425939999998
  0
LINE
  8
_0-0_LAYER001
  6
CONTINUOUS
 62
   18
 10
1873.8298209999994
 20
1067.7425939999998
 11
1879.1331219999993
 21
1062.4392929999999
  0
LINE
  8
_0-0_LAYER001
  6
CONTINUOUS
 62
   18
 10
1873.8298209999994
 20
1067.7425939999998
 11
1953.1105969999999
 21
930.42426
  0
LINE
  8
_0-0_LAYER001
  6
CONTINUOUS
 62
   18
 10
1953.1105969999999
 20
930.42426
 11
2199.1105969999999
 21
930.42426
  0
LINE
  8
_0-0_LAYER001
  6
CONTINUOUS
 62
   18
 10
1360.2637579999996
 20
921.657287
 11
1314.0128699999996
 21
921.657287
  0
LINE
  8
_0-0_LAYER001
  6
CONTINUOUS
 62
   18
 10
905.2637579999996
 20
921.657287
 11
859.01286999999957
 21
921.657287
  0
LINE
  8
_0-0_LAYER001
  6
CONTINUOUS
 62
   18
 10
1118.6123429999998
 20
773.65568699999994
 11
1184.3506069999999
 21
773.65568699999994
  0
LINE
  8
_0-0_LAYER001
  6
CONTINUOUS
 62
   18
 10
1111.4391609999998
 20
803.52226099999984
 11
1332.3797899999995
 21
803.52226099999984
  0
LINE
  8
_0-0_LAYER001
  6
CONTINUOUS
 62
   18
 10
1101.8960689999994
 20
833.61758199999986
 11
1345.7132079999997
 21
833.61758199999986
  0
LINE
  8
_0-0_LAYER001
  6
CONTINUOUS
 62
   18
 10
1041.0045029999997
 20
1055.7920899999999
 11
1041.0045029999997
 21
1063.2920899999999
  0
LINE
  8
_0-0_LAYER001
  6
CONTINUOUS
 62
   18
 10
1041.0045029999997
 20
1063.2920899999999
 11
1044.7545029999997
 21
1056.7968989999999
  0
LINE
  8
_0-0_LAYER001
  6
CONTINUOUS
 62
   18
 10
1041.0045029999997
 20
1063.2920899999999
 11
1118.6123429999998
 21
773.65568699999994
  0
LINE
  8
_0-0_LAYER001
  6
CONTINUOUS
 62
   18
 10
1094.5122309999997
 20
863.59852999999998
 11
1299.3349439999997
 21
863.59852999999998
  0
LINE
  8
_0-0_LAYER001
  6
CONTINUOUS
 62
   18
 10
937.51464499999975
 20
1312.8443130000001
 11
937.51464499999975
 21
1260.3443129999998
  0
CIRCLE
  8
_0-0_LAYER001
  6
CONTINUOUS
 62
   18
 10
937.51464499999975
 20
1310.3443130000001
 40
1.6999999999999997
  0
LINE
  8
_0-0_LAYER001
  6
CONTINUOUS
 62
   18
 10
937.51464499999975
 20
1310.3443130000001
 11
1245.5146449999997
 21
1310.3443130000001
  0
CIRCLE
  8
_0-0_LAYER001
  6
CONTINUOUS
 62
   18
 10
1245.5146449999997
 20
1310.3443130000001
 40
1.6999999999999997
  0
LINE
  8
_0-0_LAYER001
  6
CONTINUOUS
 62
   18
 10
1245.5146449999997
 20
1312.8443130000001
 11
1245.5146449999997
 21
1260.3443129999998
  0
CIRCLE
  8
_0-0_LAYER001
  6
CONTINUOUS
 62
   18
 10
1245.5146449999997
 20
1310.3443130000001
 40
1.6999999999999997
  0
LINE
  8
_0-0_LAYER001
  6
CONTINUOUS
 62
   18
 10
1245.5146449999997
 20
1310.3443130000001
 11
1553.5146449999993
 21
1310.3443130000001
  0
CIRCLE
  8
_0-0_LAYER001
  6
CONTINUOUS
 62
   18
 10
1553.5146449999993
 20
1310.3443130000001
 40
1.6999999999999997
  0
LINE
  8
_0-0_LAYER001
  6
CONTINUOUS
 62
   18
 10
1553.5146449999993
 20
1312.8443130000001
 11
1553.5146449999993
 21
1260.3443129999998
  0
LINE
  8
_0-0_LAYER001
  6
CONTINUOUS
 62
   18
 10
1553.5146449999993
 20
1312.8443130000001
 11
1553.5146449999993
 21
1260.3443129999998
  0
CIRCLE
  8
_0-0_LAYER001
  6
CONTINUOUS
 62
   18
 10
1553.5146449999993
 20
1310.3443130000001
 40
1.6999999999999997
  0
LINE
  8
_0-0_LAYER001
  6
CONTINUOUS
 62
   18
 10
1553.5146449999993
 20
1310.3443130000001
 11
1861.5146449999993
 21
1310.3443130000001
  0
CIRCLE
  8
_0-0_LAYER001
  6
CONTINUOUS
 62
   18
 10
1861.5146449999993
 20
1310.3443130000001
 40
1.6999999999999997
  0
LINE
  8
_0-0_LAYER001
  6
CONTINUOUS
 62
   18
 10
1861.5146449999993
 20
1312.8443130000001
 11
1861.5146449999993
 21
1260.3443129999998
  0
CIRCLE
  8
_0-0_LAYER001
  6
CONTINUOUS
 62
   18
 10
1861.5146449999993
 20
1310.3443130000001
 40
1.6999999999999997
  0
LINE
  8
_0-0_LAYER001
  6
CONTINUOUS
 62
   18
 10
1861.5146449999993
 20
1310.3443130000001
 11
1900.9284049999997
 21
1310.3443130000001
  0
CIRCLE
  8
_0-0_LAYER001
  6
CONTINUOUS
 62
   18
 10
1900.9284049999997
 20
1310.3443130000001
 40
1.6999999999999997
  0
LINE
  8
_0-0_LAYER001
  6
CONTINUOUS
 62
   18
 10
1900.9284049999997
 20
1312.8443130000001
 11
1900.9284049999997
 21
1260.3443129999998
  0
LINE
  8
_0-0_LAYER001
  6
CONTINUOUS
 62
   18
 10
976.83255199999985
 20
1121.7836869999999
 11
976.83255199999985
 21
1111.565157
  0
LINE
  8
_0-0_LAYER001
  6
CONTINUOUS
 62
   18
 10
976.83255199999985
 20
1121.7836869999999
 11
937.51464499999975
 21
1121.7836869999999
  0
LINE
  8
_0-0_LAYER001
  6
CONTINUOUS
 62
   18
 10
974.51464499999975
 20
1111.565157
 11
974.51464499999975
 21
1119.786887
  0
LINE
  8
_0-0_LAYER001
  6
CONTINUOUS
 62
   18
 10
974.51464499999975
 20
1119.786887
 11
935.51464499999975
 21
1119.786887
  0
LINE
  8
_0-0_LAYER001
  6
CONTINUOUS
 62
   18
 10
1284.8325519999999
 20
1121.7836869999999
 11
1284.8325519999999
 21
1111.565157
  0
LINE
  8
_0-0_LAYER001
  6
CONTINUOUS
 62
   18
 10
1284.8325519999999
 20
1121.7836869999999
 11
1245.5146449999997
 21
1121.7836869999999
  0
LINE
  8
_0-0_LAYER001
  6
CONTINUOUS
 62
   18
 10
1282.5146449999997
 20
1111.565157
 11
1282.5146449999997
 21
1119.786887
  0
LINE
  8
_0-0_LAYER001
  6
CONTINUOUS
 62
   18
 10
1282.5146449999997
 20
1119.786887
 11
1243.5146449999997
 21
1119.786887
  0
LINE
  8
_0-0_LAYER001
  6
CONTINUOUS
 62
   18
 10
1592.8325519999999
 20
1121.7836869999999
 11
1553.5146449999993
 21
1121.7836869999999
  0
LINE
  8
_0-0_LAYER001
  6
CONTINUOUS
 62
   18
 10
1592.8325519999999
 20
1121.7836869999999
 11
1592.8325519999999
 21
1111.565157
  0
LINE
  8
_0-0_LAYER001
  6
CONTINUOUS
 62
   18
 10
1590.5146449999993
 20
1111.565157
 11
1590.5146449999993
 21
1119.786887
  0
LINE
  8
_0-0_LAYER001
  6
CONTINUOUS
 62
   18
 10
1590.5146449999993
 20
1119.786887
 11
1551.5146449999993
 21
1119.786887
  0
LINE
  8
_0-0_LAYER001
  6
CONTINUOUS
 62
   18
 10
1245.5146449999997
 20
1141.7516869999999
 11
1245.5146449999997
 21
1121.7836869999999
  0
LINE
  8
_0-0_LAYER001
  6
CONTINUOUS
 62
   18
 10
1551.5146449999993
 20
1141.7516869999999
 11
1551.5146449999993
 21
1119.786887
  0
LINE
  8
_0-0_LAYER001
  6
CONTINUOUS
 62
   18
 10
935.51464499999975
 20
1141.7516869999999
 11
935.51464499999975
 21
1119.786887
  0
LINE
  8
_0-0_LAYER001
  6
CONTINUOUS
 62
   18
 10
937.51464499999975
 20
1141.7516869999999
 11
937.51464499999975
 21
1121.7836869999999
  0
LINE
  8
_0-0_LAYER001
  6
CONTINUOUS
 62
   18
 10
1243.5146449999997
 20
1141.7516869999999
 11
1243.5146449999997
 21
1119.786887
  0
LINE
  8
_0-0_LAYER001
  6
CONTINUOUS
 62
   18
 10
1243.5146449999997
 20
1141.7516869999999
 11
1243.5146449999997
 21
1121.7836869999999
  0
LINE
  8
_0-0_LAYER001
  6
CONTINUOUS
 62
   18
 10
1750.4767539999993
 20
1111.565157
 11
1592.8325519999999
 21
1111.565157
  0
LINE
  8
_0-0_LAYER001
  6
CONTINUOUS
 62
   18
 10
1590.5146449999993
 20
1111.565157
 11
1284.8325519999999
 21
1111.565157
  0
LINE
  8
_0-0_LAYER001
  6
CONTINUOUS
 62
   18
 10
1282.5146449999997
 20
1111.565157
 11
976.83255199999985
 21
1111.565157
  0
LINE
  8
_0-0_LAYER001
  6
CONTINUOUS
 62
   18
 10
974.51464499999975
 20
1111.565157
 11
770.88940299999967
 21
1111.565157
  0
LINE
  8
_0-0_LAYER001
  6
CONTINUOUS
 62
   18
 10
1553.5146449999993
 20
1141.7516869999999
 11
1553.5146449999993
 21
1121.7836869999999
  0
LINE
  8
_0-0_LAYER001
  6
CONTINUOUS
 62
   18
 10
1750.4767539999993
 20
1141.7516869999999
 11
1553.5146449999993
 21
1141.7516869999999
  0
LINE
  8
_0-0_LAYER001
  6
CONTINUOUS
 62
   18
 10
1551.5146449999993
 20
1141.7516869999999
 11
1245.5146449999997
 21
1141.7516869999999
  0
LINE
  8
_0-0_LAYER001
  6
CONTINUOUS
 62
   18
 10
1243.5146449999997
 20
1141.7516869999999
 11
937.51464499999975
 21
1141.7516869999999
  0
LINE
  8
_0-0_LAYER001
  6
CONTINUOUS
 62
   18
 10
935.51464499999975
 20
1141.7516869999999
 11
770.88940299999967
 21
1141.7516869999999
  0
LINE
  8
_0-0_LAYER001
  6
CONTINUOUS
 62
   18
 10
1760.5198709999995
 20
1161.356325
 11
1902.7688309999994
 21
1161.356325
  0
ARC
  8
_0-0_LAYER001
  6
CONTINUOUS
 62
   18
 10
1760.5198709999995
 20
1156.5179249999999
 40
4.8384
 50
90
 51
180
  0
LINE
  8
_0-0_LAYER001
  6
CONTINUOUS
 62
   18
 10
1755.6814709999999
 20
1135.228965
 11
1755.6814709999999
 21
1156.5179249999999
  0
LINE
  8
_0-0_LAYER001
  6
CONTINUOUS
 62
   18
 10
1755.6814709999999
 20
1135.228965
 11
1763.4229109999997
 21
1135.228965
  0
LINE
  8
_0-0_LAYER001
  6
CONTINUOUS
 62
   18
 10
1763.4229109999997
 20
1137.164325
 11
1763.4229109999997
 21
1135.228965
  0
LINE
  8
_0-0_LAYER001
  6
CONTINUOUS
 62
   18
 10
1886.3182709999992
 20
1137.164325
 11
1763.4229109999997
 21
1137.164325
  0
LINE
  8
_0-0_LAYER001
  6
CONTINUOUS
 62
   18
 10
1902.7688309999994
 20
1074.303152
 11
1902.7688309999994
 21
1161.356325
  0
ARC
  8
_0-0_LAYER001
  6
CONTINUOUS
 62
   18
 10
1897.9304309999998
 20
1074.303152
 40
4.8384
 50
308.28845799999999
 51
0.0000000000000318
  0
LINE
  8
_0-0_LAYER001
  6
CONTINUOUS
 62
   18
 10
1886.3182709999992
 20
1137.164325
 11
1886.3182709999992
 21
1134.9404869999998
  0
TEXT
  8
_0-0_LAYER001
 62
    7
 10
1953.1105970000003
 20
932.92426000000023
 40
20
 41
1
 50
0
  1
登り淀：３６ｘ５０（防腐処理）
  0
TEXT
  8
_0-0_LAYER001
 62
    7
 10
1111.4391610000002
 20
806.0222610000003
 40
20
 41
1
 50
0
  1
　野地板：耐水合板ｔ＝１２
  0
TEXT
  8
_0-0_LAYER001
 62
    7
 10
1385.3821690427621
 20
1191.2769551867596
 40
20
 41
1
 50
0
  1
桟　瓦
  0
TEXT
  8
_0-0_LAYER001
 62
    7
 10
1119.4067104894464
 20
776.82005132455333
 40
20
 41
1
 50
0
  1
　垂木
  0
TEXT
  8
_0-0_LAYER001
 62
    7
 10
1947.0293752111725
 20
868.49120451525914
 40
20
 41
1
 50
0
  1
破風板
  0
TEXT
  8
_0-0_LAYER001
 62
    7
 10
1926.3710871681963
 20
1217.0998152404795
 40
20
 41
1
 50
0
  1
右袖瓦
  0
TEXT
  8
_0-0_LAYER001
 62
    7
 10
1086.3945855599791
 20
1326.6617977337405
 40
20
 41
1
 50
0
  1
308
  0
TEXT
  8
_0-0_LAYER001
 62
    7
 10
1388.2685185721064
 20
1324.7983783941593
 40
20
 41
1
 50
0
  1
308
  0
TEXT
  8
_0-0_LAYER001
 62
    7
 10
1695.7327096029771
 20
1321.071539714997
 40
20
 41
1
 50
0
  1
308
  0
TEXT
  8
_0-0_LAYER001
 62
    7
 10
1872.7575468631753
 20
1324.7983783941593
 40
20
 41
1
 50
0
  1
41
  0
TEXT
  8
_0-0_LAYER001
 62
    7
 10
1816.8549666757442
 20
1220.4468953776213
 40
20
 41
1
 50
0
  1
147
  0
TEXT
  8
_0-0_LAYER001
 62
    7
 10
2001.3334812942674
 20
1076.9636062298814
 40
20
 41
1
 50
90
  1
92
  0
TEXT
  8
_0-0_LAYER001
 62
    7
 10
1097.6462380468852
 20
868.45170463366594
 40
20
 41
1
 50
0
  1
瓦桟：１５ｘ３０以上
  0
TEXT
  8
_0-0_LAYER001
 62
    7
 10
1111.6598524733304
 20
840.08605845616728
 40
20
 41
1
 50
0
  1
　下葺材：ルーフィング
  0
TEXT
  8
_0-0_LAYER001
 62
    7
 10
1377.6105339996391
 20
828.19540064045941
 40
20
 41
1
 50
0
  1
捨水切カラー鋼板0.35ｍｍ以上
  0
TEXT
  8
_0-0_LAYER001
 62
    7
 10
1617.3185259591867
 20
1208.8004565762296
 40
20
 41
1
 50
0
  1
弾性シール材
  0
ENDSEC
  0
EOF
