  0
SECTION
  2
HEADER
  9
$ACADVER
  1
AC1009
  9
$INSBASE
 10
0
 20
0
 30
0
  9
$EXTMIN
 10
0
 20
0
  9
$EXTMAX
 10
2970
 20
2100
  9
$LIMMIN
 10
0
 20
0
  9
$LIMMAX
 10
2970
 20
2100
  9
$LTSCALE
 40
10
  0
ENDSEC
  0
SECTION
  2
TABLES
  0
TABLE
  2
LTYPE
 70
     9
  0
LTYPE
  2
CONTINUOUS
 70
    64
  3
実線
 72
    65
 73
     0
 40
0.0
  0
LTYPE
  2
DASHED1
 70
    64
  3
--  --  --  --  --  --  --  --  
 72
    65
 73
     2
 40
2.5
 49
1.25
 49
-1.25
  0
LTYPE
  2
DASHED2
 70
    64
  3
----    ----    ----    ----    
 72
    65
 73
     2
 40
5.0
 49
2.5
 49
-2.5
  0
LTYPE
  2
DASHED3
 70
    64
  3
------  ------  ------  ------  
 72
    65
 73
     2
 40
5.0
 49
3.75
 49
-1.25
  0
LTYPE
  2
CENTER1
 70
    64
  3
----- - ----- - ----- - ----- - 
 72
    65
 73
     4
 40
10.0
 49
6.25
 49
-1.25
 49
1.25
 49
-1.25
  0
LTYPE
  2
CENTER2
 70
    64
  3
----------  --  ----------  --  
 72
    65
 73
     4
 40
20.0
 49
12.5
 49
-2.5
 49
2.5
 49
-2.5
  0
LTYPE
  2
PHANTOM1
 70
    64
  3
--- - - --- - - --- - - --- - - 
 72
    65
 73
     6
 40
10.0
 49
3.25
 49
-1.25
 49
1.25
 49
-1.25
 49
1.25
 49
-1.25
  0
LTYPE
  2
PHANTOM2
 70
    64
  3
--------  -  -  --------  -  -  
 72
    65
 73
     6
 40
20.0
 49
10.0
 49
-2.5
 49
1.25
 49
-2.5
 49
1.25
 49
-2.5
  0
LTYPE
  2
DOT
 70
    64
  3
-   -   -   -   -   -   -   -   
 72
    65
 73
     2
 40
2.5
 49
0.625
 49
-1.875
  0
LTYPE
  2
DUMMY
 70
    64
  3
ダミー
 72
    65
 73
     0
 40
0.0
  0
LTYPE
  2
RAND1
 70
    64
  3
ランダム線1
 72
    65
 73
     4
 40
10.0
 49
1.0
 49
-2.0
 49
3.0
 49
-4.0
  0
LTYPE
  2
RAND2
 70
    64
  3
ランダム線2
 72
    65
 73
     4
 40
14.0
 49
2.0
 49
-3.0
 49
4.0
 49
-5.0
  0
LTYPE
  2
RAND3
 70
    64
  3
ランダム線3
 72
    65
 73
     4
 40
18.0
 49
3.0
 49
-4.0
 49
5.0
 49
-6.0
  0
LTYPE
  2
RAND4
 70
    64
  3
ランダム線4
 72
    65
 73
     4
 40
22.0
 49
4.0
 49
-5.0
 49
6.0
 49
-7.0
  0
LTYPE
  2
RAND5
 70
    64
  3
ランダム線5
 72
    65
 73
     4
 40
26.0
 49
5.0
 49
-6.0
 49
7.0
 49
-8.0
  0
LTYPE
  2
LONG1
 70
    64
  3
----------  --  ----------  --  
 72
    65
 73
     4
 40
40.0
 49
32.5
 49
-2.5
 49
2.5
 49
-2.5
  0
LTYPE
  2
LONG2
 70
    64
  3
--------  -  -  --------  -  -  
 72
    65
 73
     6
 40
40.0
 49
30.0
 49
-2.5
 49
1.25
 49
-2.5
 49
1.25
 49
-2.5
  0
LTYPE
  2
LONG3
 70
    64
  3
+++++++++++++++..+++++++++++++++
 72
    65
 73
     2
 40
40.0
 49
37.5
 49
-2.5
  0
LTYPE
  2
LONG4
 70
    64
  3
+++++++++++++++..+++++++++++++++
 72
    65
 73
     2
 40
80.0
 49
75.0
 49
-5.0
  0
LTYPE
  2
LONG5
 70
    64
  3
----------  --  ----------  --  
 72
    65
 73
     4
 40
60.0
 49
37.5
 49
-7.5
 49
7.5
 49
-7.5
  0
LTYPE
  2
dashed
 70
   64
  3
-------   -------------   ------
 72
   65
 73
    2
 40
7.5
 49
6
 49
-1.5
  0
LTYPE
  2
dashed_spaced
 70
   64
  3
----        --------        ----
 72
   65
 73
    2
 40
12
 49
6
 49
-6
  0
LTYPE
  2
long_dashed_dotted
 70
   64
  3
------------- --- --------------
 72
   65
 73
    4
 40
15.25
 49
12
 49
-1.5
 49
0.25
 49
-1.5
  0
LTYPE
  2
long_dashed_double-dotted
 70
   64
  3
----------- --- --- ------------
 72
   65
 73
    6
 40
17
 49
12
 49
-1.5
 49
0.25
 49
-1.5
 49
0.25
 49
-1.5
  0
LTYPE
  2
long_dashed_triplicate-dotted
 70
   64
  3
--------- --- --- --- ----------
 72
   65
 73
    8
 40
18.75
 49
12
 49
-1.5
 49
0.25
 49
-1.5
 49
0.25
 49
-1.5
 49
0.25
 49
-1.5
  0
LTYPE
  2
dotted
 70
   64
  3
   -       -       -       -    
 72
   65
 73
    2
 40
1.75
 49
0.25
 49
-1.5
  0
LTYPE
  2
chain
 70
   64
  3
-------------- -- --------------
 72
   65
 73
    4
 40
18.5
 49
12
 49
-1.5
 49
3.5
 49
-1.5
  0
LTYPE
  2
chain_double_dash
 70
   64
  3
------------ -- -- -------------
 72
   65
 73
    6
 40
23.5
 49
12
 49
-1.5
 49
3.5
 49
-1.5
 49
3.5
 49
-1.5
  0
LTYPE
  2
dashed_dotted
 70
   64
  3
-----------     -     ----------
 72
   65
 73
    4
 40
9.25
 49
6
 49
-1.5
 49
0.25
 49
-1.5
  0
LTYPE
  2
double-dashed_dotted
 70
   64
  3
------   -----------   -   -----
 72
   65
 73
    6
 40
16.75
 49
6
 49
-1.5
 49
6
 49
-1.5
 49
0.25
 49
-1.5
  0
LTYPE
  2
dashed_double-dotted
 70
   64
  3
---------    -    -    ---------
 72
   65
 73
    6
 40
11
 49
6
 49
-1.5
 49
0.25
 49
-1.5
 49
0.25
 49
-1.5
  0
LTYPE
  2
double-dashed_double-dotted
 70
   64
  3
-----   ---------   -   -   ----
 72
   65
 73
    8
 40
18.5
 49
6
 49
-1.5
 49
6
 49
-1.5
 49
0.25
 49
-1.5
 49
0.25
 49
-1.5
  0
LTYPE
  2
dashed_triplicate-dotted
 70
   64
  3
-------    -    -    -    ------
 72
   65
 73
    8
 40
12.75
 49
6
 49
-1.5
 49
0.25
 49
-1.5
 49
0.25
 49
-1.5
 49
0.25
 49
-1.5
  0
LTYPE
  2
double-dashed_triplicate-dotted
 70
   64
  3
-----  ---------  -  -  -  -----
 72
   65
 73
   10
 40
20.25
 49
6
 49
-1.5
 49
6
 49
-1.5
 49
0.25
 49
-1.5
 49
0.25
 49
-1.5
 49
0.25
 49
-1.5
  0
LTYPE
  2
undefined
 70
   64
  3
--------------------------------
 72
   65
 73
    0
 40
0
  0
LTYPE
  2
HIDDEN
 70
   64
  3
----        --------        ----
 72
   65
 73
    2
 40
10
 49
5
 49
-5
  0
LTYPE
  2
DASHED
 70
   64
  3
-------   -------------   ------
 72
   65
 73
    2
 40
50
 49
40
 49
-10
  0
LTYPE
  2
CENTER
 70
   64
  3
------------   ---   -----------
 72
   65
 73
    4
 40
100
 49
70
 49
-10
 49
10
 49
-10
  0
LTYPE
  2
PHANTOM
 70
   64
  3
---------   ---   ---   --------
 72
   65
 73
    6
 40
100
 49
50
 49
-10
 49
10
 49
-10
 49
10
 49
-10
  0
ENDTAB
  0
TABLE
  2
STYLE
  5
3
100
AcDbSymbolTable
 70
     1
  0
STYLE
  5
10
100
AcDbSymbolTableRecord
100
AcDbTextStyleTableRecord
  2
STANDARD
 70
     0
 40
0.0
 41
1.0
 50
0.0
 71
     0
 42
0.2
  3
txt
  4
bigfont.shx
  0
STYLE
  5
26
100
AcDbSymbolTableRecord
100
AcDbTextStyleTableRecord
  2
TATEGAKI
 70
    68
 40
0.0
 41
1.0
 50
0.0
 71
     0
 42
1.0
  3
txt
  4
bigfont.shx
  0
ENDTAB
  0
TABLE
  2
LAYER
 70
    2
  0
LAYER
  2
_0-0_LAYER001
 70
   64
 62
    7
  6
CONTINUOUS
  0
LAYER
  2
ADD_LINE
 70
   64
 62
    7
  6
CONTINUOUS
  0
ENDTAB
  0
ENDSEC
  0
SECTION
  2
BLOCKS
  0
ENDSEC
  0
SECTION
  2
ENTITIES
  0
LINE
  8
_0-0_LAYER001
  6
CONTINUOUS
 62
    3
 10
1917.4354315000005
 20
1362.8465120000001
 11
1917.4354315000005
 21
775.7212840000002
  0
ARC
  8
_0-0_LAYER001
  6
CONTINUOUS
 62
    4
 10
921.75781349999988
 20
1017.4857120000001
 40
5.9904000000000002
 50
199.47122100000004
 51
344.27761299999997
  0
LINE
  8
_0-0_LAYER001
  6
CONTINUOUS
 62
    4
 10
910.22843050000029
 20
1031.4633119999999
 11
916.21883049999997
 21
1015.2043619999999
  0
LINE
  8
_0-0_LAYER001
  6
CONTINUOUS
 62
    4
 10
928.84401849999995
 20
1019.482512
 11
927.52408850000029
 21
1015.8624540000001
  0
LINE
  8
_0-0_LAYER001
  6
CONTINUOUS
 62
    4
 10
910.22843050000029
 20
1031.4633119999999
 11
870.29243050000014
 21
1031.4633119999999
  0
LINE
  8
_0-0_LAYER001
  6
CONTINUOUS
 62
    4
 10
862.30523050000011
 20
1031.4633119999999
 11
822.52822349999985
 21
1031.4633119999999
  0
LINE
  8
_0-0_LAYER001
  6
CONTINUOUS
 62
    4
 10
893.2764075
 20
1053.4281120000001
 11
893.2764075
 21
1050.4329120000002
  0
LINE
  8
_0-0_LAYER001
  6
CONTINUOUS
 62
    4
 10
822.52822349999985
 20
1050.4329120000002
 11
893.2764075
 21
1050.4329120000002
  0
LINE
  8
_0-0_LAYER001
  6
CONTINUOUS
 62
    4
 10
862.30523050000011
 20
1031.4633119999999
 11
862.30523050000011
 21
1020.480912
  0
LINE
  8
_0-0_LAYER001
  6
CONTINUOUS
 62
    4
 10
870.29243050000014
 20
1020.480912
 11
862.30523050000011
 21
1020.480912
  0
LINE
  8
_0-0_LAYER001
  6
CONTINUOUS
 62
    4
 10
870.29243050000014
 20
1020.480912
 11
870.29243050000014
 21
1031.4633119999999
  0
LINE
  8
_0-0_LAYER001
  6
CONTINUOUS
 62
    4
 10
933.70200750000004
 20
1053.4281120000001
 11
893.2764075
 21
1053.4281120000001
  0
LINE
  8
_0-0_LAYER001
  6
CONTINUOUS
 62
    4
 10
933.70200750000004
 20
1053.4281120000001
 11
933.70200750000004
 21
1031.4633119999999
  0
LINE
  8
_0-0_LAYER001
  6
CONTINUOUS
 62
    4
 10
933.70200750000004
 20
1053.4281120000001
 11
933.70200750000004
 21
1033.4601120000002
  0
LINE
  8
_0-0_LAYER001
  6
CONTINUOUS
 62
    4
 10
972.70200750000004
 20
1019.482512
 11
928.84401849999995
 21
1019.482512
  0
LINE
  8
_0-0_LAYER001
  6
CONTINUOUS
 62
    4
 10
972.70200750000004
 20
1019.482512
 11
972.70200750000004
 21
1031.4633119999999
  0
LINE
  8
_0-0_LAYER001
  6
CONTINUOUS
 62
    4
 10
972.70200750000004
 20
1031.4633119999999
 11
933.70200750000004
 21
1031.4633119999999
  0
LINE
  8
_0-0_LAYER001
  6
CONTINUOUS
 62
    1
 10
1824.0676964999998
 20
1086.4281120000001
 11
1823.4354315000005
 21
1087.0603759999999
  0
LINE
  8
_0-0_LAYER001
  6
CONTINUOUS
 62
    1
 10
1827.6032305000003
 20
1086.4281120000001
 11
1823.4354315000005
 21
1090.59591
  0
LINE
  8
_0-0_LAYER001
  6
CONTINUOUS
 62
    1
 10
1831.1387645
 20
1086.4281120000001
 11
1823.4354315000005
 21
1094.1314440000001
  0
LINE
  8
_0-0_LAYER001
  6
CONTINUOUS
 62
    1
 10
1834.6742985000005
 20
1086.4281120000001
 11
1823.4354315000005
 21
1097.6669780000002
  0
LINE
  8
_0-0_LAYER001
  6
CONTINUOUS
 62
    1
 10
1838.2098314999998
 20
1086.4281120000001
 11
1823.4354315000005
 21
1101.2025119999998
  0
LINE
  8
_0-0_LAYER001
  6
CONTINUOUS
 62
    1
 10
1841.7453655000004
 20
1086.4281120000001
 11
1826.9709655000001
 21
1101.2025119999998
  0
LINE
  8
_0-0_LAYER001
  6
CONTINUOUS
 62
    1
 10
1845.2808995
 20
1086.4281120000001
 11
1830.5064994999998
 21
1101.2025119999998
  0
LINE
  8
_0-0_LAYER001
  6
CONTINUOUS
 62
    1
 10
1848.4354315000005
 20
1086.8091140000001
 11
1834.0420335000003
 21
1101.2025119999998
  0
LINE
  8
_0-0_LAYER001
  6
CONTINUOUS
 62
    1
 10
1848.4354315000005
 20
1090.3446469999999
 11
1837.5775675
 21
1101.2025119999998
  0
LINE
  8
_0-0_LAYER001
  6
CONTINUOUS
 62
    1
 10
1848.4354315000005
 20
1093.880181
 11
1841.1131014999996
 21
1101.2025119999998
  0
LINE
  8
_0-0_LAYER001
  6
CONTINUOUS
 62
    1
 10
1848.4354315000005
 20
1097.4157150000001
 11
1844.6486355000002
 21
1101.2025119999998
  0
LINE
  8
_0-0_LAYER001
  6
CONTINUOUS
 62
    1
 10
1848.4354315000005
 20
1100.9512490000002
 11
1848.1841694999998
 21
1101.2025119999998
  0
LINE
  8
_0-0_LAYER001
  6
CONTINUOUS
 62
    1
 10
1848.4354315000005
 20
1087.311639
 11
1847.5519044999996
 21
1086.4281120000001
  0
LINE
  8
_0-0_LAYER001
  6
CONTINUOUS
 62
    1
 10
1848.4354315000005
 20
1090.8471730000001
 11
1844.0163715000003
 21
1086.4281120000001
  0
LINE
  8
_0-0_LAYER001
  6
CONTINUOUS
 62
    1
 10
1848.4354315000005
 20
1094.3827070000002
 11
1840.4808374999998
 21
1086.4281120000001
  0
LINE
  8
_0-0_LAYER001
  6
CONTINUOUS
 62
    1
 10
1848.4354315000005
 20
1097.9182409999999
 11
1836.9453035000001
 21
1086.4281120000001
  0
LINE
  8
_0-0_LAYER001
  6
CONTINUOUS
 62
    1
 10
1848.1841694999998
 20
1101.2025119999998
 11
1833.4097695000005
 21
1086.4281120000001
  0
LINE
  8
_0-0_LAYER001
  6
CONTINUOUS
 62
    1
 10
1844.6486355000002
 20
1101.2025119999998
 11
1829.8742354999999
 21
1086.4281120000001
  0
LINE
  8
_0-0_LAYER001
  6
CONTINUOUS
 62
    1
 10
1841.1131014999996
 20
1101.2025119999998
 11
1826.3387015000003
 21
1086.4281120000001
  0
LINE
  8
_0-0_LAYER001
  6
CONTINUOUS
 62
    1
 10
1837.5775675
 20
1101.2025119999998
 11
1823.4354315000005
 21
1087.0603759999999
  0
LINE
  8
_0-0_LAYER001
  6
CONTINUOUS
 62
    1
 10
1834.0420335000003
 20
1101.2025119999998
 11
1823.4354315000005
 21
1090.59591
  0
LINE
  8
_0-0_LAYER001
  6
CONTINUOUS
 62
    1
 10
1830.5064994999998
 20
1101.2025119999998
 11
1823.4354315000005
 21
1094.1314440000001
  0
LINE
  8
_0-0_LAYER001
  6
CONTINUOUS
 62
    1
 10
1826.9709655000001
 20
1101.2025119999998
 11
1823.4354315000005
 21
1097.6669780000002
  0
ARC
  8
_0-0_LAYER001
  6
CONTINUOUS
 62
    4
 10
1845.7578134999999
 20
1017.4857120000001
 40
5.9904000000000002
 50
199.47122100000004
 51
344.27761299999997
  0
LINE
  8
_0-0_LAYER001
  6
CONTINUOUS
 62
    4
 10
1834.2284304999998
 20
1031.4633119999999
 11
1840.2188305000004
 21
1015.2043619999999
  0
LINE
  8
_0-0_LAYER001
  6
CONTINUOUS
 62
    4
 10
1612.6251845000002
 20
1031.4633119999999
 11
1606.9368655000003
 21
1015.8624540000001
  0
LINE
  8
_0-0_LAYER001
  6
CONTINUOUS
 62
    4
 10
1852.8440185000004
 20
1019.482512
 11
1851.5240884999998
 21
1015.8624540000001
  0
LINE
  8
_0-0_LAYER001
  6
CONTINUOUS
 62
    4
 10
1588.9055125
 20
1033.4601120000002
 11
1551.7020075000005
 21
1033.4601120000002
  0
LINE
  8
_0-0_LAYER001
  6
CONTINUOUS
 62
    4
 10
1588.9055125
 20
1033.4601120000002
 11
1595.6316075
 21
1015.2043619999999
  0
LINE
  8
_0-0_LAYER001
  6
CONTINUOUS
 62
    4
 10
1834.2284304999998
 20
1031.4633119999999
 11
1794.2924305000001
 21
1031.4633119999999
  0
LINE
  8
_0-0_LAYER001
  6
CONTINUOUS
 62
    4
 10
1786.3052304999997
 20
1031.4633119999999
 11
1739.3804304999999
 21
1031.4633119999999
  0
LINE
  8
_0-0_LAYER001
  6
CONTINUOUS
 62
    4
 10
1731.3932305000003
 20
1031.4633119999999
 11
1678.4780304999999
 21
1031.4633119999999
  0
LINE
  8
_0-0_LAYER001
  6
CONTINUOUS
 62
    4
 10
1670.4908305000004
 20
1031.4633119999999
 11
1612.6251845000002
 21
1031.4633119999999
  0
LINE
  8
_0-0_LAYER001
  6
CONTINUOUS
 62
    4
 10
1817.2764075
 20
1053.4281120000001
 11
1817.2764075
 21
1050.4329120000002
  0
LINE
  8
_0-0_LAYER001
  6
CONTINUOUS
 62
    4
 10
1658.6154855
 20
1050.4329120000002
 11
1817.2764075
 21
1050.4329120000002
  0
LINE
  8
_0-0_LAYER001
  6
CONTINUOUS
 62
    4
 10
1591.6380075000002
 20
1050.4329120000002
 11
1662.5244075000005
 21
1050.4329120000002
  0
LINE
  8
_0-0_LAYER001
  6
CONTINUOUS
 62
    4
 10
1591.6380075000002
 20
1053.4281120000001
 11
1591.6380075000002
 21
1050.4329120000002
  0
LINE
  8
_0-0_LAYER001
  6
CONTINUOUS
 62
    4
 10
1591.6380075000002
 20
1053.4281120000001
 11
1551.7020075000005
 21
1053.4281120000001
  0
LINE
  8
_0-0_LAYER001
  6
CONTINUOUS
 62
    4
 10
1670.4908305000004
 20
1031.4633119999999
 11
1670.4908305000004
 21
1020.480912
  0
LINE
  8
_0-0_LAYER001
  6
CONTINUOUS
 62
    4
 10
1678.4780304999999
 20
1020.480912
 11
1670.4908305000004
 21
1020.480912
  0
LINE
  8
_0-0_LAYER001
  6
CONTINUOUS
 62
    4
 10
1678.4780304999999
 20
1031.4633119999999
 11
1678.4780304999999
 21
1020.480912
  0
LINE
  8
_0-0_LAYER001
  6
CONTINUOUS
 62
    4
 10
1731.3932305000003
 20
1031.4633119999999
 11
1731.3932305000003
 21
1020.480912
  0
LINE
  8
_0-0_LAYER001
  6
CONTINUOUS
 62
    4
 10
1739.3804304999999
 20
1020.480912
 11
1731.3932305000003
 21
1020.480912
  0
LINE
  8
_0-0_LAYER001
  6
CONTINUOUS
 62
    4
 10
1739.3804304999999
 20
1031.4633119999999
 11
1739.3804304999999
 21
1020.480912
  0
LINE
  8
_0-0_LAYER001
  6
CONTINUOUS
 62
    4
 10
1786.3052304999997
 20
1031.4633119999999
 11
1786.3052304999997
 21
1020.480912
  0
LINE
  8
_0-0_LAYER001
  6
CONTINUOUS
 62
    4
 10
1794.2924305000001
 20
1020.480912
 11
1786.3052304999997
 21
1020.480912
  0
LINE
  8
_0-0_LAYER001
  6
CONTINUOUS
 62
    4
 10
1794.2924305000001
 20
1020.480912
 11
1794.2924305000001
 21
1031.4633119999999
  0
LINE
  8
_0-0_LAYER001
  6
CONTINUOUS
 62
    4
 10
1551.7020075000005
 20
1053.4281120000001
 11
1551.7020075000005
 21
1033.4601120000002
  0
ARC
  8
_0-0_LAYER001
  6
CONTINUOUS
 62
    4
 10
1601.0962675000005
 20
1017.4857120000001
 40
5.9904000000000002
 50
199.47122100000004
 51
344.27761299999997
  0
LINE
  8
_0-0_LAYER001
  6
CONTINUOUS
 62
    4
 10
1857.7020075000005
 20
1053.4281120000001
 11
1817.2764075
 21
1053.4281120000001
  0
LINE
  8
_0-0_LAYER001
  6
CONTINUOUS
 62
    4
 10
1857.7020075000005
 20
1053.4281120000001
 11
1857.7020075000005
 21
1031.4633119999999
  0
LINE
  8
_0-0_LAYER001
  6
CONTINUOUS
 62
    4
 10
1857.7020075000005
 20
1053.4281120000001
 11
1857.7020075000005
 21
1033.4601120000002
  0
LINE
  8
_0-0_LAYER001
  6
CONTINUOUS
 62
    4
 10
1896.7020075000005
 20
1019.482512
 11
1852.8440185000004
 21
1019.482512
  0
LINE
  8
_0-0_LAYER001
  6
CONTINUOUS
 62
    4
 10
1896.7020075000005
 20
1019.482512
 11
1896.7020075000005
 21
1031.4633119999999
  0
LINE
  8
_0-0_LAYER001
  6
CONTINUOUS
 62
    4
 10
1896.7020075000005
 20
1031.4633119999999
 11
1857.7020075000005
 21
1031.4633119999999
  0
ARC
  8
_0-0_LAYER001
  6
CONTINUOUS
 62
    4
 10
1537.7578134999999
 20
1017.4857120000001
 40
5.9904000000000002
 50
199.47122100000004
 51
344.27761299999997
  0
LINE
  8
_0-0_LAYER001
  6
CONTINUOUS
 62
    4
 10
1526.2284305000003
 20
1031.4633119999999
 11
1532.2188305
 21
1015.2043619999999
  0
LINE
  8
_0-0_LAYER001
  6
CONTINUOUS
 62
    4
 10
1304.6251845000002
 20
1031.4633119999999
 11
1298.9368655000003
 21
1015.8624540000001
  0
LINE
  8
_0-0_LAYER001
  6
CONTINUOUS
 62
    4
 10
1544.8440184999999
 20
1019.482512
 11
1543.5240885000003
 21
1015.8624540000001
  0
LINE
  8
_0-0_LAYER001
  6
CONTINUOUS
 62
    4
 10
1280.9055125
 20
1033.4601120000002
 11
1243.7020075
 21
1033.4601120000002
  0
LINE
  8
_0-0_LAYER001
  6
CONTINUOUS
 62
    4
 10
1280.9055125
 20
1033.4601120000002
 11
1287.6316075
 21
1015.2043619999999
  0
LINE
  8
_0-0_LAYER001
  6
CONTINUOUS
 62
    4
 10
1526.2284305000003
 20
1031.4633119999999
 11
1486.2924305000001
 21
1031.4633119999999
  0
LINE
  8
_0-0_LAYER001
  6
CONTINUOUS
 62
    4
 10
1478.3052305000001
 20
1031.4633119999999
 11
1431.3804304999999
 21
1031.4633119999999
  0
LINE
  8
_0-0_LAYER001
  6
CONTINUOUS
 62
    4
 10
1423.3932305000003
 20
1031.4633119999999
 11
1370.4780304999999
 21
1031.4633119999999
  0
LINE
  8
_0-0_LAYER001
  6
CONTINUOUS
 62
    4
 10
1362.4908304999999
 20
1031.4633119999999
 11
1304.6251845000002
 21
1031.4633119999999
  0
LINE
  8
_0-0_LAYER001
  6
CONTINUOUS
 62
    4
 10
1509.2764075
 20
1053.4281120000001
 11
1509.2764075
 21
1050.4329120000002
  0
LINE
  8
_0-0_LAYER001
  6
CONTINUOUS
 62
    4
 10
1354.5244075000001
 20
1050.4329120000002
 11
1509.2764075
 21
1050.4329120000002
  0
LINE
  8
_0-0_LAYER001
  6
CONTINUOUS
 62
    4
 10
1283.6380075000002
 20
1050.4329120000002
 11
1354.5244075000001
 21
1050.4329120000002
  0
LINE
  8
_0-0_LAYER001
  6
CONTINUOUS
 62
    4
 10
1283.6380075000002
 20
1053.4281120000001
 11
1283.6380075000002
 21
1050.4329120000002
  0
LINE
  8
_0-0_LAYER001
  6
CONTINUOUS
 62
    4
 10
1283.6380075000002
 20
1053.4281120000001
 11
1243.7020075
 21
1053.4281120000001
  0
LINE
  8
_0-0_LAYER001
  6
CONTINUOUS
 62
    4
 10
1362.4908304999999
 20
1031.4633119999999
 11
1362.4908304999999
 21
1020.480912
  0
LINE
  8
_0-0_LAYER001
  6
CONTINUOUS
 62
    4
 10
1370.4780304999999
 20
1020.480912
 11
1362.4908304999999
 21
1020.480912
  0
LINE
  8
_0-0_LAYER001
  6
CONTINUOUS
 62
    4
 10
1370.4780304999999
 20
1031.4633119999999
 11
1370.4780304999999
 21
1020.480912
  0
LINE
  8
_0-0_LAYER001
  6
CONTINUOUS
 62
    4
 10
1423.3932305000003
 20
1031.4633119999999
 11
1423.3932305000003
 21
1020.480912
  0
LINE
  8
_0-0_LAYER001
  6
CONTINUOUS
 62
    4
 10
1431.3804304999999
 20
1020.480912
 11
1423.3932305000003
 21
1020.480912
  0
LINE
  8
_0-0_LAYER001
  6
CONTINUOUS
 62
    4
 10
1431.3804304999999
 20
1031.4633119999999
 11
1431.3804304999999
 21
1020.480912
  0
LINE
  8
_0-0_LAYER001
  6
CONTINUOUS
 62
    4
 10
1478.3052305000001
 20
1031.4633119999999
 11
1478.3052305000001
 21
1020.480912
  0
LINE
  8
_0-0_LAYER001
  6
CONTINUOUS
 62
    4
 10
1486.2924305000001
 20
1020.480912
 11
1478.3052305000001
 21
1020.480912
  0
LINE
  8
_0-0_LAYER001
  6
CONTINUOUS
 62
    4
 10
1486.2924305000001
 20
1020.480912
 11
1486.2924305000001
 21
1031.4633119999999
  0
LINE
  8
_0-0_LAYER001
  6
CONTINUOUS
 62
    4
 10
1243.7020075
 20
1053.4281120000001
 11
1243.7020075
 21
1033.4601120000002
  0
ARC
  8
_0-0_LAYER001
  6
CONTINUOUS
 62
    4
 10
1293.0962675000001
 20
1017.4857120000001
 40
5.9904000000000002
 50
199.47122100000004
 51
344.27761299999997
  0
LINE
  8
_0-0_LAYER001
  6
CONTINUOUS
 62
    4
 10
1549.7020075
 20
1053.4281120000001
 11
1509.2764075
 21
1053.4281120000001
  0
LINE
  8
_0-0_LAYER001
  6
CONTINUOUS
 62
    4
 10
1549.7020075
 20
1053.4281120000001
 11
1549.7020075
 21
1031.4633119999999
  0
LINE
  8
_0-0_LAYER001
  6
CONTINUOUS
 62
    4
 10
1549.7020075
 20
1053.4281120000001
 11
1549.7020075
 21
1033.4601120000002
  0
LINE
  8
_0-0_LAYER001
  6
CONTINUOUS
 62
    4
 10
1588.7020075000005
 20
1019.482512
 11
1544.8440184999999
 21
1019.482512
  0
LINE
  8
_0-0_LAYER001
  6
CONTINUOUS
 62
    4
 10
1588.7020075000005
 20
1019.482512
 11
1588.7020075000005
 21
1031.4633119999999
  0
LINE
  8
_0-0_LAYER001
  6
CONTINUOUS
 62
    4
 10
1588.7020075000005
 20
1031.4633119999999
 11
1549.7020075
 21
1031.4633119999999
  0
ARC
  8
_0-0_LAYER001
  6
CONTINUOUS
 62
    4
 10
1229.7578134999999
 20
1017.4857120000001
 40
5.9904000000000002
 50
199.47122100000004
 51
344.27761299999997
  0
LINE
  8
_0-0_LAYER001
  6
CONTINUOUS
 62
    4
 10
1218.2284305000003
 20
1031.4633119999999
 11
1224.2188305
 21
1015.2043619999999
  0
LINE
  8
_0-0_LAYER001
  6
CONTINUOUS
 62
    4
 10
996.62518450000016
 20
1031.4633119999999
 11
990.93686550000029
 21
1015.8624540000001
  0
LINE
  8
_0-0_LAYER001
  6
CONTINUOUS
 62
    4
 10
1236.8440184999999
 20
1019.482512
 11
1235.5240885000003
 21
1015.8624540000001
  0
LINE
  8
_0-0_LAYER001
  6
CONTINUOUS
 62
    4
 10
972.90551249999999
 20
1033.4601120000002
 11
935.70200750000004
 21
1033.4601120000002
  0
LINE
  8
_0-0_LAYER001
  6
CONTINUOUS
 62
    4
 10
972.90551249999999
 20
1033.4601120000002
 11
979.63160749999986
 21
1015.2043619999999
  0
LINE
  8
_0-0_LAYER001
  6
CONTINUOUS
 62
    4
 10
1218.2284305000003
 20
1031.4633119999999
 11
1178.2924305000001
 21
1031.4633119999999
  0
LINE
  8
_0-0_LAYER001
  6
CONTINUOUS
 62
    4
 10
1170.3052305000001
 20
1031.4633119999999
 11
1123.3804304999999
 21
1031.4633119999999
  0
LINE
  8
_0-0_LAYER001
  6
CONTINUOUS
 62
    4
 10
1115.3932305000003
 20
1031.4633119999999
 11
1062.4780304999999
 21
1031.4633119999999
  0
LINE
  8
_0-0_LAYER001
  6
CONTINUOUS
 62
    4
 10
1054.4908304999999
 20
1031.4633119999999
 11
996.62518450000016
 21
1031.4633119999999
  0
LINE
  8
_0-0_LAYER001
  6
CONTINUOUS
 62
    4
 10
1201.2764075
 20
1053.4281120000001
 11
1201.2764075
 21
1050.4329120000002
  0
LINE
  8
_0-0_LAYER001
  6
CONTINUOUS
 62
    4
 10
1046.5244075000001
 20
1050.4329120000002
 11
1201.2764075
 21
1050.4329120000002
  0
LINE
  8
_0-0_LAYER001
  6
CONTINUOUS
 62
    4
 10
975.63800750000019
 20
1050.4329120000002
 11
1046.5244075000001
 21
1050.4329120000002
  0
LINE
  8
_0-0_LAYER001
  6
CONTINUOUS
 62
    4
 10
975.63800750000019
 20
1053.4281120000001
 11
975.63800750000019
 21
1050.4329120000002
  0
LINE
  8
_0-0_LAYER001
  6
CONTINUOUS
 62
    4
 10
975.63800750000019
 20
1053.4281120000001
 11
935.70200750000004
 21
1053.4281120000001
  0
LINE
  8
_0-0_LAYER001
  6
CONTINUOUS
 62
    4
 10
1054.4908304999999
 20
1031.4633119999999
 11
1054.4908304999999
 21
1020.480912
  0
LINE
  8
_0-0_LAYER001
  6
CONTINUOUS
 62
    4
 10
1062.4780304999999
 20
1020.480912
 11
1054.4908304999999
 21
1020.480912
  0
LINE
  8
_0-0_LAYER001
  6
CONTINUOUS
 62
    4
 10
1062.4780304999999
 20
1031.4633119999999
 11
1062.4780304999999
 21
1020.480912
  0
LINE
  8
_0-0_LAYER001
  6
CONTINUOUS
 62
    4
 10
1115.3932305000003
 20
1031.4633119999999
 11
1115.3932305000003
 21
1020.480912
  0
LINE
  8
_0-0_LAYER001
  6
CONTINUOUS
 62
    4
 10
1123.3804304999999
 20
1020.480912
 11
1115.3932305000003
 21
1020.480912
  0
LINE
  8
_0-0_LAYER001
  6
CONTINUOUS
 62
    4
 10
1123.3804304999999
 20
1031.4633119999999
 11
1123.3804304999999
 21
1020.480912
  0
LINE
  8
_0-0_LAYER001
  6
CONTINUOUS
 62
    4
 10
1170.3052305000001
 20
1031.4633119999999
 11
1170.3052305000001
 21
1020.480912
  0
LINE
  8
_0-0_LAYER001
  6
CONTINUOUS
 62
    4
 10
1178.2924305000001
 20
1020.480912
 11
1170.3052305000001
 21
1020.480912
  0
LINE
  8
_0-0_LAYER001
  6
CONTINUOUS
 62
    4
 10
1178.2924305000001
 20
1020.480912
 11
1178.2924305000001
 21
1031.4633119999999
  0
LINE
  8
_0-0_LAYER001
  6
CONTINUOUS
 62
    4
 10
935.70200750000004
 20
1053.4281120000001
 11
935.70200750000004
 21
1033.4601120000002
  0
ARC
  8
_0-0_LAYER001
  6
CONTINUOUS
 62
    4
 10
985.09626749999995
 20
1017.4857120000001
 40
5.9904000000000002
 50
199.47122100000004
 51
344.27761299999997
  0
LINE
  8
_0-0_LAYER001
  6
CONTINUOUS
 62
    4
 10
1241.7020075
 20
1053.4281120000001
 11
1201.2764075
 21
1053.4281120000001
  0
LINE
  8
_0-0_LAYER001
  6
CONTINUOUS
 62
    4
 10
1241.7020075
 20
1053.4281120000001
 11
1241.7020075
 21
1031.4633119999999
  0
LINE
  8
_0-0_LAYER001
  6
CONTINUOUS
 62
    4
 10
1241.7020075
 20
1053.4281120000001
 11
1241.7020075
 21
1033.4601120000002
  0
LINE
  8
_0-0_LAYER001
  6
CONTINUOUS
 62
    4
 10
1280.7020075
 20
1019.482512
 11
1236.8440184999999
 21
1019.482512
  0
LINE
  8
_0-0_LAYER001
  6
CONTINUOUS
 62
    4
 10
1280.7020075
 20
1019.482512
 11
1280.7020075
 21
1031.4633119999999
  0
LINE
  8
_0-0_LAYER001
  6
CONTINUOUS
 62
    4
 10
1280.7020075
 20
1031.4633119999999
 11
1241.7020075
 21
1031.4633119999999
  0
LINE
  8
_0-0_LAYER001
  6
CONTINUOUS
 62
   18
 10
1916.4354315000005
 20
929.48251200000004
 11
1856.4354315000005
 21
929.48251200000004
  0
LINE
  8
_0-0_LAYER001
  6
CONTINUOUS
 62
   18
 10
1856.4354315000005
 20
929.48251200000004
 11
1856.4354315000005
 21
989.48251200000004
  0
LINE
  8
_0-0_LAYER001
  6
CONTINUOUS
 62
   18
 10
1856.4354315000005
 20
989.48251200000004
 11
1916.4354315000005
 21
989.48251200000004
  0
LINE
  8
_0-0_LAYER001
  6
CONTINUOUS
 62
   18
 10
1916.4354315000005
 20
989.48251200000004
 11
1916.4354315000005
 21
929.48251200000004
  0
LINE
  8
_0-0_LAYER001
  6
CONTINUOUS
 62
   18
 10
1856.4354315000005
 20
989.48251200000004
 11
1916.4354315000005
 21
929.48251200000004
  0
LINE
  8
_0-0_LAYER001
  6
CONTINUOUS
 62
   18
 10
1614.4354315000005
 20
929.48251200000004
 11
1554.4354315000005
 21
929.48251200000004
  0
LINE
  8
_0-0_LAYER001
  6
CONTINUOUS
 62
   18
 10
1554.4354315000005
 20
929.48251200000004
 11
1554.4354315000005
 21
989.48251200000004
  0
LINE
  8
_0-0_LAYER001
  6
CONTINUOUS
 62
   18
 10
1554.4354315000005
 20
989.48251200000004
 11
1614.4354315000005
 21
989.48251200000004
  0
LINE
  8
_0-0_LAYER001
  6
CONTINUOUS
 62
   18
 10
1614.4354315000005
 20
989.48251200000004
 11
1614.4354315000005
 21
929.48251200000004
  0
LINE
  8
_0-0_LAYER001
  6
CONTINUOUS
 62
   18
 10
1554.4354315000005
 20
989.48251200000004
 11
1614.4354315000005
 21
929.48251200000004
  0
LINE
  8
_0-0_LAYER001
  6
CONTINUOUS
 62
   18
 10
1312.4354315
 20
929.48251200000004
 11
1252.4354315
 21
929.48251200000004
  0
LINE
  8
_0-0_LAYER001
  6
CONTINUOUS
 62
   18
 10
1252.4354315
 20
929.48251200000004
 11
1252.4354315
 21
989.48251200000004
  0
LINE
  8
_0-0_LAYER001
  6
CONTINUOUS
 62
   18
 10
1252.4354315
 20
989.48251200000004
 11
1312.4354315
 21
989.48251200000004
  0
LINE
  8
_0-0_LAYER001
  6
CONTINUOUS
 62
   18
 10
1312.4354315
 20
989.48251200000004
 11
1312.4354315
 21
929.48251200000004
  0
LINE
  8
_0-0_LAYER001
  6
CONTINUOUS
 62
   18
 10
1252.4354315
 20
989.48251200000004
 11
1312.4354315
 21
929.48251200000004
  0
LINE
  8
_0-0_LAYER001
  6
CONTINUOUS
 62
   18
 10
1010.4354315
 20
929.48251200000004
 11
950.43543150000005
 21
929.48251200000004
  0
LINE
  8
_0-0_LAYER001
  6
CONTINUOUS
 62
   18
 10
950.43543150000005
 20
929.48251200000004
 11
950.43543150000005
 21
989.48251200000004
  0
LINE
  8
_0-0_LAYER001
  6
CONTINUOUS
 62
   18
 10
950.43543150000005
 20
989.48251200000004
 11
1010.4354315
 21
989.48251200000004
  0
LINE
  8
_0-0_LAYER001
  6
CONTINUOUS
 62
   18
 10
1010.4354315
 20
989.48251200000004
 11
1010.4354315
 21
929.48251200000004
  0
LINE
  8
_0-0_LAYER001
  6
CONTINUOUS
 62
   18
 10
950.43543150000005
 20
989.48251200000004
 11
1010.4354315
 21
929.48251200000004
  0
LINE
  8
_0-0_LAYER001
  6
CONTINUOUS
 62
   18
 10
1804.8837074999997
 20
1019.482512
 11
1804.8837074999997
 21
1004.482512
  0
LINE
  8
_0-0_LAYER001
  6
CONTINUOUS
 62
   18
 10
1809.8837074999997
 20
1004.482512
 11
1898.9148424999998
 21
1004.482512
  0
LINE
  8
_0-0_LAYER001
  6
CONTINUOUS
 62
   18
 10
1809.8837074999997
 20
1004.482512
 11
1820.1882685000005
 21
1011.940118
  0
LINE
  8
_0-0_LAYER001
  6
CONTINUOUS
 62
   18
 10
1916.4354315000005
 20
989.48251200000004
 11
822.52822349999985
 21
989.48251200000004
  0
LINE
  8
_0-0_LAYER001
  6
CONTINUOUS
 62
   18
 10
1916.4354315000005
 20
929.48251200000004
 11
822.52822349999985
 21
929.48251200000004
  0
LINE
  8
_0-0_LAYER001
  6
CONTINUOUS
 62
   18
 10
1916.4354315000005
 20
1001.482512
 11
822.52822349999985
 21
1001.482512
  0
LINE
  8
_0-0_LAYER001
  6
DASHED
 62
   18
 10
1915.9354315000005
 20
1002.982512
 11
822.52822349999985
 21
1002.982512
  0
LINE
  8
_0-0_LAYER001
  6
CONTINUOUS
 62
   18
 10
1804.8837074999997
 20
1019.482512
 11
822.52822349999985
 21
1019.482512
  0
LINE
  8
_0-0_LAYER001
  6
CONTINUOUS
 62
   18
 10
1804.8837074999997
 20
1004.482512
 11
822.52822349999985
 21
1004.482512
  0
LINE
  8
_0-0_LAYER001
  6
DASHED
 62
   18
 10
1915.9354315000005
 20
1002.982512
 11
1915.9354315000005
 21
1301.482512
  0
LINE
  8
_0-0_LAYER001
  6
CONTINUOUS
 62
   18
 10
1324.0287794999999
 20
1057.9979530000001
 11
1324.0287794999999
 21
1050.4979530000001
  0
LINE
  8
_0-0_LAYER001
  6
CONTINUOUS
 62
   18
 10
1324.0287794999999
 20
1050.4979530000001
 11
1320.2787794999999
 21
1056.9931430000001
  0
LINE
  8
_0-0_LAYER001
  6
CONTINUOUS
 62
   18
 10
1324.0287794999999
 20
1050.4979530000001
 11
1290.0736305
 21
1177.2202969999998
  0
LINE
  8
_0-0_LAYER001
  6
CONTINUOUS
 62
   18
 10
1290.0736305
 20
1177.2202969999998
 11
1249.5736305
 21
1177.2202969999998
  0
LINE
  8
_0-0_LAYER001
  6
CONTINUOUS
 62
   18
 10
1853.6142784999997
 20
999.67304700000022
 11
1857.3642784999997
 21
1006.1682369999999
  0
LINE
  8
_0-0_LAYER001
  6
CONTINUOUS
 62
   18
 10
1857.3642784999997
 20
1006.1682369999999
 11
1857.3642784999997
 21
998.66823699999986
  0
LINE
  8
_0-0_LAYER001
  6
CONTINUOUS
 62
   18
 10
1857.3642784999997
 20
1006.1682369999999
 11
1806.0734324999999
 21
814.74819500000012
  0
LINE
  8
_0-0_LAYER001
  6
CONTINUOUS
 62
   18
 10
1806.0734324999999
 20
814.74819500000012
 11
1588.5734324999999
 21
814.74819500000012
  0
LINE
  8
_0-0_LAYER001
  6
CONTINUOUS
 62
   18
 10
1907.8098505000003
 20
1017.1974209999998
 11
1907.8098505000003
 21
1024.6974209999998
  0
LINE
  8
_0-0_LAYER001
  6
CONTINUOUS
 62
   18
 10
1907.8098505000003
 20
1024.6974209999998
 11
1911.5598505000003
 21
1018.2022299999999
  0
LINE
  8
_0-0_LAYER001
  6
CONTINUOUS
 62
   18
 10
1907.8098505000003
 20
1024.6974209999998
 11
1951.8781505000002
 21
860.23228699999981
  0
LINE
  8
_0-0_LAYER001
  6
CONTINUOUS
 62
   18
 10
1951.8781505000002
 20
860.23228699999981
 11
2098.8781505000002
 21
860.23228699999981
  0
LINE
  8
_0-0_LAYER001
  6
CONTINUOUS
 62
   18
 10
2123.7544565000003
 20
1001.482512
 11
2071.2544565000003
 21
1001.482512
  0
CIRCLE
  8
_0-0_LAYER001
  6
CONTINUOUS
 62
   18
 10
2121.2544565000003
 20
1001.482512
 40
1.7000000000000004
  0
LINE
  8
_0-0_LAYER001
  6
CONTINUOUS
 62
   18
 10
2121.2544565000003
 20
1001.482512
 11
2121.2544565000003
 21
1301.482512
  0
CIRCLE
  8
_0-0_LAYER001
  6
CONTINUOUS
 62
   18
 10
2121.2544565000003
 20
1301.482512
 40
1.7000000000000004
  0
LINE
  8
_0-0_LAYER001
  6
CONTINUOUS
 62
   18
 10
2123.7544565000003
 20
1301.482512
 11
2071.2544565000003
 21
1301.482512
  0
LINE
  8
_0-0_LAYER001
  6
CONTINUOUS
 62
   18
 10
1886.0608825000004
 20
1282.827542
 11
1886.0608825000004
 21
1275.327542
  0
LINE
  8
_0-0_LAYER001
  6
CONTINUOUS
 62
   18
 10
1886.0608825000004
 20
1275.327542
 11
1882.3108825000004
 21
1281.822733
  0
LINE
  8
_0-0_LAYER001
  6
CONTINUOUS
 62
   18
 10
1886.0608825000004
 20
1275.327542
 11
1863.8053405000005
 21
1358.3863529999999
  0
LINE
  8
_0-0_LAYER001
  6
CONTINUOUS
 62
   18
 10
1863.8053405000005
 20
1358.3863529999999
 11
1691.3053405000005
 21
1358.3863529999999
  0
LINE
  8
_0-0_LAYER001
  6
CONTINUOUS
 62
   18
 10
1857.7020075000005
 20
1288.6752689999998
 11
1857.7020075000005
 21
1236.1752689999998
  0
CIRCLE
  8
_0-0_LAYER001
  6
CONTINUOUS
 62
   18
 10
1857.7020075000005
 20
1286.1752689999998
 40
1.7000000000000004
  0
LINE
  8
_0-0_LAYER001
  6
CONTINUOUS
 62
   18
 10
1857.7020075000005
 20
1286.1752689999998
 11
1549.7020075
 21
1286.1752689999998
  0
CIRCLE
  8
_0-0_LAYER001
  6
CONTINUOUS
 62
   18
 10
1549.7020075
 20
1286.1752689999998
 40
1.7000000000000004
  0
LINE
  8
_0-0_LAYER001
  6
CONTINUOUS
 62
   18
 10
1549.7020075
 20
1288.6752689999998
 11
1549.7020075
 21
1236.1752689999998
  0
CIRCLE
  8
_0-0_LAYER001
  6
CONTINUOUS
 62
   18
 10
1549.7020075
 20
1286.1752689999998
 40
1.7000000000000004
  0
LINE
  8
_0-0_LAYER001
  6
CONTINUOUS
 62
   18
 10
1549.7020075
 20
1286.1752689999998
 11
1241.7020075
 21
1286.1752689999998
  0
CIRCLE
  8
_0-0_LAYER001
  6
CONTINUOUS
 62
   18
 10
1241.7020075
 20
1286.1752689999998
 40
1.7000000000000004
  0
LINE
  8
_0-0_LAYER001
  6
CONTINUOUS
 62
   18
 10
1241.7020075
 20
1288.6752689999998
 11
1241.7020075
 21
1236.1752689999998
  0
CIRCLE
  8
_0-0_LAYER001
  6
CONTINUOUS
 62
   18
 10
1241.7020075
 20
1286.1752689999998
 40
1.7000000000000004
  0
LINE
  8
_0-0_LAYER001
  6
CONTINUOUS
 62
   18
 10
1241.7020075
 20
1286.1752689999998
 11
933.70200750000004
 21
1286.1752689999998
  0
CIRCLE
  8
_0-0_LAYER001
  6
CONTINUOUS
 62
   18
 10
933.70200750000004
 20
1286.1752689999998
 40
1.7000000000000004
  0
LINE
  8
_0-0_LAYER001
  6
CONTINUOUS
 62
   18
 10
933.70200750000004
 20
1288.6752689999998
 11
933.70200750000004
 21
1236.1752689999998
  0
LINE
  8
_0-0_LAYER001
  6
CONTINUOUS
 62
   18
 10
1809.8837074999997
 20
873.49766700000009
 11
1809.8837074999997
 21
900.99766700000009
  0
CIRCLE
  8
_0-0_LAYER001
  6
CONTINUOUS
 62
   18
 10
1809.8837074999997
 20
875.99766700000009
 40
1.7000000000000004
  0
LINE
  8
_0-0_LAYER001
  6
CONTINUOUS
 62
   18
 10
1809.8837074999997
 20
875.99766700000009
 11
1899.8837074999997
 21
875.99766700000009
  0
CIRCLE
  8
_0-0_LAYER001
  6
CONTINUOUS
 62
   18
 10
1899.8837074999997
 20
875.99766700000009
 40
1.7000000000000004
  0
LINE
  8
_0-0_LAYER001
  6
CONTINUOUS
 62
   18
 10
1899.8837074999997
 20
873.49766700000009
 11
1899.8837074999997
 21
900.99766700000009
  0
LINE
  8
_0-0_LAYER001
  6
CONTINUOUS
 62
   18
 10
1191.7318854999999
 20
724.11364700000013
 11
1256.3670235
 21
724.11364700000013
  0
LINE
  8
_0-0_LAYER001
  6
CONTINUOUS
 62
   18
 10
1184.5587045000002
 20
753.9802209999998
 11
1405.4993325
 21
753.9802209999998
  0
LINE
  8
_0-0_LAYER001
  6
CONTINUOUS
 62
   18
 10
1175.0156115
 20
784.07554299999993
 11
1416.6289704999999
 21
784.07554299999993
  0
LINE
  8
_0-0_LAYER001
  6
CONTINUOUS
 62
   18
 10
1114.1240455000002
 20
1006.2500500000001
 11
1114.1240455000002
 21
1013.7500500000001
  0
LINE
  8
_0-0_LAYER001
  6
CONTINUOUS
 62
   18
 10
1114.1240455000002
 20
1013.7500500000001
 11
1117.8740455000002
 21
1007.2548590000001
  0
LINE
  8
_0-0_LAYER001
  6
CONTINUOUS
 62
   18
 10
1114.1240455000002
 20
1013.7500500000001
 11
1191.7318854999999
 21
724.11364700000013
  0
LINE
  8
_0-0_LAYER001
  6
CONTINUOUS
 62
   18
 10
1167.6317735000002
 20
814.05649099999982
 11
1372.4544865000003
 21
814.05649099999982
  0
LINE
  8
_0-0_LAYER001
  6
CONTINUOUS
 62
   18
 10
1805.0374315000004
 20
1088.8295119999998
 11
1810.7254605000003
 21
1096.2644249999998
  0
LINE
  8
_0-0_LAYER001
  6
CONTINUOUS
 62
   18
 10
1805.0374315000004
 20
1088.8295119999998
 11
1805.0374315000004
 21
1101.482512
  0
LINE
  8
_0-0_LAYER001
  6
CONTINUOUS
 62
   18
 10
1899.8837074999997
 20
1097.5379809999999
 11
1914.8837074999997
 21
1097.5379809999999
  0
LINE
  8
_0-0_LAYER001
  6
CONTINUOUS
 62
   18
 10
1912.8198134999998
 20
1198.9713430000002
 11
1892.8198134999998
 21
1198.9713430000002
  0
LINE
  8
_0-0_LAYER001
  6
CONTINUOUS
 62
   18
 10
1892.8198134999998
 20
1198.9713430000002
 11
1892.8198134999998
 21
1158.970343
  0
LINE
  8
_0-0_LAYER001
  6
CONTINUOUS
 62
   18
 10
1892.8198134999998
 20
1158.970343
 11
1912.8198134999998
 21
1158.970343
  0
LINE
  8
_0-0_LAYER001
  6
CONTINUOUS
 62
   18
 10
1912.8198134999998
 20
1158.970343
 11
1912.8198134999998
 21
1198.9713430000002
  0
LINE
  8
_0-0_LAYER001
  6
CONTINUOUS
 62
   18
 10
1912.8198134999998
 20
1198.9713430000002
 11
1892.8198134999998
 21
1158.970343
  0
LINE
  8
_0-0_LAYER001
  6
CONTINUOUS
 62
   18
 10
1805.0374315000004
 20
1101.482512
 11
1913.9296415000003
 21
1103.4354520000002
  0
LINE
  8
_0-0_LAYER001
  6
CONTINUOUS
 62
   18
 10
1908.6490815000002
 20
1190.7858409999999
 11
1903.3457805000003
 21
1185.48254
  0
LINE
  8
_0-0_LAYER001
  6
CONTINUOUS
 62
   18
 10
1903.3457805000003
 20
1185.48254
 11
1905.2869235000003
 21
1192.7269839999999
  0
LINE
  8
_0-0_LAYER001
  6
CONTINUOUS
 62
   18
 10
1903.3457805000003
 20
1185.48254
 11
1936.9054385000004
 21
1243.6095730000002
  0
LINE
  8
_0-0_LAYER001
  6
CONTINUOUS
 62
   18
 10
1936.9054385000004
 20
1243.6095730000002
 11
1977.4054385000004
 21
1243.6095730000002
  0
LINE
  8
_0-0_LAYER001
  6
CONTINUOUS
 62
   18
 10
1913.9296415000003
 20
1253.3889709999999
 11
1913.9296415000003
 21
1103.4354520000002
  0
LINE
  8
_0-0_LAYER001
  6
CONTINUOUS
 62
   18
 10
1892.8198134999998
 20
1111.4274740000001
 11
1880.8198134999998
 21
1111.4274740000001
  0
LINE
  8
_0-0_LAYER001
  6
CONTINUOUS
 62
   18
 10
1848.4354315000005
 20
1101.482512
 11
1823.4354315000005
 21
1101.482512
  0
LINE
  8
_0-0_LAYER001
  6
CONTINUOUS
 62
   18
 10
1823.4354315000005
 20
1101.482512
 11
1823.4354315000005
 21
1086.4281120000001
  0
LINE
  8
_0-0_LAYER001
  6
CONTINUOUS
 62
   18
 10
1848.4354315000005
 20
1086.4281120000001
 11
1848.4354315000005
 21
1101.482512
  0
LINE
  8
_0-0_LAYER001
  6
CONTINUOUS
 62
   18
 10
1898.9148424999998
 20
1099.2225119999998
 11
1892.8364975
 21
1088.4419349999998
  0
LINE
  8
_0-0_LAYER001
  6
CONTINUOUS
 62
   18
 10
1823.4354315000005
 20
1086.4281120000001
 11
1848.4354315000005
 21
1086.4281120000001
  0
LINE
  8
_0-0_LAYER001
  6
CONTINUOUS
 62
   18
 10
1898.9148424999998
 20
1004.482512
 11
1898.9148424999998
 21
1099.2225119999998
  0
LINE
  8
_0-0_LAYER001
  6
CONTINUOUS
 62
   18
 10
1914.8837074999997
 20
1004.5379809999999
 11
1899.8837074999997
 21
1004.5379809999999
  0
LINE
  8
_0-0_LAYER001
  6
CONTINUOUS
 62
   18
 10
1899.8837074999997
 20
1004.5379809999999
 11
1899.8837074999997
 21
1097.5379809999999
  0
LINE
  8
_0-0_LAYER001
  6
CONTINUOUS
 62
   18
 10
1914.8837074999997
 20
1097.5379809999999
 11
1914.8837074999997
 21
1004.5379809999999
  0
LINE
  8
_0-0_LAYER001
  6
CONTINUOUS
 62
   18
 10
1880.8198134999998
 20
1111.4274740000001
 11
1880.8198134999998
 21
1362.8465120000001
  0
LINE
  8
_0-0_LAYER001
  6
CONTINUOUS
 62
   18
 10
1892.8198134999998
 20
1362.8465120000001
 11
1892.8198134999998
 21
1111.4274740000001
  0
LINE
  8
_0-0_LAYER001
  6
CONTINUOUS
 62
   18
 10
1859.9108345
 20
1109.6260149999998
 11
1859.9108345
 21
1102.1260149999998
  0
LINE
  8
_0-0_LAYER001
  6
CONTINUOUS
 62
   18
 10
1859.9108345
 20
1102.1260149999998
 11
1856.1608345
 21
1108.6212059999998
  0
LINE
  8
_0-0_LAYER001
  6
CONTINUOUS
 62
   18
 10
1859.9108345
 20
1102.1260149999998
 11
1824.0522455000005
 21
1235.952092
  0
LINE
  8
_0-0_LAYER001
  6
CONTINUOUS
 62
   18
 10
1824.0522455000005
 20
1235.952092
 11
1590.0522455000005
 21
1235.952092
  0
LINE
  8
_0-0_LAYER001
  6
CONTINUOUS
 62
   18
 10
1834.0420335000003
 20
1098.09591
 11
1834.0420335000003
 21
1090.59591
  0
LINE
  8
_0-0_LAYER001
  6
CONTINUOUS
 62
   18
 10
1834.0420335000003
 20
1090.59591
 11
1830.2920335000003
 21
1097.091101
  0
LINE
  8
_0-0_LAYER001
  6
CONTINUOUS
 62
   18
 10
1834.0420335000003
 20
1090.59591
 11
1816.1500014999997
 21
1157.3698829999998
  0
LINE
  8
_0-0_LAYER001
  6
CONTINUOUS
 62
   18
 10
1816.1500014999997
 20
1157.3698829999998
 11
1718.6500014999997
 21
1157.3698829999998
  0
LINE
  8
_0-0_LAYER001
  6
CONTINUOUS
 62
   18
 10
1914.8837074999997
 20
1097.5379809999999
 11
1899.8837074999997
 21
1004.5379809999999
  0
LINE
  8
_0-0_LAYER001
  6
CONTINUOUS
 62
   18
 10
2032.8962315000003
 20
1001.482512
 11
1980.3962315000003
 21
1001.482512
  0
CIRCLE
  8
_0-0_LAYER001
  6
CONTINUOUS
 62
   18
 10
2030.3962315000003
 20
1001.482512
 40
1.7000000000000004
  0
LINE
  8
_0-0_LAYER001
  6
CONTINUOUS
 62
   18
 10
2030.3962315000003
 20
1001.482512
 11
2030.3962315000003
 21
1101.482512
  0
CIRCLE
  8
_0-0_LAYER001
  6
CONTINUOUS
 62
   18
 10
2030.3962315000003
 20
1101.482512
 40
1.7000000000000004
  0
LINE
  8
_0-0_LAYER001
  6
CONTINUOUS
 62
   18
 10
2032.8962315000003
 20
1101.482512
 11
1980.3962315000003
 21
1101.482512
  0
LINE
  8
_0-0_LAYER001
  6
CONTINUOUS
 62
   18
 10
2032.8962315000003
 20
1106.055112
 11
1980.3962315000003
 21
1106.055112
  0
CIRCLE
  8
_0-0_LAYER001
  6
CONTINUOUS
 62
   18
 10
2030.3962315000003
 20
1106.055112
 40
1.7000000000000004
  0
LINE
  8
_0-0_LAYER001
  6
CONTINUOUS
 62
   18
 10
2030.3962315000003
 20
1106.055112
 11
2030.3962315000003
 21
1256.055112
  0
CIRCLE
  8
_0-0_LAYER001
  6
CONTINUOUS
 62
   18
 10
2030.3962315000003
 20
1256.055112
 40
1.7000000000000004
  0
LINE
  8
_0-0_LAYER001
  6
CONTINUOUS
 62
   18
 10
2032.8962315000003
 20
1256.055112
 11
1980.3962315000003
 21
1256.055112
  0
LINE
  8
_0-0_LAYER001
  6
CONTINUOUS
 62
   18
 10
975.01991450000014
 20
1066.4601120000002
 11
975.01991450000014
 21
1056.241583
  0
LINE
  8
_0-0_LAYER001
  6
CONTINUOUS
 62
   18
 10
975.01991450000014
 20
1066.4601120000002
 11
935.70200750000004
 21
1066.4601120000002
  0
LINE
  8
_0-0_LAYER001
  6
CONTINUOUS
 62
   18
 10
972.70200750000004
 20
1056.241583
 11
972.70200750000004
 21
1064.4633119999999
  0
LINE
  8
_0-0_LAYER001
  6
CONTINUOUS
 62
   18
 10
972.70200750000004
 20
1064.4633119999999
 11
933.70200750000004
 21
1064.4633119999999
  0
LINE
  8
_0-0_LAYER001
  6
CONTINUOUS
 62
   18
 10
1283.0199145000001
 20
1066.4601120000002
 11
1283.0199145000001
 21
1056.241583
  0
LINE
  8
_0-0_LAYER001
  6
CONTINUOUS
 62
   18
 10
1283.0199145000001
 20
1066.4601120000002
 11
1243.7020075
 21
1066.4601120000002
  0
LINE
  8
_0-0_LAYER001
  6
CONTINUOUS
 62
   18
 10
1280.7020075
 20
1056.241583
 11
1280.7020075
 21
1064.4633119999999
  0
LINE
  8
_0-0_LAYER001
  6
CONTINUOUS
 62
   18
 10
1280.7020075
 20
1064.4633119999999
 11
1241.7020075
 21
1064.4633119999999
  0
LINE
  8
_0-0_LAYER001
  6
CONTINUOUS
 62
   18
 10
1591.0199145000001
 20
1066.4601120000002
 11
1551.7020075000005
 21
1066.4601120000002
  0
LINE
  8
_0-0_LAYER001
  6
CONTINUOUS
 62
   18
 10
1591.0199145000001
 20
1066.4601120000002
 11
1591.0199145000001
 21
1056.241583
  0
LINE
  8
_0-0_LAYER001
  6
CONTINUOUS
 62
   18
 10
1588.7020075000005
 20
1056.241583
 11
1588.7020075000005
 21
1064.4633119999999
  0
LINE
  8
_0-0_LAYER001
  6
CONTINUOUS
 62
   18
 10
1588.7020075000005
 20
1064.4633119999999
 11
1549.7020075
 21
1064.4633119999999
  0
LINE
  8
_0-0_LAYER001
  6
CONTINUOUS
 62
   18
 10
1857.7020075000005
 20
1069.202718
 11
1896.7020075000005
 21
1069.202718
  0
LINE
  8
_0-0_LAYER001
  6
CONTINUOUS
 62
   18
 10
1243.7020075
 20
1086.4281120000001
 11
1243.7020075
 21
1066.4601120000002
  0
LINE
  8
_0-0_LAYER001
  6
CONTINUOUS
 62
   18
 10
1549.7020075
 20
1086.4281120000001
 11
1549.7020075
 21
1064.4633119999999
  0
LINE
  8
_0-0_LAYER001
  6
CONTINUOUS
 62
   18
 10
933.70200750000004
 20
1086.4281120000001
 11
933.70200750000004
 21
1064.4633119999999
  0
LINE
  8
_0-0_LAYER001
  6
CONTINUOUS
 62
   18
 10
935.70200750000004
 20
1086.4281120000001
 11
935.70200750000004
 21
1066.4601120000002
  0
LINE
  8
_0-0_LAYER001
  6
CONTINUOUS
 62
   18
 10
1241.7020075
 20
1086.4281120000001
 11
1241.7020075
 21
1064.4633119999999
  0
LINE
  8
_0-0_LAYER001
  6
CONTINUOUS
 62
   18
 10
1241.7020075
 20
1086.4281120000001
 11
1241.7020075
 21
1066.4601120000002
  0
LINE
  8
_0-0_LAYER001
  6
CONTINUOUS
 62
   18
 10
1896.7020075000005
 20
1056.241583
 11
1591.0199145000001
 21
1056.241583
  0
LINE
  8
_0-0_LAYER001
  6
CONTINUOUS
 62
   18
 10
1588.7020075000005
 20
1056.241583
 11
1283.0199145000001
 21
1056.241583
  0
LINE
  8
_0-0_LAYER001
  6
CONTINUOUS
 62
   18
 10
1280.7020075
 20
1056.241583
 11
975.01991450000014
 21
1056.241583
  0
LINE
  8
_0-0_LAYER001
  6
CONTINUOUS
 62
   18
 10
972.70200750000004
 20
1056.241583
 11
822.52822349999985
 21
1056.241583
  0
LINE
  8
_0-0_LAYER001
  6
CONTINUOUS
 62
   18
 10
1551.7020075000005
 20
1086.4281120000001
 11
1551.7020075000005
 21
1066.4601120000002
  0
LINE
  8
_0-0_LAYER001
  6
CONTINUOUS
 62
   18
 10
1857.7020075000005
 20
1086.4281120000001
 11
1551.7020075000005
 21
1086.4281120000001
  0
LINE
  8
_0-0_LAYER001
  6
CONTINUOUS
 62
   18
 10
1549.7020075
 20
1086.4281120000001
 11
1243.7020075
 21
1086.4281120000001
  0
LINE
  8
_0-0_LAYER001
  6
CONTINUOUS
 62
   18
 10
1241.7020075
 20
1086.4281120000001
 11
935.70200750000004
 21
1086.4281120000001
  0
LINE
  8
_0-0_LAYER001
  6
CONTINUOUS
 62
   18
 10
933.70200750000004
 20
1086.4281120000001
 11
822.52822349999985
 21
1086.4281120000001
  0
LINE
  8
_0-0_LAYER001
  6
CONTINUOUS
 62
   18
 10
1857.7020075000005
 20
1086.4281120000001
 11
1857.7020075000005
 21
1069.202718
  0
LINE
  8
_0-0_LAYER001
  6
CONTINUOUS
 62
   18
 10
1896.7020075000005
 20
1056.241583
 11
1896.7020075000005
 21
1069.202718
  0
TEXT
  8
_0-0_LAYER001
 62
    7
 10
2011.5159404357757
 20
1178.5762101505943
 40
20
 41
1
 50
90
  1
150
  0
TEXT
  8
_0-0_LAYER001
 62
    7
 10
2007.7171701994359
 20
1045.6192518787052
 40
20
 41
1
 50
90
  1
100
  0
TEXT
  8
_0-0_LAYER001
 62
    7
 10
1845.6363067822767
 20
891.13592893422503
 40
20
 41
1
 50
0
  1
90
  0
TEXT
  8
_0-0_LAYER001
 62
    7
 10
1701.2830378013682
 20
1305.2018846952501
 40
20
 41
1
 50
0
  1
308
  0
TEXT
  8
_0-0_LAYER001
 62
    7
 10
2103.1260757191558
 20
1150.4781540981885
 40
20
 41
1
 50
90
  1
300
  0
TEXT
  8
_0-0_LAYER001
 62
    7
 10
1250.0326439290338
 20
1183.8737760623114
 40
20
 41
1
 50
0
  1
桟　瓦
  0
TEXT
  8
_0-0_LAYER001
 62
    7
 10
1170.6010251054679
 20
825.65274999524809
 40
20
 41
1
 50
0
  1
　瓦桟：１５ｘ３０以上
  0
TEXT
  8
_0-0_LAYER001
 62
    7
 10
1184.6183696037449
 20
755.56602750386617
 40
20
 41
1
 50
0
  1
　野地板：耐水合板ｔ＝１２
  0
TEXT
  8
_0-0_LAYER001
 62
    7
 10
1192.4057832138978
 20
727.53133850731297
 40
20
 41
1
 50
0
  1
　垂木
  0
TEXT
  8
_0-0_LAYER001
 62
    7
 10
1717.2774605382474
 20
1160.5115352318508
 40
20
 41
1
 50
0
  1
弾性シール材
  0
TEXT
  8
_0-0_LAYER001
 62
    7
 10
1692.357736985756
 20
1366.099254539904
 40
20
 41
1
 50
0
  1
外壁　防火サイディング
  0
TEXT
  8
_0-0_LAYER001
 62
    7
 10
2159.6025535949698
 20
1091.9822954624995
 40
20
 41
1
 50
90
  1
下葺き材立上がり寸法
  0
TEXT
  8
_0-0_LAYER001
 62
    7
 10
1093.4797999870189
 20
1306.4681414406971
 40
20
 41
1
 50
0
  1
308
  0
TEXT
  8
_0-0_LAYER001
 62
    7
 10
1400.7265692175408
 20
1313.0352536543421
 40
20
 41
1
 50
0
  1
308
  0
TEXT
  8
_0-0_LAYER001
 62
    7
 10
1506.1140195024973
 20
823.39788694991989
 40
20
 41
1
 50
0
  1
　捨谷カラー鋼板0.35ｍｍ以上
  0
TEXT
  8
_0-0_LAYER001
 62
    7
 10
1175.1804892284538
 20
788.4093198724878
 40
20
 41
1
 50
0
  1
　下葺材：ルーフィング
  0
TEXT
  8
_0-0_LAYER001
 62
    7
 10
1950.8998688428539
 20
869.26226621210822
 40
20
 41
1
 50
0
  1
下地材：15x60
  0
TEXT
  8
_0-0_LAYER001
 62
    7
 10
1539.6447296183696
 20
1238.8871209944239
 40
20
 41
1
 50
0
  1
雨押水切カラー鋼板0.35ｍｍ以上
  0
TEXT
  8
_0-0_LAYER001
 62
    7
 10
1934.7239662010384
 20
1260.754975417819
 40
20
 41
1
 50
0
  1
胴　縁
  0
TEXT
  8
_0-0_LAYER001
 62
    7
 10
2060.0996648951696
 20
1037.7028602991904
 40
20
 41
1
 50
90
  1
水切り鉄板立上がり寸法
  0
ENDSEC
  0
EOF
